  0
SECTION
  2
HEADER
  9
$ACADVER
  1
AC1032
  9
$ACADMAINTVER
 90
      228
  9
$DWGCODEPAGE
  3
ANSI_932
  9
$REQUIREDVERSIONS
160
                 0
  9
$INSBASE
 10
0.0
 20
0.0
 30
0.0
  9
$EXTMIN
 10
1.000000000000000E+20
 20
1.000000000000000E+20
 30
1.000000000000000E+20
  9
$EXTMAX
 10
-1.000000000000000E+20
 20
-1.000000000000000E+20
 30
-1.000000000000000E+20
  9
$LIMMIN
 10
0.0
 20
0.0
  9
$LIMMAX
 10
12.0
 20
9.0
  9
$ORTHOMODE
 70
     0
  9
$REGENMODE
 70
     1
  9
$FILLMODE
 70
     1
  9
$QTEXTMODE
 70
     0
  9
$MIRRTEXT
 70
     0
  9
$LTSCALE
 40
1.0
  9
$ATTMODE
 70
     1
  9
$TEXTSIZE
 40
0.2
  9
$TRACEWID
 40
0.05
  9
$TEXTSTYLE
  7
Standard
  9
$CLAYER
  8
0
  9
$CELTYPE
  6
ByLayer
  9
$CECOLOR
 62
   256
  9
$CELTSCALE
 40
1.0
  9
$DISPSILH
 70
     0
  9
$DIMSCALE
 40
1.0
  9
$DIMASZ
 40
0.18
  9
$DIMEXO
 40
0.0625
  9
$DIMDLI
 40
0.38
  9
$DIMRND
 40
0.0
  9
$DIMDLE
 40
0.0
  9
$DIMEXE
 40
0.18
  9
$DIMTP
 40
0.0
  9
$DIMTM
 40
0.0
  9
$DIMTXT
 40
0.18
  9
$DIMCEN
 40
0.09
  9
$DIMTSZ
 40
0.0
  9
$DIMTOL
 70
     0
  9
$DIMLIM
 70
     0
  9
$DIMTIH
 70
     1
  9
$DIMTOH
 70
     1
  9
$DIMSE1
 70
     0
  9
$DIMSE2
 70
     0
  9
$DIMTAD
 70
     0
  9
$DIMZIN
 70
     0
  9
$DIMBLK
  1

  9
$DIMASO
 70
     1
  9
$DIMSHO
 70
     1
  9
$DIMPOST
  1

  9
$DIMAPOST
  1

  9
$DIMALT
 70
     0
  9
$DIMALTD
 70
     2
  9
$DIMALTF
 40
25.4
  9
$DIMLFAC
 40
1.0
  9
$DIMTOFL
 70
     0
  9
$DIMTVP
 40
0.0
  9
$DIMTIX
 70
     0
  9
$DIMSOXD
 70
     0
  9
$DIMSAH
 70
     0
  9
$DIMBLK1
  1

  9
$DIMBLK2
  1

  9
$DIMSTYLE
  2
Standard
  9
$DIMCLRD
 70
     0
  9
$DIMCLRE
 70
     0
  9
$DIMCLRT
 70
     0
  9
$DIMTFAC
 40
1.0
  9
$DIMGAP
 40
0.09
  9
$DIMJUST
 70
     0
  9
$DIMSD1
 70
     0
  9
$DIMSD2
 70
     0
  9
$DIMTOLJ
 70
     1
  9
$DIMTZIN
 70
     0
  9
$DIMALTZ
 70
     0
  9
$DIMALTTZ
 70
     0
  9
$DIMUPT
 70
     0
  9
$DIMDEC
 70
     4
  9
$DIMTDEC
 70
     4
  9
$DIMALTU
 70
     2
  9
$DIMALTTD
 70
     2
  9
$DIMTXSTY
  7
Standard
  9
$DIMAUNIT
 70
     0
  9
$DIMADEC
 70
     0
  9
$DIMALTRND
 40
0.0
  9
$DIMAZIN
 70
     0
  9
$DIMDSEP
 70
    46
  9
$DIMATFIT
 70
     3
  9
$DIMFRAC
 70
     0
  9
$DIMLDRBLK
  1

  9
$DIMLUNIT
 70
     2
  9
$DIMLWD
 70
    -2
  9
$DIMLWE
 70
    -2
  9
$DIMTMOVE
 70
     0
  9
$DIMFXL
 40
1.0
  9
$DIMFXLON
 70
     0
  9
$DIMJOGANG
 40
0.7853981633974483
  9
$DIMTFILL
 70
     0
  9
$DIMTFILLCLR
 70
     0
  9
$DIMARCSYM
 70
     0
  9
$DIMLTYPE
  6

  9
$DIMLTEX1
  6

  9
$DIMLTEX2
  6

  9
$DIMTXTDIRECTION
 70
     0
  9
$LUNITS
 70
     2
  9
$LUPREC
 70
     4
  9
$SKETCHINC
 40
0.1
  9
$FILLETRAD
 40
0.0
  9
$AUNITS
 70
     0
  9
$AUPREC
 70
     0
  9
$MENU
  1
.
  9
$ELEVATION
 40
0.0
  9
$PELEVATION
 40
0.0
  9
$THICKNESS
 40
0.0
  9
$LIMCHECK
 70
     0
  9
$CHAMFERA
 40
0.0
  9
$CHAMFERB
 40
0.0
  9
$CHAMFERC
 40
0.0
  9
$CHAMFERD
 40
0.0
  9
$SKPOLY
 70
     0
  9
$TDCREATE
 40
2460187.921446759
  9
$TDUCREATE
 40
2460187.546446759
  9
$TDUPDATE
 40
2460187.921446759
  9
$TDUUPDATE
 40
2460187.546446759
  9
$TDINDWG
 40
0.0000000000
  9
$TDUSRTIMER
 40
0.0000000000
  9
$USRTIMER
 70
     1
  9
$ANGBASE
 50
0.0
  9
$ANGDIR
 70
     0
  9
$PDMODE
 70
     0
  9
$PDSIZE
 40
0.0
  9
$PLINEWID
 40
0.0
  9
$SPLFRAME
 70
     0
  9
$SPLINETYPE
 70
     6
  9
$SPLINESEGS
 70
     8
  9
$HANDSEED
  5
13F
  9
$SURFTAB1
 70
     6
  9
$SURFTAB2
 70
     6
  9
$SURFTYPE
 70
     6
  9
$SURFU
 70
     6
  9
$SURFV
 70
     6
  9
$UCSBASE
  2

  9
$UCSNAME
  2

  9
$UCSORG
 10
0.0
 20
0.0
 30
0.0
  9
$UCSXDIR
 10
1.0
 20
0.0
 30
0.0
  9
$UCSYDIR
 10
0.0
 20
1.0
 30
0.0
  9
$UCSORTHOREF
  2

  9
$UCSORTHOVIEW
 70
     0
  9
$UCSORGTOP
 10
0.0
 20
0.0
 30
0.0
  9
$UCSORGBOTTOM
 10
0.0
 20
0.0
 30
0.0
  9
$UCSORGLEFT
 10
0.0
 20
0.0
 30
0.0
  9
$UCSORGRIGHT
 10
0.0
 20
0.0
 30
0.0
  9
$UCSORGFRONT
 10
0.0
 20
0.0
 30
0.0
  9
$UCSORGBACK
 10
0.0
 20
0.0
 30
0.0
  9
$PUCSBASE
  2

  9
$PUCSNAME
  2

  9
$PUCSORG
 10
0.0
 20
0.0
 30
0.0
  9
$PUCSXDIR
 10
1.0
 20
0.0
 30
0.0
  9
$PUCSYDIR
 10
0.0
 20
1.0
 30
0.0
  9
$PUCSORTHOREF
  2

  9
$PUCSORTHOVIEW
 70
     0
  9
$PUCSORGTOP
 10
0.0
 20
0.0
 30
0.0
  9
$PUCSORGBOTTOM
 10
0.0
 20
0.0
 30
0.0
  9
$PUCSORGLEFT
 10
0.0
 20
0.0
 30
0.0
  9
$PUCSORGRIGHT
 10
0.0
 20
0.0
 30
0.0
  9
$PUCSORGFRONT
 10
0.0
 20
0.0
 30
0.0
  9
$PUCSORGBACK
 10
0.0
 20
0.0
 30
0.0
  9
$USERI1
 70
     0
  9
$USERI2
 70
     0
  9
$USERI3
 70
     0
  9
$USERI4
 70
     0
  9
$USERI5
 70
     0
  9
$USERR1
 40
0.0
  9
$USERR2
 40
0.0
  9
$USERR3
 40
0.0
  9
$USERR4
 40
0.0
  9
$USERR5
 40
0.0
  9
$WORLDVIEW
 70
     1
  9
$SHADEDGE
 70
     3
  9
$SHADEDIF
 70
    70
  9
$TILEMODE
 70
     1
  9
$MAXACTVP
 70
    64
  9
$PINSBASE
 10
0.0
 20
0.0
 30
0.0
  9
$PLIMCHECK
 70
     0
  9
$PEXTMIN
 10
1.000000000000000E+20
 20
1.000000000000000E+20
 30
1.000000000000000E+20
  9
$PEXTMAX
 10
-1.000000000000000E+20
 20
-1.000000000000000E+20
 30
-1.000000000000000E+20
  9
$PLIMMIN
 10
0.0
 20
0.0
  9
$PLIMMAX
 10
12.0
 20
9.0
  9
$UNITMODE
 70
     0
  9
$VISRETAIN
 70
     1
  9
$PLINEGEN
 70
     0
  9
$PSLTSCALE
 70
     1
  9
$TREEDEPTH
 70
  3020
  9
$CMLSTYLE
  2
Standard
  9
$CMLJUST
 70
     0
  9
$CMLSCALE
 40
1.0
  9
$PROXYGRAPHICS
 70
     1
  9
$MEASUREMENT
 70
     0
  9
$CELWEIGHT
370
    -1
  9
$ENDCAPS
280
     0
  9
$JOINSTYLE
280
     0
  9
$LWDISPLAY
290
     1
  9
$INSUNITS
 70
     4
  9
$HYPERLINKBASE
  1

  9
$STYLESHEET
  1

  9
$XEDIT
290
     1
  9
$CEPSNTYPE
380
     0
  9
$PSTYLEMODE
290
     1
  9
$FINGERPRINTGUID
  2
{D00BBD54-8A55-5348-BD3D-E4340294C456}
  9
$VERSIONGUID
  2
{F3520670-EE7D-D545-9A5C-6542EED516FE}
  9
$EXTNAMES
290
     1
  9
$PSVPSCALE
 40
0.0
  9
$OLESTARTUP
290
     0
  9
$SORTENTS
280
   127
  9
$INDEXCTL
280
     0
  9
$HIDETEXT
280
     1
  9
$XCLIPFRAME
280
     2
  9
$HALOGAP
280
     0
  9
$OBSCOLOR
 70
   257
  9
$OBSLTYPE
280
     0
  9
$INTERSECTIONDISPLAY
280
     0
  9
$INTERSECTIONCOLOR
 70
   257
  9
$DIMASSOC
280
     2
  9
$PROJECTNAME
  1

  9
$CAMERADISPLAY
290
     0
  9
$LENSLENGTH
 40
50.0
  9
$CAMERAHEIGHT
 40
0.0
  9
$STEPSPERSEC
 40
2.0
  9
$STEPSIZE
 40
6.0
  9
$3DDWFPREC
 40
2.0
  9
$PSOLWIDTH
 40
0.25
  9
$PSOLHEIGHT
 40
4.0
  9
$LOFTANG1
 40
1.570796326794896
  9
$LOFTANG2
 40
1.570796326794896
  9
$LOFTMAG1
 40
0.0
  9
$LOFTMAG2
 40
0.0
  9
$LOFTPARAM
 70
     7
  9
$LOFTNORMALS
280
     1
  9
$LATITUDE
 40
37.795
  9
$LONGITUDE
 40
-122.394
  9
$NORTHDIRECTION
 40
0.0
  9
$TIMEZONE
 70
 -8000
  9
$LIGHTGLYPHDISPLAY
280
     1
  9
$TILEMODELIGHTSYNCH
280
     1
  9
$CMATERIAL
347
11
  9
$SOLIDHIST
280
     0
  9
$SHOWHIST
280
     1
  9
$DWFFRAME
280
     2
  9
$DGNFRAME
280
     0
  9
$REALWORLDSCALE
290
     1
  9
$INTERFERECOLOR
 62
     1
  9
$INTERFEREOBJVS
345
33
  9
$INTERFEREVPVS
346
30
  9
$CSHADOW
280
     0
  9
$SHADOWPLANELOCATION
 40
0.0
  0
ENDSEC
  0
SECTION
  2
CLASSES
  0
CLASS
  1
ACDBDICTIONARYWDFLT
  2
AcDbDictionaryWithDefault
  3
ObjectDBX Classes
 90
        0
 91
        1
280
     0
281
     0
  0
CLASS
  1
MATERIAL
  2
AcDbMaterial
  3
ObjectDBX Classes
 90
     1153
 91
        3
280
     0
281
     0
  0
CLASS
  1
VISUALSTYLE
  2
AcDbVisualStyle
  3
ObjectDBX Classes
 90
     4095
 91
       24
280
     0
281
     0
  0
CLASS
  1
SCALE
  2
AcDbScale
  3
ObjectDBX Classes
 90
     1153
 91
       17
280
     0
281
     0
  0
CLASS
  1
TABLESTYLE
  2
AcDbTableStyle
  3
ObjectDBX Classes
 90
     4095
 91
        1
280
     0
281
     0
  0
CLASS
  1
MLEADERSTYLE
  2
AcDbMLeaderStyle
  3
ACDB_MLEADERSTYLE_CLASS
 90
     4095
 91
        1
280
     0
281
     0
  0
CLASS
  1
ACDBSECTIONVIEWSTYLE
  2
AcDbSectionViewStyle
  3
ObjectDBX Classes
 90
     1025
 91
        1
280
     0
281
     0
  0
CLASS
  1
ACDBDETAILVIEWSTYLE
  2
AcDbDetailViewStyle
  3
ObjectDBX Classes
 90
     1025
 91
        1
280
     0
281
     0
  0
CLASS
  1
DICTIONARYVAR
  2
AcDbDictionaryVar
  3
ObjectDBX Classes
 90
        0
 91
        5
280
     0
281
     0
  0
CLASS
  1
CELLSTYLEMAP
  2
AcDbCellStyleMap
  3
ObjectDBX Classes
 90
     1152
 91
        1
280
     0
281
     0
  0
ENDSEC
  0
SECTION
  2
TABLES
  0
TABLE
  2
VPORT
  5
8
330
0
100
AcDbSymbolTable
 70
     1
  0
VPORT
  5
57
330
8
100
AcDbSymbolTableRecord
100
AcDbViewportTableRecord
  2
*Active
 70
     0
 10
0.0
 20
0.0
 11
1.0
 21
1.0
 12
0.0
 22
0.0
 13
0.0
 23
0.0
 14
1.0
 24
1.0
 15
0.0
 25
0.0
 16
0.0
 26
0.0
 36
1.0
 17
148.5000119155985
 27
-104.9999970067687
 37
0.0
 40
214.1999938938081
 41
1.414285868084602
 42
50.0
 43
0.0
 44
0.0
 50
0.0
 51
0.0
 71
     0
 72
   100
 73
     1
 74
     1
 75
     0
 76
     0
 77
     0
 78
     0
281
     0
 65
     1
110
0.0
120
0.0
130
0.0
111
1.0
121
0.0
131
0.0
112
0.0
122
1.0
132
0.0
 79
     0
146
0.0
 60
     3
 61
     5
292
     1
282
     1
141
0.0
142
0.0
 63
   250
421
  3355443
  0
ENDTAB
  0
TABLE
  2
LTYPE
  5
5
330
0
100
AcDbSymbolTable
 70
     1
  0
LTYPE
  5
5B
330
5
100
AcDbSymbolTableRecord
100
AcDbLinetypeTableRecord
  2
ByBlock
 70
     0
  3

 72
    65
 73
     0
 40
0.0
  0
LTYPE
  5
5C
330
5
100
AcDbSymbolTableRecord
100
AcDbLinetypeTableRecord
  2
ByLayer
 70
     0
  3

 72
    65
 73
     0
 40
0.0
  0
LTYPE
  5
5D
330
5
100
AcDbSymbolTableRecord
100
AcDbLinetypeTableRecord
  2
Continuous
 70
     0
  3
Solid line
 72
    65
 73
     0
 40
0.0
  0
ENDTAB
  0
TABLE
  2
LAYER
  5
2
330
0
100
AcDbSymbolTable
 70
     2
  0
LAYER
  5
54
330
2
100
AcDbSymbolTableRecord
100
AcDbLayerTableRecord
  2
0
 70
     0
 62
     7
  6
Continuous
370
    -3
390
F
347
21
348
0
  0
LAYER
  5
78
330
2
100
AcDbSymbolTableRecord
100
AcDbLayerTableRecord
  2
レイヤー 1
 70
     0
 62
     7
  6
Continuous
370
     0
390
F
347
21
348
0
  0
ENDTAB
  0
TABLE
  2
STYLE
  5
3
330
0
100
AcDbSymbolTable
 70
     2
  0
STYLE
  5
55
330
3
100
AcDbSymbolTableRecord
100
AcDbTextStyleTableRecord
  2
Standard
 70
     0
 40
0.0
 41
1.0
 50
0.0
 71
     0
 42
0.2
  3
txt
  4

  0
STYLE
  5
5A
330
3
100
AcDbSymbolTableRecord
100
AcDbTextStyleTableRecord
  2
Annotative
 70
     0
 40
0.0
 41
1.0
 50
0.0
 71
     0
 42
0.2
  3
txt
  4

1001
AcadAnnotative
1000
AnnotativeData
1002
{
1070
     1
1070
     1
1002
}
  0
ENDTAB
  0
TABLE
  2
VIEW
  5
6
330
0
100
AcDbSymbolTable
 70
     0
  0
ENDTAB
  0
TABLE
  2
UCS
  5
7
330
0
100
AcDbSymbolTable
 70
     0
  0
ENDTAB
  0
TABLE
  2
APPID
  5
9
330
0
100
AcDbSymbolTable
 70
     2
  0
APPID
  5
56
330
9
100
AcDbSymbolTableRecord
100
AcDbRegAppTableRecord
  2
ACAD
 70
     0
  0
APPID
  5
5E
330
9
100
AcDbSymbolTableRecord
100
AcDbRegAppTableRecord
  2
AcadAnnotative
 70
     0
  0
ENDTAB
  0
TABLE
  2
DIMSTYLE
  5
A
330
0
100
AcDbSymbolTable
 70
     2
100
AcDbDimStyleTable
 71
     0
  0
DIMSTYLE
105
58
330
A
100
AcDbSymbolTableRecord
100
AcDbDimStyleTableRecord
  2
Standard
 70
     0
340
55
  0
DIMSTYLE
105
59
330
A
100
AcDbSymbolTableRecord
100
AcDbDimStyleTableRecord
  2
Annotative
 70
     0
340
55
1001
AcadAnnotative
1000
AnnotativeData
1002
{
1070
     1
1070
     1
1002
}
  0
ENDTAB
  0
TABLE
  2
BLOCK_RECORD
  5
1
330
0
100
AcDbSymbolTable
 70
     3
  0
BLOCK_RECORD
  5
70
330
1
100
AcDbSymbolTableRecord
100
AcDbBlockTableRecord
  2
*Model_Space
340
73
 70
     0
280
     1
281
     0
  0
BLOCK_RECORD
  5
6C
330
1
100
AcDbSymbolTableRecord
100
AcDbBlockTableRecord
  2
*Paper_Space
340
6F
 70
     0
280
     1
281
     0
  0
BLOCK_RECORD
  5
74
330
1
100
AcDbSymbolTableRecord
100
AcDbBlockTableRecord
  2
*Paper_Space0
340
77
 70
     0
280
     1
281
     0
  0
BLOCK_RECORD
  5
79
330
1
100
AcDbSymbolTableRecord
100
AcDbBlockTableRecord
  2
Block_0
340
0
102
{BLKREFS
331
7A
102
}
 70
     0
280
     1
281
     0
  0
BLOCK_RECORD
  5
7D
330
1
100
AcDbSymbolTableRecord
100
AcDbBlockTableRecord
  2
Block_1
340
0
102
{BLKREFS
331
7E
102
}
 70
     0
280
     1
281
     0
  0
ENDTAB
  0
ENDSEC
  0
SECTION
  2
BLOCKS
  0
BLOCK
  5
71
330
70
100
AcDbEntity
  8
0
100
AcDbBlockBegin
  2
*Model_Space
 70
     0
 10
0.0
 20
0.0
 30
0.0
  3
*Model_Space
  1

  0
ENDBLK
  5
72
330
70
100
AcDbEntity
  8
0
100
AcDbBlockEnd
  0
BLOCK
  5
6D
330
6C
100
AcDbEntity
 67
     1
  8
0
100
AcDbBlockBegin
  2
*Paper_Space
 70
     0
 10
0.0
 20
0.0
 30
0.0
  3
*Paper_Space
  1

  0
ENDBLK
  5
6E
330
6C
100
AcDbEntity
 67
     1
  8
0
100
AcDbBlockEnd
  0
BLOCK
  5
75
330
74
100
AcDbEntity
 67
     1
  8
0
100
AcDbBlockBegin
  2
*Paper_Space0
 70
     0
 10
0.0
 20
0.0
 30
0.0
  3
*Paper_Space0
  1

  0
ENDBLK
  5
76
330
74
100
AcDbEntity
 67
     1
  8
0
100
AcDbBlockEnd
  0
BLOCK
  5
7B
330
79
100
AcDbEntity
  8
0
100
AcDbBlockBegin
  2
Block_0
 70
     0
 10
0.0
 20
0.0
 30
0.0
  3
Block_0
  1

  0
INSERT
  5
7E
330
79
100
AcDbEntity
  8
レイヤー 1
100
AcDbBlockReference
  2
Block_1
 10
0.0
 20
0.0
 30
0.0
  0
SPLINE
  5
C4
330
79
100
AcDbEntity
  8
レイヤー 1
 62
   250
420
  2299925
370
    20
100
AcDbSpline
210
0.0
220
0.0
230
1.0
 70
    11
 71
     3
 72
    29
 73
    25
 74
     0
 42
0.0000000001
 43
0.0000000001
 40
0.0
 40
0.0
 40
0.0
 40
0.0
 40
1.0
 40
1.0
 40
1.0
 40
2.0
 40
2.0
 40
2.0
 40
3.0
 40
3.0
 40
3.0
 40
4.0
 40
4.0
 40
4.0
 40
5.0
 40
5.0
 40
5.0
 40
6.0
 40
6.0
 40
6.0
 40
7.0
 40
7.0
 40
7.0
 40
8.0
 40
8.0
 40
8.0
 40
8.0
 10
91.55409742730565
 20
-104.0590639161623
 30
0.0
 10
91.55409742730565
 20
-104.0590639161623
 30
0.0
 10
91.94155505432727
 20
-103.1872842553632
 30
0.0
 10
93.29765674890378
 20
-103.5263096790076
 30
0.0
 10
93.29765674890378
 20
-103.5263096790076
 30
0.0
 10
132.8667669085028
 20
-111.13016560931
 30
0.0
 10
132.8667669085028
 20
-111.13016560931
 30
0.0
 10
132.8667669085028
 20
-111.13016560931
 30
0.0
 10
134.8524872469892
 20
-111.6629198464653
 30
0.0
 10
134.6587584334785
 20
-113.4549113714404
 30
0.0
 10
134.6587584334785
 20
-113.4549113714404
 30
0.0
 10
130.2514279261053
 20
-150.9414367858002
 30
0.0
 10
130.2514279261053
 20
-150.9414367858002
 30
0.0
 10
130.2514279261053
 20
-150.9414367858002
 30
0.0
 10
129.9124025024613
 20
-153.2661825479312
 30
0.0
 10
126.3284194525098
 20
-152.3944028871321
 30
0.0
 10
126.3284194525098
 20
-152.3944028871321
 30
0.0
 10
88.50286861450987
 20
-136.2180469589719
 30
0.0
 10
88.50286861450987
 20
-136.2180469589719
 30
0.0
 10
88.50286861450987
 20
-136.2180469589719
 30
0.0
 10
88.01854658073276
 20
-136.1696147555937
 30
0.0
 10
88.01854658073276
 20
-135.2009706880388
 30
0.0
 10
88.01854658073276
 20
-135.2009706880388
 30
0.0
 10
91.55409742730565
 20
-104.0590639161623
 30
0.0
 10
91.55409742730565
 20
-104.0590639161623
 30
0.0
  0
SPLINE
  5
C5
330
79
100
AcDbEntity
  8
レイヤー 1
 62
   250
420
  2299925
370
    20
100
AcDbSpline
210
0.0
220
0.0
230
1.0
 70
     8
 71
     3
 72
    20
 73
    16
 74
     0
 42
0.0000000001
 43
0.0000000001
 40
0.0
 40
0.0
 40
0.0
 40
0.0
 40
1.0
 40
1.0
 40
1.0
 40
2.0
 40
2.0
 40
2.0
 40
3.0
 40
3.0
 40
3.0
 40
4.0
 40
4.0
 40
4.0
 40
5.0
 40
5.0
 40
5.0
 40
5.0
 10
91.98998725770549
 20
-104.0590639161623
 30
0.0
 10
91.98998725770549
 20
-104.0590639161623
 30
0.0
 10
130.0821100939811
 20
-112.2494808459049
 30
0.0
 10
130.0821100939811
 20
-112.2494808459049
 30
0.0
 10
131.0893649736973
 20
-112.46605678878
 30
0.0
 10
131.7664698221981
 20
-113.4134304880686
 30
0.0
 10
131.6452470137762
 20
-114.4365495243794
 30
0.0
 10
131.6452470137762
 20
-114.4365495243794
 30
0.0
 10
127.370785550829
 20
-150.5129525516806
 30
0.0
 10
127.370785550829
 20
-150.5129525516806
 30
0.0
 10
127.2757348500329
 20
-151.3151793163063
 30
0.0
 10
126.7133796741652
 20
-152.0015351089492
 30
0.0
 10
125.9304993206142
 20
-152.200785628712
 30
0.0
 10
125.9190281220448
 20
-152.2037051582002
 30
0.0
 10
125.9074646131888
 20
-152.2065749424377
 30
0.0
 10
125.8958080996032
 20
-152.2093936785906
 30
0.0
  0
SPLINE
  5
C6
330
79
100
AcDbEntity
  8
レイヤー 1
 62
   250
420
  2299925
370
    20
100
AcDbSpline
210
0.0
220
0.0
230
1.0
 70
     9
 71
     3
 72
    56
 73
    52
 74
     0
 42
0.0000000001
 43
0.0000000001
 40
0.0
 40
0.0
 40
0.0
 40
0.0
 40
1.0
 40
1.0
 40
1.0
 40
2.0
 40
2.0
 40
2.0
 40
3.0
 40
3.0
 40
3.0
 40
4.0
 40
4.0
 40
4.0
 40
5.0
 40
5.0
 40
5.0
 40
6.0
 40
6.0
 40
6.0
 40
7.0
 40
7.0
 40
7.0
 40
8.0
 40
8.0
 40
8.0
 40
9.0
 40
9.0
 40
9.0
 40
10.0
 40
10.0
 40
10.0
 40
11.0
 40
11.0
 40
11.0
 40
12.0
 40
12.0
 40
12.0
 40
13.0
 40
13.0
 40
13.0
 40
14.0
 40
14.0
 40
14.0
 40
15.0
 40
15.0
 40
15.0
 40
16.0
 40
16.0
 40
16.0
 40
17.0
 40
17.0
 40
17.0
 40
17.0
 10
90.29486013948462
 20
-123.7225384875195
 30
0.0
 10
90.34329234286254
 20
-123.3350808604975
 30
0.0
 10
91.0697753935282
 20
-116.893597811261
 30
0.0
 10
91.0697753935282
 20
-116.893597811261
 30
0.0
 10
91.0697753935282
 20
-116.893597811261
 30
0.0
 10
93.10392793539248
 20
-114.5204198457523
 30
0.0
 10
93.10392793539248
 20
-114.5204198457523
 30
0.0
 10
93.10392793539248
 20
-114.5204198457523
 30
0.0
 10
93.63668217254749
 20
-109.2897418809586
 30
0.0
 10
93.63668217254749
 20
-109.2897418809586
 30
0.0
 10
93.63668217254749
 20
-109.2897418809586
 30
0.0
 10
93.83041098605879
 20
-108.3210978134043
 30
0.0
 10
94.60532624010204
 20
-108.4179622201595
 30
0.0
 10
94.60532624010204
 20
-108.4179622201595
 30
0.0
 10
126.1346906389992
 20
-115.6827927268175
 30
0.0
 10
126.1346906389992
 20
-115.6827927268175
 30
0.0
 10
126.1346906389992
 20
-115.6827927268175
 30
0.0
 10
127.684521147086
 20
-116.1186825572171
 30
0.0
 10
127.3939279268199
 20
-118.0559706923262
 30
0.0
 10
127.3939279268199
 20
-118.0559706923262
 30
0.0
 10
126.6190126727763
 20
-124.6427503516968
 30
0.0
 10
126.6190126727763
 20
-124.6427503516968
 30
0.0
 10
126.6190126727763
 20
-124.6427503516968
 30
0.0
 10
128.1204109774856
 20
-127.936140181382
 30
0.0
 10
128.1204109774856
 20
-127.7424113678711
 30
0.0
 10
128.1204109774856
 20
-127.5486825543601
 30
0.0
 10
127.2970635200644
 20
-134.5713520441295
 30
0.0
 10
127.2970635200644
 20
-134.5713520441295
 30
0.0
 10
127.2970635200644
 20
-134.5713520441295
 30
0.0
 10
124.584860130912
 20
-137.6225808569256
 30
0.0
 10
124.584860130912
 20
-137.6225808569256
 30
0.0
 10
124.584860130912
 20
-137.6225808569256
 30
0.0
 10
123.9068092836233
 20
-143.5797418723863
 30
0.0
 10
123.9068092836233
 20
-143.5797418723863
 30
0.0
 10
123.9068092836233
 20
-143.5797418723863
 30
0.0
 10
123.0350296228242
 20
-145.6138944142513
 30
0.0
 10
121.533631318115
 20
-145.0811401770959
 30
0.0
 10
121.533631318115
 20
-145.0811401770959
 30
0.0
 10
91.74782624081599
 20
-133.6511401799522
 30
0.0
 10
91.74782624081599
 20
-133.6511401799522
 30
0.0
 10
91.74782624081599
 20
-133.6511401799522
 30
0.0
 10
90.68231776650561
 20
-133.5542757731971
 30
0.0
 10
90.82761437663901
 20
-131.810716451599
 30
0.0
 10
90.82761437663901
 20
-131.810716451599
 30
0.0
 10
91.60252963068257
 20
-125.7082588260055
 30
0.0
 10
91.60252963068257
 20
-125.7082588260055
 30
0.0
 10
91.60252963068257
 20
-125.7082588260055
 30
0.0
 10
91.69939403743775
 20
-125.1755045888508
 30
0.0
 10
91.31193641041612
 20
-124.6911825550737
 30
0.0
 10
90.92447878339482
 20
-124.2068605212966
 30
0.0
 10
90.29486013948462
 20
-123.7225384875195
 30
0.0
 10
90.29486013948462
 20
-123.7225384875195
 30
0.0
  0
ELLIPSE
  5
C7
330
79
100
AcDbEntity
  8
レイヤー 1
 62
   250
420
  2299925
370
    20
100
AcDbEllipse
 10
91.62674573237234
 20
-114.2056105237964
 30
0.0
 11
0.0000000000000001
 21
0.8475635591105945
 31
0.0
210
0.0
220
0.0
230
1.0
 40
0.7714285714282144
 41
0.0
 42
6.283185307179586
  0
ELLIPSE
  5
C8
330
79
100
AcDbEntity
  8
レイヤー 1
 62
   250
420
  2299925
370
    20
100
AcDbEllipse
 10
90.34329234286254
 20
-125.950419842895
 30
0.0
 11
0.0000000000000001
 21
1.06550847431036
 31
0.0
210
0.0
220
0.0
230
1.0
 40
0.5909090909089406
 41
0.0
 42
6.283185307179586
  0
ELLIPSE
  5
C9
330
79
100
AcDbEntity
  8
レイヤー 1
 62
   250
420
  2299925
370
    20
100
AcDbEllipse
 10
94.8959194603694
 20
-106.2869452715395
 30
0.0
 11
0.0000000000000001
 21
0.9202118641765682
 31
0.0
210
0.0
220
0.0
230
1.0
 40
0.8421052631579726
 41
0.0
 42
6.283185307179586
  0
CIRCLE
  5
CA
330
79
100
AcDbEntity
  8
レイヤー 1
 62
   250
420
  2299925
370
    20
100
AcDbCircle
 10
102.6571800515793
 20
-107.9457482372886
 30
0.0
 40
0.9807521183946569
  0
ELLIPSE
  5
CB
330
79
100
AcDbEntity
  8
レイヤー 1
 62
   250
420
  2299925
370
    20
100
AcDbEllipse
 10
110.2764706362722
 20
-109.6495788749886
 30
0.0
 11
0.0000000000000001
 21
1.238425717435353
 31
0.0
210
0.0
220
0.0
230
1.0
 40
0.8630594978278256
 41
0.0
 42
6.283185307179586
  0
CIRCLE
  5
CC
330
79
100
AcDbEntity
  8
レイヤー 1
 62
   250
420
  2299925
370
    20
100
AcDbCircle
 10
117.8437399506334
 20
-111.4722056699354
 30
0.0
 40
1.262251924715334
  0
ELLIPSE
  5
CD
330
79
100
AcDbEntity
  8
レイヤー 1
 62
   250
420
  2299925
370
    20
100
AcDbEllipse
 10
126.6674448761551
 20
-113.3822630663759
 30
0.0
 11
0.0000000000000001
 21
1.283453389509806
 31
0.0
210
0.0
220
0.0
230
1.0
 40
0.8679245283019705
 41
0.0
 42
6.283185307179586
  0
ELLIPSE
  5
CE
330
79
100
AcDbEntity
  8
レイヤー 1
 62
   250
420
  2299925
370
    20
100
AcDbEllipse
 10
129.3312160619298
 20
-124.3279410297418
 30
0.0
 11
0.0000000000000001
 21
1.283453389509806
 31
0.0
210
0.0
220
0.0
230
1.0
 40
0.6037735849057241
 41
0.0
 42
6.283185307179586
  0
ELLIPSE
  5
CF
330
79
100
AcDbEntity
  8
レイヤー 1
 62
   250
420
  2299925
370
    20
100
AcDbEllipse
 10
127.5634406386434
 20
-139.0028986531927
 30
0.0
 11
0.0000000000000001
 21
1.283453389509004
 31
0.0
210
0.0
220
0.0
230
1.0
 40
0.5849056603775318
 41
0.0
 42
6.283185307179586
  0
ELLIPSE
  5
D0
330
79
100
AcDbEntity
  8
レイヤー 1
 62
   250
420
  2299925
370
    20
100
AcDbEllipse
 10
91.16663980028402
 20
-135.03145797622
 30
0.0
 11
0.0000000000000001
 21
1.041292372621087
 31
0.0
210
0.0
220
0.0
230
1.0
 40
0.7906976744187552
 41
0.0
 42
6.283185307179586
  0
ELLIPSE
  5
D1
330
79
100
AcDbEntity
  8
レイヤー 1
 62
   250
420
  2299925
370
    20
100
AcDbEllipse
 10
98.64941522214285
 20
-138.1553350940829
 30
0.0
 11
0.0000000000000001
 21
1.210805084443431
 31
0.0
210
0.0
220
0.0
230
1.0
 40
0.8599999999997164
 41
0.0
 42
6.283185307179586
  0
ELLIPSE
  5
D2
330
79
100
AcDbEntity
  8
レイヤー 1
 62
   250
420
  2299925
370
    20
100
AcDbEllipse
 10
105.9142457288017
 20
-141.1096995001232
 30
0.0
 11
0.0000000000000001
 21
1.356101694576181
 31
0.0
210
0.0
220
0.0
230
1.0
 40
0.803571428571513
 41
0.0
 42
6.283185307179586
  0
ELLIPSE
  5
D3
330
79
100
AcDbEntity
  8
レイヤー 1
 62
   250
420
  2299925
370
    20
100
AcDbEllipse
 10
113.9539914895043
 20
-144.4273054314985
 30
0.0
 11
0.0000000000000001
 21
1.47718220302078
 31
0.0
210
0.0
220
0.0
230
1.0
 40
0.8360655737703385
 41
0.0
 42
6.283185307179586
  0
ELLIPSE
  5
D4
330
79
100
AcDbEntity
  8
レイヤー 1
 62
   250
420
  2299925
370
    20
100
AcDbEllipse
 10
122.3569787755397
 20
-147.7206952611842
 30
0.0
 11
0.0000000000000001
 21
1.622478813153851
 31
0.0
210
0.0
220
0.0
230
1.0
 40
0.8059701492537138
 41
0.0
 42
6.283185307179586
  0
SPLINE
  5
D5
330
79
100
AcDbEntity
  8
レイヤー 1
 62
   250
420
  2299925
370
    20
100
AcDbSpline
210
0.0
220
0.0
230
1.0
 70
     8
 71
     3
 72
    35
 73
    31
 74
     0
 42
0.0000000001
 43
0.0000000001
 40
0.0
 40
0.0
 40
0.0
 40
0.0
 40
1.0
 40
1.0
 40
1.0
 40
2.0
 40
2.0
 40
2.0
 40
3.0
 40
3.0
 40
3.0
 40
4.0
 40
4.0
 40
4.0
 40
5.0
 40
5.0
 40
5.0
 40
6.0
 40
6.0
 40
6.0
 40
7.0
 40
7.0
 40
7.0
 40
8.0
 40
8.0
 40
8.0
 40
9.0
 40
9.0
 40
9.0
 40
10.0
 40
10.0
 40
10.0
 40
10.0
 10
121.8726567417629
 20
-145.1700998042863
 30
0.0
 10
121.8726567417629
 20
-145.1700998042863
 30
0.0
 10
124.1005380971381
 20
-146.0982164480297
 30
0.0
 10
124.7785889444262
 20
-144.8389791602086
 30
0.0
 10
124.7785889444262
 20
-144.8389791602086
 30
0.0
 10
125.5535041984695
 20
-138.1553350940829
 30
0.0
 10
125.5535041984695
 20
-138.1553350940829
 30
0.0
 10
125.5535041984695
 20
-138.1553350940829
 30
0.0
 10
128.1204109774856
 20
-135.5884283150633
 30
0.0
 10
128.1204109774856
 20
-135.5884283150633
 30
0.0
 10
128.1204109774856
 20
-135.5884283150633
 30
0.0
 10
129.33121606193
 20
-127.2096571307177
 30
0.0
 10
129.33121606193
 20
-127.2096571307177
 30
0.0
 10
129.33121606193
 20
-127.2096571307177
 30
0.0
 10
127.7813855538428
 20
-124.3279410297418
 30
0.0
 10
127.7813855538428
 20
-124.3279410297418
 30
0.0
 10
127.7813855538428
 20
-124.3279410297418
 30
0.0
 10
128.5563008078861
 20
-117.4747842517958
 30
0.0
 10
128.5563008078861
 20
-117.4747842517958
 30
0.0
 10
128.5563008078861
 20
-117.4747842517958
 30
0.0
 10
128.6531652146435
 20
-115.7796571335701
 30
0.0
 10
127.0549025031791
 20
-115.053174082907
 30
0.0
 10
125.4566397917143
 20
-114.3266910322433
 30
0.0
 10
126.6674448761552
 20
-115.053174082907
 30
0.0
 10
126.6674448761552
 20
-115.053174082907
 30
0.0
 10
126.6674448761552
 20
-115.053174082907
 30
0.0
 10
94.89591946036947
 20
-107.7399113728733
 30
0.0
 10
94.89591946036947
 20
-107.7399113728733
 30
0.0
 10
94.89591946036947
 20
-107.7399113728733
 30
0.0
 10
93.99867832728762
 20
-107.6122264733334
 30
0.0
 10
93.76924804654143
 20
-108.9265003557493
 30
0.0
  0
ELLIPSE
  5
D6
330
79
100
AcDbEntity
  8
レイヤー 1
 62
   250
420
  2299925
370
    20
100
AcDbEllipse
 10
96.3004533583242
 20
-112.1576476654372
 30
0.0
 11
0.0000000000000002
 21
2.508068790448557
 31
0.0
210
0.0
220
0.0
230
1.0
 40
0.5600061303356565
 41
0.0
 42
6.283185307179586
  0
ELLIPSE
  5
D7
330
79
100
AcDbEntity
  8
レイヤー 1
 62
   250
420
  2299925
370
    20
100
AcDbEllipse
 10
99.61805928969893
 20
-112.9221571342903
 30
0.0
 11
0.0000000000000002
 21
2.470042372263643
 31
0.0
210
0.0
220
0.0
230
1.0
 40
0.5392156862745628
 41
0.0
 42
6.283185307179585
  0
ELLIPSE
  5
D8
330
79
100
AcDbEntity
  8
レイヤー 1
 62
   250
420
  2299925
370
    20
100
AcDbEllipse
 10
102.6450720008068
 20
-113.7455045917113
 30
0.0
 11
0.0000000000000002
 21
2.51847457564235
 31
0.0
210
0.0
220
0.0
230
1.0
 40
0.5769230769228956
 41
0.0
 42
6.283185307179586
  0
ELLIPSE
  5
D9
330
79
100
AcDbEntity
  8
レイヤー 1
 62
   250
420
  2299925
370
    20
100
AcDbEllipse
 10
105.8900296271142
 20
-114.4719876423768
 30
0.0
 11
0.0000000000000002
 21
2.663771185774618
 31
0.0
210
0.0
220
0.0
230
1.0
 40
0.5090909090909135
 41
0.0
 42
6.283185307179585
  0
ELLIPSE
  5
DA
330
79
100
AcDbEntity
  8
レイヤー 1
 62
   250
420
  2299925
370
    20
100
AcDbEllipse
 10
108.7657164542946
 20
-115.27111899811
 30
0.0
 11
0.0000000000000002
 21
2.784851694219378
 31
0.0
210
0.0
220
0.0
230
1.0
 40
0.4869565217389967
 41
0.0
 42
6.283185307179585
  0
ELLIPSE
  5
DB
330
79
100
AcDbEntity
  8
レイヤー 1
 62
   250
420
  2299925
370
    20
100
AcDbEllipse
 10
112.1377838628404
 20
-116.263979167354
 30
0.0
 11
0.0000000000000002
 21
2.95436440604124
 31
0.0
210
0.0
220
0.0
230
1.0
 40
0.5573770491803227
 41
0.0
 42
6.283185307179586
  0
ELLIPSE
  5
DC
330
79
100
AcDbEntity
  8
レイヤー 1
 62
   250
420
  2299925
370
    20
100
AcDbEllipse
 10
115.5477322455808
 20
-117.1115427264632
 30
0.0
 11
0.0000000000000002
 21
3.123877117862621
 31
0.0
210
0.0
220
0.0
230
1.0
 40
0.5644439270083086
 41
0.0
 42
6.283185307179586
  0
ELLIPSE
  5
DD
330
79
100
AcDbEntity
  8
レイヤー 1
 62
   250
420
  2299925
370
    20
100
AcDbEllipse
 10
119.4510465728766
 20
-118.0559706923292
 30
0.0
 11
0.0000000000000002
 21
3.148093219553338
 31
0.0
210
0.0
220
0.0
230
1.0
 40
0.5860517955070122
 41
0.0
 42
6.283185307179586
  0
ELLIPSE
  5
DE
330
79
100
AcDbEntity
  8
レイヤー 1
 62
   250
420
  2299925
370
    20
100
AcDbEllipse
 10
123.543567758293
 20
-118.8793181497496
 30
0.0
 11
0.0000000000000002
 21
3.099661016174311
 31
0.0
210
0.0
220
0.0
230
1.0
 40
0.6484374999996474
 41
0.0
 42
6.283185307179586
  0
ELLIPSE
  5
DF
330
79
100
AcDbEntity
  8
レイヤー 1
 62
   250
420
  2299925
370
    20
100
AcDbEllipse
 10
94.5084618333484
 20
-116.5424643367732
 30
0.0
 11
0.0000000000000001
 21
2.336853812976412
 31
0.0
210
0.0
220
0.0
230
1.0
 40
0.4974093264242272
 41
0.0
 42
6.283185307179585
  0
ELLIPSE
  5
E0
330
79
100
AcDbEntity
  8
レイヤー 1
 62
   250
420
  2299925
370
    20
100
AcDbEllipse
 10
97.22066522250159
 20
-117.6442969636162
 30
0.0
 11
0.0000000000000002
 21
2.591122880709526
 31
0.0
210
0.0
220
0.0
230
1.0
 40
0.5140186915885517
 41
0.0
 42
6.283185307179585
  0
ELLIPSE
  5
E1
330
79
100
AcDbEntity
  8
レイヤー 1
 62
   250
420
  2299925
370
    20
100
AcDbEllipse
 10
100.3445423403647
 20
-118.177051200773
 30
0.0
 11
0.0000000000000001
 21
2.397394067197108
 31
0.0
210
0.0
220
0.0
230
1.0
 40
0.6363636363636212
 41
0.0
 42
6.283185307179586
  0
ELLIPSE
  5
E2
330
79
100
AcDbEntity
  8
レイヤー 1
 62
   250
420
  2299925
370
    20
100
AcDbEllipse
 10
103.4926355599165
 20
-119.0427768361489
 30
0.0
 11
0.0000000000000002
 21
2.500312499375435
 31
0.0
210
0.0
220
0.0
230
1.0
 40
0.5520581113800171
 41
0.0
 42
6.283185307179586
  0
ELLIPSE
  5
E3
330
79
100
AcDbEntity
  8
レイヤー 1
 62
   250
420
  2299925
370
    20
100
AcDbEllipse
 10
106.8102414912904
 20
-119.9932588274378
 30
0.0
 11
0.0000000000000002
 21
2.591122880708403
 31
0.0
210
0.0
220
0.0
230
1.0
 40
0.6168224299063807
 41
0.0
 42
6.283185307179586
  0
ELLIPSE
  5
E4
330
79
100
AcDbEntity
  8
レイヤー 1
 62
   250
420
  2299925
370
    20
100
AcDbEllipse
 10
110.2951711577529
 20
-121.0345512000591
 30
0.0
 11
0.0000000000000002
 21
2.494258473952595
 31
0.0
210
0.0
220
0.0
230
1.0
 40
0.6131901402482725
 41
0.0
 42
6.283185307179586
  0
ELLIPSE
  5
E5
330
79
100
AcDbEntity
  8
レイヤー 1
 62
   250
420
  2299925
370
    20
100
AcDbEllipse
 10
113.6391821675498
 20
-122.0031952676138
 30
0.0
 11
0.0000000000000002
 21
2.591122880707922
 31
0.0
210
0.0
220
0.0
230
1.0
 40
0.5794392523363511
 41
0.0
 42
6.283185307179586
  0
ELLIPSE
  5
E6
330
79
100
AcDbEntity
  8
レイヤー 1
 62
   250
420
  2299925
370
    20
100
AcDbEllipse
 10
116.9197102871005
 20
-123.044487640232
 30
0.0
 11
0.0000000000000002
 21
2.712203389152362
 31
0.0
210
0.0
220
0.0
230
1.0
 40
0.6559721228714928
 41
0.0
 42
6.283185307179586
  0
ELLIPSE
  5
E7
330
79
100
AcDbEntity
  8
レイヤー 1
 62
   250
420
  2299925
370
    20
100
AcDbEllipse
 10
120.7557014270907
 20
-124.1668579082221
 30
0.0
 11
0.0000000000000002
 21
2.623768572697391
 31
0.0
210
0.0
220
0.0
230
1.0
 40
0.6287557404998569
 41
0.0
 42
6.283185307179586
  0
ELLIPSE
  5
E8
330
79
100
AcDbEntity
  8
レイヤー 1
 62
   250
420
  2299925
370
    20
100
AcDbEllipse
 10
124.536427927537
 20
-125.3450173006772
 30
0.0
 11
0.0000000000000002
 21
2.760635592530266
 31
0.0
210
0.0
220
0.0
230
1.0
 40
0.6842105263157772
 41
0.0
 42
6.283185307179586
  0
ELLIPSE
  5
E9
330
79
100
AcDbEntity
  8
レイヤー 1
 62
   250
420
  2299925
370
    20
100
AcDbEllipse
 10
95.13171510918855
 20
-121.5915215389026
 30
0.0
 11
0.0000000000000001
 21
2.179449151997021
 31
0.0
210
0.0
220
0.0
230
1.0
 40
0.6251428538255616
 41
0.0
 42
6.283185307179586
  0
ELLIPSE
  5
EA
330
79
100
AcDbEntity
  8
レイヤー 1
 62
   250
420
  2299925
370
    20
100
AcDbEllipse
 10
98.05612073076737
 20
-122.4633011997009
 30
0.0
 11
0.0000000000000001
 21
2.131016948620881
 31
0.0
210
0.0
220
0.0
230
1.0
 40
0.7329545454541704
 41
0.0
 42
6.283185307179586
  0
ELLIPSE
  5
EB
330
79
100
AcDbEntity
  8
レイヤー 1
 62
   250
420
  2299925
370
    20
100
AcDbEllipse
 10
101.131565645253
 20
-123.2987567079674
 30
0.0
 11
0.0000000000000001
 21
2.264205507907952
 31
0.0
210
0.0
220
0.0
230
1.0
 40
0.6684491978612649
 41
0.0
 42
6.283185307179586
  0
ELLIPSE
  5
EC
330
79
100
AcDbEntity
  8
レイヤー 1
 62
   250
420
  2299925
370
    20
100
AcDbEllipse
 10
104.5823601359156
 20
-124.310623858033
 30
0.0
 11
0.0000000000000001
 21
2.307428590419686
 31
0.0
210
0.0
220
0.0
230
1.0
 40
0.6506802901477835
 41
0.0
 42
6.283185307179586
  0
ELLIPSE
  5
ED
330
79
100
AcDbEntity
  8
レイヤー 1
 62
   250
420
  2299925
370
    20
100
AcDbEllipse
 10
107.4247374474597
 20
-125.1755045888539
 30
0.0
 11
0.0000000000000001
 21
2.421610168885739
 31
0.0
210
0.0
220
0.0
230
1.0
 40
0.5537551105723859
 41
0.0
 42
6.283185307179586
  0
ELLIPSE
  5
EE
330
79
100
AcDbEntity
  8
レイヤー 1
 62
   250
420
  2299925
370
    20
100
AcDbEllipse
 10
110.7332499648862
 20
-126.0472842496528
 30
0.0
 11
0.0000000000000002
 21
2.518474575641708
 31
0.0
210
0.0
220
0.0
230
1.0
 40
0.6730769230767981
 41
0.0
 42
6.283185307179586
  0
ELLIPSE
  5
EF
330
79
100
AcDbEntity
  8
レイヤー 1
 62
   250
420
  2299925
370
    20
100
AcDbEllipse
 10
114.3172330148376
 20
-127.3065215374728
 30
0.0
 11
0.0000000000000001
 21
2.421610168887504
 31
0.0
210
0.0
220
0.0
230
1.0
 40
0.65999999999978
 41
0.0
 42
6.283185307179586
  0
ELLIPSE
  5
F0
330
79
100
AcDbEntity
  8
レイヤー 1
 62
   250
420
  2299925
370
    20
100
AcDbEllipse
 10
117.8285677597226
 20
-128.5173266219156
 30
0.0
 11
0.0000000000000002
 21
2.566906779020895
 31
0.0
210
0.0
220
0.0
230
1.0
 40
0.6320754716978073
 41
0.0
 42
6.283185307179586
  0
ELLIPSE
  5
F1
330
79
100
AcDbEntity
  8
レイヤー 1
 62
   250
420
  2299925
370
    20
100
AcDbEllipse
 10
121.2188219961631
 20
-129.6796995029814
 30
0.0
 11
0.0000000000000002
 21
2.663771185776062
 31
0.0
210
0.0
220
0.0
230
1.0
 40
0.663636363635872
 41
0.0
 42
6.283185307179586
  0
ELLIPSE
  5
F2
330
79
100
AcDbEntity
  8
レイヤー 1
 62
   250
420
  2299925
370
    20
100
AcDbEllipse
 10
124.9965338596248
 20
-130.8592928375064
 30
0.0
 11
0.0000000000000002
 21
2.840279545826683
 31
0.0
210
0.0
220
0.0
230
1.0
 40
0.6394467859097031
 41
0.0
 42
6.283185307179586
  0
ELLIPSE
  5
F3
330
79
100
AcDbEntity
  8
レイヤー 1
 62
   250
420
  2299925
370
    20
100
AcDbEllipse
 10
93.12814403708392
 20
-125.7739114828458
 30
0.0
 11
0.0000000000000001
 21
2.245101808833514
 31
0.0
210
0.0
220
0.0
230
1.0
 40
0.614813007959573
 41
0.0
 42
6.283185307179586
  0
ELLIPSE
  5
F4
330
79
100
AcDbEntity
  8
レイヤー 1
 62
   250
420
  2299925
370
    20
100
AcDbEllipse
 10
96.22780505325776
 20
-126.4347418766754
 30
0.0
 11
0.0000000000000002
 21
2.470042372263482
 31
0.0
210
0.0
220
0.0
230
1.0
 40
0.5588235294115068
 41
0.0
 42
6.283185307179586
  0
ELLIPSE
  5
F5
330
79
100
AcDbEntity
  8
レイヤー 1
 62
   250
420
  2299925
370
    20
100
AcDbEllipse
 10
99.3819522982328
 20
-127.5971147577402
 30
0.0
 11
0.0000000000000001
 21
2.42161016888622
 31
0.0
210
0.0
220
0.0
230
1.0
 40
0.5475000000000936
 41
0.0
 42
6.283185307179585
  0
ELLIPSE
  5
F6
330
79
100
AcDbEntity
  8
レイヤー 1
 62
   250
420
  2299925
370
    20
100
AcDbEllipse
 10
102.3544787805405
 20
-128.5173266219156
 30
0.0
 11
0.0000000000000002
 21
2.566906779020895
 31
0.0
210
0.0
220
0.0
230
1.0
 40
0.5471698113205271
 41
0.0
 42
6.283185307179585
  0
ELLIPSE
  5
F7
330
79
100
AcDbEntity
  8
レイヤー 1
 62
   250
420
  2299925
370
    20
100
AcDbEllipse
 10
105.2846270848924
 20
-129.4807615686051
 30
0.0
 11
0.0000000000000002
 21
2.862709120152404
 31
0.0
210
0.0
220
0.0
230
1.0
 40
0.532926798485465
 41
0.0
 42
6.283185307179585
  0
ELLIPSE
  5
F8
330
79
100
AcDbEntity
  8
レイヤー 1
 62
   250
420
  2299925
370
    20
100
AcDbEllipse
 10
108.408504202755
 20
-130.8592928375065
 30
0.0
 11
0.0000000000000002
 21
2.985576155959913
 31
0.0
210
0.0
220
0.0
230
1.0
 40
0.5434390979827329
 41
0.0
 42
6.283185307179585
  0
ELLIPSE
  5
F9
330
79
100
AcDbEntity
  8
レイヤー 1
 62
   250
420
  2299925
370
    20
100
AcDbEllipse
 10
93.8030122003369
 20
-130.6263073700886
 30
0.0
 11
0.0000000000000002
 21
2.492078572712176
 31
0.0
210
0.0
220
0.0
230
1.0
 40
0.5331705522453362
 41
0.0
 42
6.283185307179585
  0
ELLIPSE
  5
FA
330
79
100
AcDbEntity
  8
レイヤー 1
 62
   250
420
  2299925
370
    20
100
AcDbEllipse
 10
97.16012496827783
 20
-131.5685554347136
 30
0.0
 11
0.0000000000000001
 21
2.421610168885579
 31
0.0
210
0.0
220
0.0
230
1.0
 40
0.6150000000001922
 41
0.0
 42
6.283185307179586
  0
ELLIPSE
  5
FB
330
79
100
AcDbEntity
  8
レイヤー 1
 62
   250
420
  2299925
370
    20
100
AcDbEllipse
 10
100.2234618319206
 20
-132.8520088242234
 30
0.0
 11
0.0000000000000002
 21
2.54269067733082
 31
0.0
210
0.0
220
0.0
230
1.0
 40
0.5523809523809199
 41
0.0
 42
6.283185307179586
  0
ELLIPSE
  5
FC
330
79
100
AcDbEntity
  8
レイヤー 1
 62
   250
420
  2299925
370
    20
100
AcDbEllipse
 10
103.2020423396506
 20
-133.9710816319053
 30
0.0
 11
0.0000000000000002
 21
2.644687214079639
 31
0.0
210
0.0
220
0.0
230
1.0
 40
0.5036079827501005
 41
0.0
 42
6.283185307179585
  0
ELLIPSE
  5
FD
330
79
100
AcDbEntity
  8
レイヤー 1
 62
   250
420
  2299925
370
    20
100
AcDbEllipse
 10
106.2532711524464
 20
-135.1525384846642
 30
0.0
 11
0.0000000000000002
 21
2.566906779018489
 31
0.0
210
0.0
220
0.0
230
1.0
 40
0.5566037735853544
 41
0.0
 42
6.283185307179586
  0
ELLIPSE
  5
FE
330
79
100
AcDbEntity
  8
レイヤー 1
 62
   250
420
  2299925
370
    20
100
AcDbEllipse
 10
109.4740126770657
 20
-136.4965321283959
 30
0.0
 11
0.0000000000000002
 21
2.506366524797312
 31
0.0
210
0.0
220
0.0
230
1.0
 40
0.5797101449275255
 41
0.0
 42
6.283185307179586
  0
ELLIPSE
  5
FF
330
79
100
AcDbEntity
  8
レイヤー 1
 62
   250
420
  2299925
370
    20
100
AcDbEllipse
 10
112.961131320262
 20
-137.7799855179063
 30
0.0
 11
0.0000000000000002
 21
2.74852754168587
 31
0.0
210
0.0
220
0.0
230
1.0
 40
0.6619509112083377
 41
0.0
 42
6.283185307179586
  0
ELLIPSE
  5
100
330
79
100
AcDbEntity
  8
レイヤー 1
 62
   250
420
  2299925
370
    20
100
AcDbEllipse
 10
111.7352035480771
 20
-131.7622842482246
 30
0.0
 11
0.0000000000000002
 21
2.857499999285753
 31
0.0
210
0.0
220
0.0
230
1.0
 40
0.5646143130741894
 41
0.0
 42
6.283185307179586
  0
ELLIPSE
  5
101
330
79
100
AcDbEntity
  8
レイヤー 1
 62
   250
420
  2299925
370
    20
100
AcDbEllipse
 10
115.2794462273251
 20
-132.9973054343565
 30
0.0
 11
0.0000000000000002
 21
2.687987287463249
 31
0.0
210
0.0
220
0.0
230
1.0
 40
0.6102201700973847
 41
0.0
 42
6.283185307179586
  0
ELLIPSE
  5
102
330
79
100
AcDbEntity
  8
レイヤー 1
 62
   250
420
  2299925
370
    20
100
AcDbEllipse
 10
119.1317152955325
 20
-134.4744876373769
 30
0.0
 11
0.0000000000000002
 21
2.905932202663336
 31
0.0
210
0.0
220
0.0
230
1.0
 40
0.6265561117995676
 41
0.0
 42
6.283185307179586
  0
ELLIPSE
  5
103
330
79
100
AcDbEntity
  8
レイヤー 1
 62
   250
420
  2299925
370
    20
100
AcDbEllipse
 10
122.9987054702945
 20
-135.8184812811091
 30
0.0
 11
0.0000000000000002
 21
2.966472456884994
 31
0.0
210
0.0
220
0.0
230
1.0
 40
0.6000000000001893
 41
0.0
 42
6.283185307179586
  0
ELLIPSE
  5
104
330
79
100
AcDbEntity
  8
レイヤー 1
 62
   250
420
  2299925
370
    20
100
AcDbEllipse
 10
116.4902185682707
 20
-139.0271147548829
 30
0.0
 11
0.0000000000000002
 21
2.95436440604124
 31
0.0
210
0.0
220
0.0
230
1.0
 40
0.578702117386834
 41
0.0
 42
6.283185307179586
  0
ELLIPSE
  5
105
330
79
100
AcDbEntity
  8
レイヤー 1
 62
   250
420
  2299925
370
    20
100
AcDbEllipse
 10
120.250177928609
 20
-140.6253774663472
 30
0.0
 11
0.0000000000000002
 21
2.905932202664138
 31
0.0
210
0.0
220
0.0
230
1.0
 40
0.6249999999998
 41
0.0
 42
6.283185307179586
  0
SPLINE
  5
106
330
79
100
AcDbEntity
  8
レイヤー 1
 62
   250
420
  2299925
370
    20
100
AcDbSpline
210
0.0
220
0.0
230
1.0
 70
     8
 71
     3
 72
     8
 73
     4
 74
     0
 42
0.0000000001
 43
0.0000000001
 40
0.0
 40
0.0
 40
0.0
 40
0.0
 40
1.0
 40
1.0
 40
1.0
 40
1.0
 10
97.2206652225018
 20
-99.05527057837659
 30
0.0
 10
97.31752962925732
 20
-99.45800459528484
 30
0.0
 10
96.63947878196953
 20
-104.0590639161623
 30
0.0
 10
96.63947878196953
 20
-104.0590639161623
 30
0.0
  0
SPLINE
  5
107
330
79
100
AcDbEntity
  8
レイヤー 1
 62
   250
420
  2299925
370
    20
100
AcDbSpline
210
0.0
220
0.0
230
1.0
 70
     8
 71
     3
 72
    86
 73
    82
 74
     0
 42
0.0000000001
 43
0.0000000001
 40
0.0
 40
0.0
 40
0.0
 40
0.0
 40
1.0
 40
1.0
 40
1.0
 40
2.0
 40
2.0
 40
2.0
 40
3.0
 40
3.0
 40
3.0
 40
4.0
 40
4.0
 40
4.0
 40
5.0
 40
5.0
 40
5.0
 40
6.0
 40
6.0
 40
6.0
 40
7.0
 40
7.0
 40
7.0
 40
8.0
 40
8.0
 40
8.0
 40
9.0
 40
9.0
 40
9.0
 40
10.0
 40
10.0
 40
10.0
 40
11.0
 40
11.0
 40
11.0
 40
12.0
 40
12.0
 40
12.0
 40
13.0
 40
13.0
 40
13.0
 40
14.0
 40
14.0
 40
14.0
 40
15.0
 40
15.0
 40
15.0
 40
16.0
 40
16.0
 40
16.0
 40
17.0
 40
17.0
 40
17.0
 40
18.0
 40
18.0
 40
18.0
 40
19.0
 40
19.0
 40
19.0
 40
20.0
 40
20.0
 40
20.0
 40
21.0
 40
21.0
 40
21.0
 40
22.0
 40
22.0
 40
22.0
 40
23.0
 40
23.0
 40
23.0
 40
24.0
 40
24.0
 40
24.0
 40
25.0
 40
25.0
 40
25.0
 40
26.0
 40
26.0
 40
26.0
 40
27.0
 40
27.0
 40
27.0
 40
27.0
 10
140.3865397337783
 20
-66.66940290856054
 30
0.0
 10
140.3865397337783
 20
-66.66940290856054
 30
0.0
 10
142.311046567162
 20
-66.66940290856054
 30
0.0
 10
142.311046567162
 20
-66.66940290856054
 30
0.0
 10
142.311046567162
 20
-66.66940290856054
 30
0.0
 10
145.8438733824197
 20
-70.6731317211133
 30
0.0
 10
149.8893243801177
 20
-70.99601307697135
 30
0.0
 10
149.8893243801177
 20
-70.99601307697135
 30
0.0
 10
156.162656733191
 20
-69.76906392474255
 30
0.0
 10
157.8093516480333
 20
-69.91436053487563
 30
0.0
 10
159.4560465628756
 20
-70.0596571450087
 30
0.0
 10
161.183461816674
 20
-70.76999612786751
 30
0.0
 10
161.8615126639659
 20
-72.3036825681693
 30
0.0
 10
161.8615126639659
 20
-72.3036825681693
 30
0.0
 10
162.814012663728
 20
-73.6597842627458
 30
0.0
 10
162.3296906299503
 20
-79.14876731222054
 30
0.0
 10
162.3296906299503
 20
-79.14876731222054
 30
0.0
 10
161.9745211385144
 20
-85.04135205650994
 30
0.0
 10
161.5224872403222
 20
-86.20372493757516
 30
0.0
 10
161.5224872403222
 20
-86.20372493757516
 30
0.0
 10
163.5727838499792
 20
-92.5806317156417
 30
0.0
 10
166.9630380864196
 20
-95.0022418845276
 30
0.0
 10
166.9630380864196
 20
-95.0022418845276
 30
0.0
 10
168.0285465607297
 20
-95.0022418845276
 30
0.0
 10
168.0285465607297
 20
-95.0022418845276
 30
0.0
 10
168.0285465607297
 20
-95.0022418845276
 30
0.0
 10
168.9918245274422
 20
-97.16374366349272
 30
0.0
 10
172.2143284320068
 20
-97.50633559577904
 30
0.0
 10
172.2634357033938
 20
-97.51155630473443
 30
0.0
 10
172.3130676183656
 20
-97.51635462150266
 30
0.0
 10
172.3632287630362
 20
-97.52071646016995
 30
0.0
 10
175.7050507960991
 20
-97.8113096804364
 30
0.0
 10
177.2548813041862
 20
-95.82558934194972
 30
0.0
 10
177.2548813041862
 20
-95.82558934194972
 30
0.0
 10
177.2548813041862
 20
-95.82558934194972
 30
0.0
 10
178.6351991004512
 20
-94.97802578283945
 30
0.0
 10
180.4029745237381
 20
-95.8740215453273
 30
0.0
 10
182.1707499470244
 20
-96.77001730781547
 30
0.0
 10
182.8972329976901
 20
-98.85260205305765
 30
0.0
 10
182.8972329976901
 20
-99.55486900203453
 30
0.0
 10
182.8972329976901
 20
-100.2571359510114
 30
0.0
 10
183.2846906247114
 20
-103.3567969671857
 30
0.0
 10
182.8003685909336
 20
-105.5120300174942
 30
0.0
 10
182.8003685909336
 20
-105.5120300174942
 30
0.0
 10
214.7656228202317
 20
-108.417962220157
 30
0.0
 10
214.7656228202317
 20
-108.417962220157
 30
0.0
 10
214.7656228202317
 20
-108.417962220157
 30
0.0
 10
213.651682142544
 20
-120.2596359460113
 30
0.0
 10
213.651682142544
 20
-120.2596359460113
 30
0.0
 10
213.651682142544
 20
-120.2596359460113
 30
0.0
 10
181.0568092693355
 20
-119.8479622173012
 30
0.0
 10
181.0568092693355
 20
-119.8479622173012
 30
0.0
 10
181.0568092693355
 20
-119.8479622173012
 30
0.0
 10
181.2989702862247
 20
-128.4204622151579
 30
0.0
 10
175.6808346944096
 20
-128.904784248935
 30
0.0
 10
175.6808346944096
 20
-128.904784248935
 30
0.0
 10
172.6780380849918
 20
-126.6769028935597
 30
0.0
 10
169.6752414755726
 20
-125.9988520462717
 30
0.0
 10
166.6724448661535
 20
-125.3208011989836
 30
0.0
 10
158.1483770716732
 20
-127.936140181382
 30
0.0
 10
154.1285041913222
 20
-137.2351232299043
 30
0.0
 10
154.1285041913222
 20
-137.2351232299043
 30
0.0
 10
153.6441821575451
 20
-137.2351232299043
 30
0.0
 10
153.6441821575451
 20
-137.2351232299043
 30
0.0
 10
153.6441821575451
 20
-137.2351232299043
 30
0.0
 10
153.159860123768
 20
-145.499573210839
 30
0.0
 10
153.159860123768
 20
-145.499573210839
 30
0.0
 10
153.159860123768
 20
-145.499573210839
 30
0.0
 10
152.6755380899915
 20
-149.2947418709553
 30
0.0
 10
149.3175719891365
 20
-149.8759283114882
 30
0.0
 10
145.9596058882809
 20
-150.4571147520211
 30
0.0
 10
142.0527414824775
 20
-147.6803350916991
 30
0.0
 10
142.0527414824775
 20
-147.6803350916991
 30
0.0
 10
142.0527414824775
 20
-147.6803350916991
 30
0.0
 10
141.2778262284343
 20
-147.3251656002613
 30
0.0
 10
139.5665550424213
 20
-147.7449113628688
 30
0.0
 10
137.8552838564084
 20
-148.1646571254762
 30
0.0
 10
132.0111313154971
 20
-151.2643181416505
 30
0.0
 10
132.0111313154971
 20
-151.2643181416505
 30
0.0
 10
132.0111313154971
 20
-151.2643181416505
 30
0.0
 10
131.0424872479407
 20
-151.6194876330895
 30
0.0
 10
130.2514279261053
 20
-150.9414367858002
 30
0.0
  0
LWPOLYLINE
  5
108
330
79
100
AcDbEntity
  8
レイヤー 1
 62
   250
420
  2299925
370
    20
100
AcDbPolyline
 90
        1
 70
     0
 43
0.0
 10
203.2064702807486
 20
-104.6402503566949
  0
SPLINE
  5
109
330
79
100
AcDbEntity
  8
レイヤー 1
 62
   250
420
  2299925
370
    20
100
AcDbSpline
210
0.0
220
0.0
230
1.0
 70
     8
 71
     3
 72
    26
 73
    22
 74
     0
 42
0.0000000001
 43
0.0000000001
 40
0.0
 40
0.0
 40
0.0
 40
0.0
 40
1.0
 40
1.0
 40
1.0
 40
2.0
 40
2.0
 40
2.0
 40
3.0
 40
3.0
 40
3.0
 40
4.0
 40
4.0
 40
4.0
 40
5.0
 40
5.0
 40
5.0
 40
6.0
 40
6.0
 40
6.0
 40
7.0
 40
7.0
 40
7.0
 40
7.0
 10
142.311046567162
 20
-66.66940290856054
 30
0.0
 10
142.311046567162
 20
-66.66940290856054
 30
0.0
 10
140.8903686014133
 20
-79.71380968496008
 30
0.0
 10
140.8903686014133
 20
-79.71380968496008
 30
0.0
 10
140.8903686014133
 20
-79.71380968496008
 30
0.0
 10
141.4715550419462
 20
-79.71380968496008
 30
0.0
 10
141.4715550419462
 20
-79.71380968496008
 30
0.0
 10
141.4715550419462
 20
-79.71380968496008
 30
0.0
 10
140.18002961854
 20
-90.85321646183663
 30
0.0
 10
140.18002961854
 20
-90.85321646183663
 30
0.0
 10
140.18002961854
 20
-90.85321646183663
 30
0.0
 10
139.4696906356674
 20
-90.85321646183663
 30
0.0
 10
139.4696906356674
 20
-90.85321646183663
 30
0.0
 10
139.4696906356674
 20
-90.85321646183663
 30
0.0
 10
138.2427414834316
 20
-103.6393181535536
 30
0.0
 10
138.2427414834316
 20
-103.6393181535536
 30
0.0
 10
138.2427414834316
 20
-103.6393181535536
 30
0.0
 10
138.4043544477058
 20
-103.9621995094087
 30
0.0
 10
137.9522344063397
 20
-104.0590639161623
 30
0.0
 10
137.5001143649738
 20
-104.1559283229162
 30
0.0
 10
135.8973541825
 20
-104.0590639161623
 30
0.0
 10
135.8973541825
 20
-104.0590639161623
 30
0.0
  0
LINE
  5
10A
330
79
100
AcDbEntity
  8
レイヤー 1
 62
   250
420
  2299925
370
    20
100
AcDbLine
 10
137.6483551395871
 20
-90.85321646183663
 30
0.0
 11
139.4696906356674
 21
-90.85321646183663
 31
0.0
  0
LINE
  5
10B
330
79
100
AcDbEntity
  8
レイヤー 1
 62
   250
420
  2299925
370
    20
100
AcDbLine
 10
140.8903686014133
 20
-79.71380968496008
 30
0.0
 11
138.9096017150158
 21
-79.71380968496008
 31
0.0
  0
SPLINE
  5
10C
330
79
100
AcDbEntity
  8
レイヤー 1
 62
   250
420
  2299925
370
    20
100
AcDbSpline
210
0.0
220
0.0
230
1.0
 70
     8
 71
     3
 72
    62
 73
    58
 74
     0
 42
0.0000000001
 43
0.0000000001
 40
0.0
 40
0.0
 40
0.0
 40
0.0
 40
1.0
 40
1.0
 40
1.0
 40
2.0
 40
2.0
 40
2.0
 40
3.0
 40
3.0
 40
3.0
 40
4.0
 40
4.0
 40
4.0
 40
5.0
 40
5.0
 40
5.0
 40
6.0
 40
6.0
 40
6.0
 40
7.0
 40
7.0
 40
7.0
 40
8.0
 40
8.0
 40
8.0
 40
9.0
 40
9.0
 40
9.0
 40
10.0
 40
10.0
 40
10.0
 40
11.0
 40
11.0
 40
11.0
 40
12.0
 40
12.0
 40
12.0
 40
13.0
 40
13.0
 40
13.0
 40
14.0
 40
14.0
 40
14.0
 40
15.0
 40
15.0
 40
15.0
 40
16.0
 40
16.0
 40
16.0
 40
17.0
 40
17.0
 40
17.0
 40
18.0
 40
18.0
 40
18.0
 40
19.0
 40
19.0
 40
19.0
 40
19.0
 10
153.6441821575451
 20
-137.2351232299043
 30
0.0
 10
153.6441821575451
 20
-137.2351232299043
 30
0.0
 10
159.0040126646801
 20
-92.11245374965733
 30
0.0
 10
159.0040126646801
 20
-92.11245374965733
 30
0.0
 10
159.1977414781905
 20
-89.81999612311208
 30
0.0
 10
159.7466397831385
 20
-83.33008087049732
 30
0.0
 10
159.7466397831385
 20
-83.33008087049732
 30
0.0
 10
159.7466397831385
 20
-83.33008087049732
 30
0.0
 10
159.843504189895
 20
-80.58558934575978
 30
0.0
 10
159.7466397831385
 20
-77.80880968543709
 30
0.0
 10
159.6497753763834
 20
-75.03203002511408
 30
0.0
 10
157.0021482584033
 20
-75.14355837061365
 30
0.0
 10
157.0021482584033
 20
-75.14355837061365
 30
0.0
 10
155.9043516485077
 20
-75.0290697670158
 30
0.0
 10
154.1607923269102
 20
-75.9360978214996
 30
0.0
 10
154.1607923269102
 20
-75.9360978214996
 30
0.0
 10
153.192148259356
 20
-76.32355544852123
 30
0.0
 10
152.1266397850466
 20
-75.9360978214996
 30
0.0
 10
152.1266397850466
 20
-75.9360978214996
 30
0.0
 10
150.2216397855224
 20
-74.5154198557531
 30
0.0
 10
146.7668092779116
 20
-75.35491138096699
 30
0.0
 10
145.927317752698
 20
-75.7746571435741
 30
0.0
 10
145.0878262274844
 20
-76.19440290618122
 30
0.0
 10
144.7326567360473
 20
-77.58279273634224
 30
0.0
 10
144.7326567360473
 20
-77.58279273634224
 30
0.0
 10
144.7326567360473
 20
-77.58279273634224
 30
0.0
 10
136.7574872465128
 20
-140.6253774663474
 30
0.0
 10
136.7574872465128
 20
-140.6253774663474
 30
0.0
 10
136.7574872465128
 20
-140.6253774663474
 30
0.0
 10
136.6929109753425
 20
-141.7877503474081
 30
0.0
 10
137.8068516530298
 20
-143.1438520419849
 30
0.0
 10
137.8068516530298
 20
-143.1438520419849
 30
0.0
 10
138.121660974986
 20
-143.5131475927396
 30
0.0
 10
137.7886895767642
 20
-143.7613626350503
 30
0.0
 10
137.4557181785423
 20
-144.0095776773618
 30
0.0
 10
134.672064847386
 20
-144.9842757703382
 30
0.0
 10
134.672064847386
 20
-144.9842757703382
 30
0.0
 10
134.672064847386
 20
-144.9842757703382
 30
0.0
 10
133.5932499591672
 20
-144.8712672957903
 30
0.0
 10
134.1582923319074
 20
-143.9349113638215
 30
0.0
 10
134.1582923319074
 20
-143.9349113638215
 30
0.0
 10
136.6606228397567
 20
-143.0792757708146
 30
0.0
 10
136.6606228397567
 20
-143.0792757708146
 30
0.0
 10
136.6606228397567
 20
-143.0792757708146
 30
0.0
 10
136.0471482636386
 20
-141.3680045848019
 30
0.0
 10
136.0471482636386
 20
-141.3680045848019
 30
0.0
 10
136.0471482636386
 20
-141.3680045848019
 30
0.0
 10
136.2731652127357
 20
-138.8333859413646
 30
0.0
 10
136.2731652127357
 20
-138.8333859413646
 30
0.0
 10
136.2731652127357
 20
-138.8333859413646
 30
0.0
 10
135.0300719927081
 20
-139.3015639073489
 30
0.0
 10
135.0300719927081
 20
-139.3015639073489
 30
0.0
 10
135.0300719927081
 20
-139.3015639073489
 30
0.0
 10
134.5233976035286
 20
-139.0554649183194
 30
0.0
 10
134.7712161302533
 20
-138.6043919610781
 30
0.0
 10
134.7851012674676
 20
-138.5791185887135
 30
0.0
 10
134.8013549842387
 20
-138.5532017415844
 30
0.0
 10
134.820199111404
 20
-138.5266486533051
 30
0.0
  0
SPLINE
  5
10D
330
79
100
AcDbEntity
  8
レイヤー 1
 62
   250
420
  2299925
370
    20
100
AcDbSpline
210
0.0
220
0.0
230
1.0
 70
     8
 71
     3
 72
    26
 73
    22
 74
     0
 42
0.0000000001
 43
0.0000000001
 40
0.0
 40
0.0
 40
0.0
 40
0.0
 40
1.0
 40
1.0
 40
1.0
 40
2.0
 40
2.0
 40
2.0
 40
3.0
 40
3.0
 40
3.0
 40
4.0
 40
4.0
 40
4.0
 40
5.0
 40
5.0
 40
5.0
 40
6.0
 40
6.0
 40
6.0
 40
7.0
 40
7.0
 40
7.0
 40
7.0
 10
161.5224872403222
 20
-86.20372493757516
 30
0.0
 10
161.5224872403222
 20
-86.20372493757516
 30
0.0
 10
161.1155164738946
 20
-84.3723564886506
 30
0.0
 10
161.0738807737261
 20
-83.32994295170358
 30
0.0
 10
161.0716361557844
 20
-83.27374550292288
 30
0.0
 10
161.0704533421305
 20
-83.21984106071546
 30
0.0
 10
161.0704533421305
 20
-83.16864019257407
 30
0.0
 10
161.0704533421305
 20
-83.16864019257407
 30
0.0
 10
160.2955380880866
 20
-83.16864019257407
 30
0.0
 10
160.2955380880866
 20
-83.16864019257407
 30
0.0
 10
160.2955380880866
 20
-83.16864019257407
 30
0.0
 10
160.2632499525011
 20
-87.23694527630293
 30
0.0
 10
161.9745211385144
 20
-89.94914866545528
 30
0.0
 10
161.9745211385144
 20
-89.94914866545528
 30
0.0
 10
163.7180804601119
 20
-93.43626730865123
 30
0.0
 10
166.4302838492643
 20
-95.27669103700485
 30
0.0
 10
166.4302838492643
 20
-95.27669103700485
 30
0.0
 10
168.0124024929376
 20
-95.27669103700485
 30
0.0
 10
168.0124024929376
 20
-95.27669103700485
 30
0.0
 10
168.0124024929376
 20
-95.27669103700485
 30
0.0
 10
166.7208770695311
 20
-105.6734706954204
 30
0.0
 10
166.7208770695311
 20
-105.6734706954204
 30
0.0
  0
SPLINE
  5
10E
330
79
100
AcDbEntity
  8
レイヤー 1
 62
   250
420
  2299925
370
    20
100
AcDbSpline
210
0.0
220
0.0
230
1.0
 70
     9
 71
     3
 72
    32
 73
    28
 74
     0
 42
0.0000000001
 43
0.0000000001
 40
0.0
 40
0.0
 40
0.0
 40
0.0
 40
1.0
 40
1.0
 40
1.0
 40
2.0
 40
2.0
 40
2.0
 40
3.0
 40
3.0
 40
3.0
 40
4.0
 40
4.0
 40
4.0
 40
5.0
 40
5.0
 40
5.0
 40
6.0
 40
6.0
 40
6.0
 40
7.0
 40
7.0
 40
7.0
 40
8.0
 40
8.0
 40
8.0
 40
9.0
 40
9.0
 40
9.0
 40
9.0
 10
158.4551143597333
 20
-100.4750808662121
 30
0.0
 10
158.4551143597333
 20
-100.4750808662121
 30
0.0
 10
161.361046562396
 20
-99.1512673072208
 30
0.0
 10
161.361046562396
 20
-99.1512673072208
 30
0.0
 10
161.361046562396
 20
-99.1512673072208
 30
0.0
 10
161.8453685961731
 20
-98.82838595136952
 30
0.0
 10
162.3296906299503
 20
-99.1512673072208
 30
0.0
 10
162.3296906299503
 20
-99.1512673072208
 30
0.0
 10
164.783588934422
 20
-101.4437249337664
 30
0.0
 10
164.783588934422
 20
-101.4437249337664
 30
0.0
 10
164.783588934422
 20
-101.4437249337664
 30
0.0
 10
164.7835462393659
 20
-102.3155045945657
 30
0.0
 10
164.1539489429837
 20
-101.960335103129
 30
0.0
 10
163.5243516466016
 20
-101.6051656116925
 30
0.0
 10
163.9763855447939
 20
-101.8311825607883
 30
0.0
 10
163.9763855447939
 20
-101.8311825607883
 30
0.0
 10
163.9763855447939
 20
-101.8311825607883
 30
0.0
 10
162.0390974096848
 20
-100.184487645946
 30
0.0
 10
162.0390974096848
 20
-100.184487645946
 30
0.0
 10
162.0390974096848
 20
-100.184487645946
 30
0.0
 10
161.8453685961731
 20
-99.79703001892406
 30
0.0
 10
161.2318940200554
 20
-100.1199113747753
 30
0.0
 10
161.2318940200554
 20
-100.1199113747753
 30
0.0
 10
159.0040126646801
 20
-101.314572391426
 30
0.0
 10
159.0040126646801
 20
-101.314572391426
 30
0.0
 10
159.0040126646801
 20
-101.314572391426
 30
0.0
 10
158.196809275052
 20
-101.4437249337664
 30
0.0
 10
158.4551143597333
 20
-100.4750808662121
 30
0.0
  0
SPLINE
  5
10F
330
79
100
AcDbEntity
  8
レイヤー 1
 62
   250
420
  2299925
370
    20
100
AcDbSpline
210
0.0
220
0.0
230
1.0
 70
    11
 71
     3
 72
    35
 73
    31
 74
     0
 42
0.0000000001
 43
0.0000000001
 40
0.0
 40
0.0
 40
0.0
 40
0.0
 40
1.0
 40
1.0
 40
1.0
 40
2.0
 40
2.0
 40
2.0
 40
3.0
 40
3.0
 40
3.0
 40
4.0
 40
4.0
 40
4.0
 40
5.0
 40
5.0
 40
5.0
 40
6.0
 40
6.0
 40
6.0
 40
7.0
 40
7.0
 40
7.0
 40
8.0
 40
8.0
 40
8.0
 40
9.0
 40
9.0
 40
9.0
 40
10.0
 40
10.0
 40
10.0
 40
10.0
 10
163.1368940195796
 20
-108.0627927287205
 30
0.0
 10
163.1368940195796
 20
-108.0627927287205
 30
0.0
 10
163.5569458034672
 20
-108.5232341072119
 30
0.0
 10
163.8547334890488
 20
-108.066029438533
 30
0.0
 10
163.9680942600354
 20
-107.891982369934
 30
0.0
 10
163.9270688886403
 20
-107.6585651388466
 30
0.0
 10
163.7814294221362
 20
-107.5104699252741
 30
0.0
 10
163.7814294221362
 20
-107.5104699252741
 30
0.0
 10
161.5938589930603
 20
-105.2860130683984
 30
0.0
 10
161.5938589930603
 20
-105.2860130683984
 30
0.0
 10
161.3100612543626
 20
-104.8662673057913
 30
0.0
 10
160.5538431727679
 20
-105.1245723904729
 30
0.0
 10
160.5538431727679
 20
-105.1245723904729
 30
0.0
 10
160.5538431727679
 20
-105.1245723904729
 30
0.0
 10
158.1916903704152
 20
-106.1694381552202
 30
0.0
 10
158.1916903704152
 20
-106.1694381552202
 30
0.0
 10
157.9468517525771
 20
-106.2777391463373
 30
0.0
 10
157.7464077438097
 20
-106.4788811839117
 30
0.0
 10
157.6693871585809
 20
-106.735284933714
 30
0.0
 10
157.5889675580702
 20
-107.003004103429
 30
0.0
 10
157.6657481494073
 20
-107.2685045933262
 30
0.0
 10
158.4041290516992
 20
-107.1264367967517
 30
0.0
 10
158.4041290516992
 20
-107.1264367967517
 30
0.0
 10
160.4246906304273
 20
-106.1843441851916
 30
0.0
 10
160.4246906304273
 20
-106.1843441851916
 30
0.0
 10
160.4246906304273
 20
-106.1843441851916
 30
0.0
 10
160.9170846981017
 20
-105.7945512038644
 30
0.0
 10
161.3852626640861
 20
-106.2957137876932
 30
0.0
 10
161.3852626640861
 20
-106.2957137876932
 30
0.0
 10
163.1368940195796
 20
-108.0627927287205
 30
0.0
 10
163.1368940195796
 20
-108.0627927287205
 30
0.0
  0
SPLINE
  5
110
330
79
100
AcDbEntity
  8
レイヤー 1
 62
   250
420
  2299925
370
    20
100
AcDbSpline
210
0.0
220
0.0
230
1.0
 70
    11
 71
     3
 72
    35
 73
    31
 74
     0
 42
0.0000000001
 43
0.0000000001
 40
0.0
 40
0.0
 40
0.0
 40
0.0
 40
1.0
 40
1.0
 40
1.0
 40
2.0
 40
2.0
 40
2.0
 40
3.0
 40
3.0
 40
3.0
 40
4.0
 40
4.0
 40
4.0
 40
5.0
 40
5.0
 40
5.0
 40
6.0
 40
6.0
 40
6.0
 40
7.0
 40
7.0
 40
7.0
 40
8.0
 40
8.0
 40
8.0
 40
9.0
 40
9.0
 40
9.0
 40
10.0
 40
10.0
 40
10.0
 40
10.0
 10
157.6427049050229
 20
-113.6026979129112
 30
0.0
 10
157.6427049050229
 20
-113.6026979129112
 30
0.0
 10
157.222653121177
 20
-113.1422565343833
 30
0.0
 10
156.924865435555
 20
-113.5994612030352
 30
0.0
 10
156.8115046645524
 20
-113.7735082716233
 30
0.0
 10
156.852530035927
 20
-114.0069255027146
 30
0.0
 10
156.998169502417
 20
-114.1550207162999
 30
0.0
 10
156.998169502417
 20
-114.1550207162999
 30
0.0
 10
159.1857399312933
 20
-116.3794775733725
 30
0.0
 10
159.1857399312933
 20
-116.3794775733725
 30
0.0
 10
159.4695376699531
 20
-116.7992233360056
 30
0.0
 10
160.2257557515715
 20
-116.5409182513917
 30
0.0
 10
160.2257557515715
 20
-116.5409182513917
 30
0.0
 10
160.2257557515715
 20
-116.5409182513917
 30
0.0
 10
162.5879085540178
 20
-115.4960524868562
 30
0.0
 10
162.5879085540178
 20
-115.4960524868562
 30
0.0
 10
162.8327471718656
 20
-115.3877514957603
 30
0.0
 10
163.0331911806504
 20
-115.1866094582045
 30
0.0
 10
163.1102117659029
 20
-114.9302057084093
 30
0.0
 10
163.190631366438
 20
-114.662486538702
 30
0.0
 10
163.1138507751246
 20
-114.3969860487971
 30
0.0
 10
162.3754698728198
 20
-114.5390538453054
 30
0.0
 10
162.3754698728198
 20
-114.5390538453054
 30
0.0
 10
160.3549082940071
 20
-115.481146456684
 30
0.0
 10
160.3549082940071
 20
-115.481146456684
 30
0.0
 10
160.3549082940071
 20
-115.481146456684
 30
0.0
 10
159.8625142262974
 20
-115.8709394379676
 30
0.0
 10
159.3943362603579
 20
-115.3697768540957
 30
0.0
 10
159.3943362603579
 20
-115.3697768540957
 30
0.0
 10
157.6427049050229
 20
-113.6026979129112
 30
0.0
 10
157.6427049050229
 20
-113.6026979129112
 30
0.0
  0
SPLINE
  5
111
330
79
100
AcDbEntity
  8
レイヤー 1
 62
   250
420
  2299925
370
    20
100
AcDbSpline
210
0.0
220
0.0
230
1.0
 70
    11
 71
     3
 72
    35
 73
    31
 74
     0
 42
0.0000000001
 43
0.0000000001
 40
0.0
 40
0.0
 40
0.0
 40
0.0
 40
1.0
 40
1.0
 40
1.0
 40
2.0
 40
2.0
 40
2.0
 40
3.0
 40
3.0
 40
3.0
 40
4.0
 40
4.0
 40
4.0
 40
5.0
 40
5.0
 40
5.0
 40
6.0
 40
6.0
 40
6.0
 40
7.0
 40
7.0
 40
7.0
 40
8.0
 40
8.0
 40
8.0
 40
9.0
 40
9.0
 40
9.0
 40
10.0
 40
10.0
 40
10.0
 40
10.0
 10
156.8775809632515
 20
-119.5747212209626
 30
0.0
 10
156.8775809632515
 20
-119.5747212209626
 30
0.0
 10
156.4575291794057
 20
-119.1142798424347
 30
0.0
 10
156.1597414937837
 20
-119.5714845110865
 30
0.0
 10
156.0463807227817
 20
-119.7455315796753
 30
0.0
 10
156.0874060941556
 20
-119.9789488107666
 30
0.0
 10
156.2330455606462
 20
-120.1270440243519
 30
0.0
 10
156.2330455606462
 20
-120.1270440243519
 30
0.0
 10
158.4206159895219
 20
-122.3515008814239
 30
0.0
 10
158.4206159895219
 20
-122.3515008814239
 30
0.0
 10
158.7044137281818
 20
-122.771246644057
 30
0.0
 10
159.4606318098001
 20
-122.5129415594431
 30
0.0
 10
159.4606318098001
 20
-122.5129415594431
 30
0.0
 10
159.4606318098001
 20
-122.5129415594431
 30
0.0
 10
161.8227846122465
 20
-121.4680757949075
 30
0.0
 10
161.8227846122465
 20
-121.4680757949075
 30
0.0
 10
162.0676232300949
 20
-121.3597748038117
 30
0.0
 10
162.268067238879
 20
-121.1586327662559
 30
0.0
 10
162.3450878241316
 20
-120.9022290164606
 30
0.0
 10
162.4255074246667
 20
-120.6345098467533
 30
0.0
 10
162.3487268333533
 20
-120.3690093568484
 30
0.0
 10
161.6103459310485
 20
-120.5110771533568
 30
0.0
 10
161.6103459310485
 20
-120.5110771533568
 30
0.0
 10
159.5897843522358
 20
-121.4531697647354
 30
0.0
 10
159.5897843522358
 20
-121.4531697647354
 30
0.0
 10
159.5897843522358
 20
-121.4531697647354
 30
0.0
 10
159.0973902845267
 20
-121.842962746019
 30
0.0
 10
158.6292123185872
 20
-121.3418001621471
 30
0.0
 10
158.6292123185872
 20
-121.3418001621471
 30
0.0
 10
156.8775809632515
 20
-119.5747212209626
 30
0.0
 10
156.8775809632515
 20
-119.5747212209626
 30
0.0
  0
LINE
  5
112
330
79
100
AcDbEntity
  8
レイヤー 1
 62
   250
420
  2299925
370
    20
100
AcDbLine
 10
166.4302838492643
 20
-95.27669103700485
 30
0.0
 11
162.370460628413
 21
-127.8266381817521
 31
0.0
  0
SPLINE
  5
113
330
79
100
AcDbEntity
  8
レイヤー 1
 62
   250
420
  2299925
370
    20
100
AcDbSpline
210
0.0
220
0.0
230
1.0
 70
     8
 71
     3
 72
    14
 73
    10
 74
     0
 42
0.0000000001
 43
0.0000000001
 40
0.0
 40
0.0
 40
0.0
 40
0.0
 40
1.0
 40
1.0
 40
1.0
 40
2.0
 40
2.0
 40
2.0
 40
3.0
 40
3.0
 40
3.0
 40
3.0
 10
182.8003685909336
 20
-105.5120300174942
 30
0.0
 10
182.8003685909336
 20
-105.5120300174942
 30
0.0
 10
174.9220635081585
 20
-105.0459444455516
 30
0.0
 10
174.9220635081585
 20
-105.0459444455516
 30
0.0
 10
174.9220635081585
 20
-105.0459444455516
 30
0.0
 10
170.7246058820893
 20
-106.0874797784358
 30
0.0
 10
170.4985889329935
 20
-112.6799961173971
 30
0.0
 10
170.4985889329935
 20
-112.6799961173971
 30
0.0
 10
169.9981228314262
 20
-117.3188215921446
 30
0.0
 10
173.9372753728141
 20
-119.7026656071672
 30
0.0
  0
ELLIPSE
  5
114
330
79
100
AcDbEntity
  8
レイヤー 1
 62
   250
420
  2299925
370
    20
100
AcDbEllipse
 10
180.2173177441232
 20
-113.3970948937496
 30
0.0
 11
0.0000000000000002
 21
3.131949151759152
 31
0.0
210
0.0
220
0.0
230
1.0
 40
0.5979381443297935
 41
0.0
 42
6.283185307179586
  0
SPLINE
  5
115
330
79
100
AcDbEntity
  8
レイヤー 1
 62
   250
420
  2299925
370
    20
100
AcDbSpline
210
0.0
220
0.0
230
1.0
 70
     8
 71
     3
 72
    14
 73
    10
 74
     0
 42
0.0000000001
 43
0.0000000001
 40
0.0
 40
0.0
 40
0.0
 40
0.0
 40
1.0
 40
1.0
 40
1.0
 40
2.0
 40
2.0
 40
2.0
 40
3.0
 40
3.0
 40
3.0
 40
3.0
 10
172.5085253731689
 20
-118.1627771486811
 30
0.0
 10
172.5085253731689
 20
-118.1627771486811
 30
0.0
 10
170.5035556882109
 20
-112.6227056043814
 30
0.0
 10
172.5566252137178
 20
-109.7818974658489
 30
0.0
 10
172.9087090646494
 20
-109.2947231852169
 30
0.0
 10
173.5072370617848
 20
-109.0495029599921
 30
0.0
 10
174.098693099382
 20
-109.1566550639706
 30
0.0
 10
174.098693099382
 20
-109.1566550639706
 30
0.0
 10
180.2173177441232
 20
-110.2651457419905
 30
0.0
 10
180.2173177441232
 20
-110.2651457419905
 30
0.0
  0
ELLIPSE
  5
116
330
79
100
AcDbEntity
  8
レイヤー 1
 62
   250
420
  2299925
370
    20
100
AcDbEllipse
 10
175.0680692967069
 20
-112.6799961173971
 30
0.0
 11
0.0000000000000001
 21
1.582118643671997
 31
0.0
210
0.0
220
0.0
230
1.0
 40
0.5412645725699078
 41
0.0
 42
6.283185307179585
  0
SPLINE
  5
117
330
79
100
AcDbEntity
  8
レイヤー 1
 62
   250
420
  2299925
370
    20
100
AcDbSpline
210
0.0
220
0.0
230
1.0
 70
     8
 71
     3
 72
    17
 73
    13
 74
     0
 42
0.0000000001
 43
0.0000000001
 40
0.0
 40
0.0
 40
0.0
 40
0.0
 40
1.0
 40
1.0
 40
1.0
 40
2.0
 40
2.0
 40
2.0
 40
3.0
 40
3.0
 40
3.0
 40
4.0
 40
4.0
 40
4.0
 40
4.0
 10
180.9890217444823
 20
-105.4048695785363
 30
0.0
 10
180.9890217444823
 20
-105.4048695785363
 30
0.0
 10
180.6209194389398
 20
-101.2015639168772
 30
0.0
 10
177.0369363889884
 20
-100.8625384932331
 30
0.0
 10
177.0369363889884
 20
-100.8625384932331
 30
0.0
 10
170.0626991025972
 20
-100.0588415785265
 30
0.0
 10
168.8034618147761
 20
-111.5516646093779
 30
0.0
 10
168.8034618147761
 20
-111.5516646093779
 30
0.0
 10
167.5442245269545
 20
-122.3194103011425
 30
0.0
 10
173.8888431694365
 20
-123.625674080763
 30
0.0
 10
173.8888431694365
 20
-123.625674080763
 30
0.0
 10
177.9087160497875
 20
-124.3406068441964
 30
0.0
 10
179.5069787612528
 20
-120.9803438530606
 30
0.0
  0
SPLINE
  5
118
330
79
100
AcDbEntity
  8
レイヤー 1
 62
   250
420
  2299925
370
    20
100
AcDbSpline
210
0.0
220
0.0
230
1.0
 70
     8
 71
     3
 72
    17
 73
    13
 74
     0
 42
0.0000000001
 43
0.0000000001
 40
0.0
 40
0.0
 40
0.0
 40
0.0
 40
1.0
 40
1.0
 40
1.0
 40
2.0
 40
2.0
 40
2.0
 40
3.0
 40
3.0
 40
3.0
 40
4.0
 40
4.0
 40
4.0
 40
4.0
 10
180.9890217444823
 20
-104.54338594994
 30
0.0
 10
180.9890217444823
 20
-104.54338594994
 30
0.0
 10
180.7030581347278
 20
-98.15033510408046
 30
0.0
 10
175.0680692967069
 20
-98.19876730745804
 30
0.0
 10
175.0680692967069
 20
-98.19876730745804
 30
0.0
 10
168.4160041877542
 20
-97.27855544328171
 30
0.0
 10
165.4616397817126
 20
-110.0646571349999
 30
0.0
 10
165.4616397817126
 20
-110.0646571349999
 30
0.0
 10
162.9811267689751
 20
-124.4005893348056
 30
0.0
 10
171.6315103921359
 20
-125.6598266226266
 30
0.0
 10
171.6315103921359
 20
-125.6598266226266
 30
0.0
 10
175.2979294133231
 20
-126.5971714103331
 30
0.0
 10
178.0562888328873
 20
-122.7382447800394
 30
0.0
  0
SPLINE
  5
119
330
79
100
AcDbEntity
  8
レイヤー 1
 62
   250
420
  2299925
370
    20
100
AcDbSpline
210
0.0
220
0.0
230
1.0
 70
     8
 71
     3
 72
    20
 73
    16
 74
     0
 42
0.0000000001
 43
0.0000000001
 40
0.0
 40
0.0
 40
0.0
 40
0.0
 40
1.0
 40
1.0
 40
1.0
 40
2.0
 40
2.0
 40
2.0
 40
3.0
 40
3.0
 40
3.0
 40
4.0
 40
4.0
 40
4.0
 40
5.0
 40
5.0
 40
5.0
 40
5.0
 10
134.8013549842387
 20
-138.5532017415844
 30
0.0
 10
134.8013549842387
 20
-138.5532017415844
 30
0.0
 10
136.4346058906619
 20
-137.9777503483576
 30
0.0
 10
136.4346058906619
 20
-137.9777503483576
 30
0.0
 10
136.4346058906619
 20
-137.9777503483576
 30
0.0
 10
137.9763643648536
 20
-126.2167969614676
 30
0.0
 10
137.9763643648536
 20
-126.2167969614676
 30
0.0
 10
137.9763643648536
 20
-126.2167969614676
 30
0.0
 10
136.388859674546
 20
-125.9504198428896
 30
0.0
 10
136.388859674546
 20
-125.9504198428896
 30
0.0
 10
136.388859674546
 20
-125.9504198428896
 30
0.0
 10
136.1117245348109
 20
-125.3208011989797
 30
0.0
 10
136.6929109753438
 20
-125.0302079787129
 30
0.0
 10
136.6929109753438
 20
-125.0302079787129
 30
0.0
 10
138.6929677595707
 20
-125.3256782690002
 30
0.0
 10
138.6929677595707
 20
-125.3256782690002
 30
0.0
  0
SPLINE
  5
11A
330
79
100
AcDbEntity
  8
レイヤー 1
 62
   250
420
  2299925
370
    20
100
AcDbSpline
210
0.0
220
0.0
230
1.0
 70
     8
 71
     3
 72
    14
 73
    10
 74
     0
 42
0.0000000001
 43
0.0000000001
 40
0.0
 40
0.0
 40
0.0
 40
0.0
 40
1.0
 40
1.0
 40
1.0
 40
2.0
 40
2.0
 40
2.0
 40
3.0
 40
3.0
 40
3.0
 40
3.0
 10
139.1981031639858
 20
-121.332654474993
 30
0.0
 10
139.1981031639858
 20
-121.332654474993
 30
0.0
 10
137.1045847040542
 20
-120.7197418780913
 30
0.0
 10
137.1045847040542
 20
-120.7197418780913
 30
0.0
 10
137.1045847040542
 20
-120.7197418780913
 30
0.0
 10
136.6929109753441
 20
-119.8237461156035
 30
0.0
 10
137.4920423310762
 20
-119.6058012004044
 30
0.0
 10
137.4920423310762
 20
-119.6058012004044
 30
0.0
 10
139.3575632008992
 20
-120.0721454787461
 30
0.0
 10
139.3575632008992
 20
-120.0721454787461
 30
0.0
  0
SPLINE
  5
11B
330
79
100
AcDbEntity
  8
レイヤー 1
 62
   250
420
  2299925
370
    20
100
AcDbSpline
210
0.0
220
0.0
230
1.0
 70
     8
 71
     3
 72
    20
 73
    16
 74
     0
 42
0.0000000001
 43
0.0000000001
 40
0.0
 40
0.0
 40
0.0
 40
0.0
 40
1.0
 40
1.0
 40
1.0
 40
2.0
 40
2.0
 40
2.0
 40
3.0
 40
3.0
 40
3.0
 40
4.0
 40
4.0
 40
4.0
 40
5.0
 40
5.0
 40
5.0
 40
5.0
 10
134.6587584334785
 20
-113.4549113714404
 30
0.0
 10
134.6587584334785
 20
-113.4549113714404
 30
0.0
 10
135.8210573207335
 20
-113.4549113714404
 30
0.0
 10
135.8210573207335
 20
-113.4549113714404
 30
0.0
 10
136.0327017511817
 20
-113.4549113714404
 30
0.0
 10
136.242561289688
 20
-113.4962043065987
 30
0.0
 10
136.4343608944788
 20
-113.5856821057551
 30
0.0
 10
136.5642187763143
 20
-113.646263030739
 30
0.0
 10
136.7251798052208
 20
-113.732495682026
 30
0.0
 10
136.9079030755455
 20
-113.8533722033291
 30
0.0
 10
136.9676097670595
 20
-113.8928698390486
 30
0.0
 10
137.0301181885527
 20
-113.9320518900708
 30
0.0
 10
137.0931102135899
 20
-113.9660659609923
 30
0.0
 10
137.0931102135899
 20
-113.9660659609923
 30
0.0
 10
139.935826086579
 20
-115.5010593075311
 30
0.0
 10
139.935826086579
 20
-115.5010593075311
 30
0.0
  0
LWPOLYLINE
  5
11C
330
79
100
AcDbEntity
  8
レイヤー 1
 62
   250
420
  2299925
370
    20
100
AcDbPolyline
 90
        4
 70
     0
 43
0.0
 10
133.1111539916073
 20
-126.6180524484527
 10
135.7726991111658
 20
-126.7906264809195
 10
134.4419265513867
 20
-137.7194452636827
 10
131.8458110553874
 20
-137.3804198400403
  0
LINE
  5
11D
330
79
100
AcDbEntity
  8
レイヤー 1
 62
   250
420
  2299925
370
    20
100
AcDbLine
 10
136.2199240673533
 20
-113.5094400356648
 30
0.0
 11
134.6587584334785
 21
-126.6180524484527
 31
0.0
  0
LINE
  5
11E
330
79
100
AcDbEntity
  8
レイヤー 1
 62
   250
420
  2299925
370
    20
100
AcDbLine
 10
133.166461939871
 20
-137.5528829782501
 30
0.0
 11
131.6592644647168
 21
-151.3413012986733
 31
0.0
  0
LINE
  5
11F
330
79
100
AcDbEntity
  8
レイヤー 1
 62
   250
420
  2299925
370
    20
100
AcDbLine
 10
138.2290476385233
 20
-103.9048399005384
 30
0.0
 11
141.5108095617943
 21
-103.0510381117563
 31
0.0
  0
SPLINE
  5
120
330
79
100
AcDbEntity
  8
レイヤー 1
 62
   250
420
  2299925
370
    20
100
AcDbSpline
210
0.0
220
0.0
230
1.0
 70
     8
 71
     3
 72
    23
 73
    19
 74
     0
 42
0.0000000001
 43
0.0000000001
 40
0.0
 40
0.0
 40
0.0
 40
0.0
 40
1.0
 40
1.0
 40
1.0
 40
2.0
 40
2.0
 40
2.0
 40
3.0
 40
3.0
 40
3.0
 40
4.0
 40
4.0
 40
4.0
 40
5.0
 40
5.0
 40
5.0
 40
6.0
 40
6.0
 40
6.0
 40
6.0
 10
136.2199240673533
 20
-104.1021147636084
 30
0.0
 10
136.4550486757064
 20
-104.0855715971371
 30
0.0
 10
139.935826086579
 20
-104.5433859499391
 30
0.0
 10
139.935826086579
 20
-104.5433859499391
 30
0.0
 10
139.935826086579
 20
-104.5433859499391
 30
0.0
 10
141.2432592113208
 20
-105.1659857202541
 30
0.0
 10
141.2432592113208
 20
-105.1659857202541
 30
0.0
 10
141.2432592113208
 20
-105.1659857202541
 30
0.0
 10
141.1300599045133
 20
-106.0608102001811
 30
0.0
 10
141.1300599045133
 20
-106.0608102001811
 30
0.0
 10
141.1300599045133
 20
-106.0608102001811
 30
0.0
 10
139.4696906356674
 20
-106.0608102001811
 30
0.0
 10
139.4696906356674
 20
-106.0608102001811
 30
0.0
 10
139.4696906356674
 20
-106.0608102001811
 30
0.0
 10
135.4393412504159
 20
-105.0812435919596
 30
0.0
 10
135.4393412504159
 20
-105.0812435919596
 30
0.0
 10
135.4393412504159
 20
-105.0812435919596
 30
0.0
 10
135.4393412504159
 20
-104.59693423548
 30
0.0
 10
135.4393412504159
 20
-104.59693423548
 30
0.0
  0
LWPOLYLINE
  5
121
330
79
100
AcDbEntity
  8
レイヤー 1
 62
   250
420
  2299925
370
    20
100
AcDbPolyline
 90
        1
 70
     0
 43
0.0
 10
127.7813855538428
 20
-104.1819060736991
  0
LWPOLYLINE
  5
122
330
79
100
AcDbEntity
  8
レイヤー 1
 62
   250
420
  2299925
370
    20
100
AcDbPolyline
 90
        1
 70
     0
 43
0.0
 10
146.2340550407543
 20
-74.80601307601763
  0
SPLINE
  5
123
330
79
100
AcDbEntity
  8
レイヤー 1
 62
   250
420
  2299925
370
    20
100
AcDbSpline
210
0.0
220
0.0
230
1.0
 70
     8
 71
     3
 72
    14
 73
    10
 74
     0
 42
0.0000000001
 43
0.0000000001
 40
0.0
 40
0.0
 40
0.0
 40
0.0
 40
1.0
 40
1.0
 40
1.0
 40
2.0
 40
2.0
 40
2.0
 40
3.0
 40
3.0
 40
3.0
 40
3.0
 10
147.3318944847974
 20
-75.34444699702973
 30
0.0
 10
147.3318944847974
 20
-75.34444699702973
 30
0.0
 10
143.5702838549795
 20
-73.01402155104224
 30
0.0
 10
143.5702838549795
 20
-73.01402155104224
 30
0.0
 10
143.5702838549795
 20
-73.01402155104224
 30
0.0
 10
142.3473707196921
 20
-72.98980544935313
 30
0.0
 10
142.746936397558
 20
-74.12796222872986
 30
0.0
 10
142.746936397558
 20
-74.12796222872986
 30
0.0
 10
145.7806951507052
 20
-75.89977925593257
 30
0.0
 10
145.7806951507052
 20
-75.89977925593257
 30
0.0
  0
SPLINE
  5
124
330
79
100
AcDbEntity
  8
レイヤー 1
 62
   250
420
  2299925
370
    20
100
AcDbSpline
210
0.0
220
0.0
230
1.0
 70
     8
 71
     3
 72
    14
 73
    10
 74
     0
 42
0.0000000001
 43
0.0000000001
 40
0.0
 40
0.0
 40
0.0
 40
0.0
 40
1.0
 40
1.0
 40
1.0
 40
2.0
 40
2.0
 40
2.0
 40
3.0
 40
3.0
 40
3.0
 40
3.0
 10
144.5098080438739
 20
-79.34438007022226
 30
0.0
 10
144.5098080438739
 20
-79.34438007022226
 30
0.0
 10
142.7348283467137
 20
-78.4505363801904
 30
0.0
 10
142.7348283467137
 20
-78.4505363801904
 30
0.0
 10
142.7348283467137
 20
-78.4505363801904
 30
0.0
 10
141.7540762283147
 20
-78.42201613358962
 30
0.0
 10
142.2505063129362
 20
-79.34438007022226
 30
0.0
 10
142.2505063129362
 20
-79.34438007022226
 30
0.0
 10
144.2846588548015
 20
-80.41204061698829
 30
0.0
 10
144.2846588548015
 20
-80.41204061698829
 30
0.0
  0
SPLINE
  5
125
330
79
100
AcDbEntity
  8
レイヤー 1
 62
   250
420
  2299925
370
    20
100
AcDbSpline
210
0.0
220
0.0
230
1.0
 70
     8
 71
     3
 72
    14
 73
    10
 74
     0
 42
0.0000000001
 43
0.0000000001
 40
0.0
 40
0.0
 40
0.0
 40
0.0
 40
1.0
 40
1.0
 40
1.0
 40
2.0
 40
2.0
 40
2.0
 40
3.0
 40
3.0
 40
3.0
 40
3.0
 10
142.9641681917776
 20
-91.56244408324814
 30
0.0
 10
142.9641681917776
 20
-91.56244408324814
 30
0.0
 10
140.9065126692041
 20
-91.56244408324814
 30
0.0
 10
140.9065126692041
 20
-91.56244408324814
 30
0.0
 10
140.9065126692041
 20
-91.56244408324814
 30
0.0
 10
140.0024448728202
 20
-92.09630968186489
 30
0.0
 10
140.9065126692041
 20
-92.59677578343476
 30
0.0
 10
140.9065126692041
 20
-92.59677578343476
 30
0.0
 10
142.8333205964145
 20
-92.59677578343476
 30
0.0
 10
142.8333205964145
 20
-92.59677578343476
 30
0.0
  0
SPLINE
  5
126
330
79
100
AcDbEntity
  8
レイヤー 1
 62
   250
420
  2299925
370
    20
100
AcDbSpline
210
0.0
220
0.0
230
1.0
 70
     8
 71
     3
 72
    20
 73
    16
 74
     0
 42
0.0000000001
 43
0.0000000001
 40
0.0
 40
0.0
 40
0.0
 40
0.0
 40
1.0
 40
1.0
 40
1.0
 40
2.0
 40
2.0
 40
2.0
 40
3.0
 40
3.0
 40
3.0
 40
4.0
 40
4.0
 40
4.0
 40
5.0
 40
5.0
 40
5.0
 40
5.0
 10
142.311046567162
 20
-96.72527797823187
 30
0.0
 10
142.311046567162
 20
-96.72527797823187
 30
0.0
 10
140.7935041946559
 20
-96.72527797823187
 30
0.0
 10
140.7935041946559
 20
-96.72527797823187
 30
0.0
 10
140.7935041946559
 20
-96.72527797823187
 30
0.0
 10
139.5988431780055
 20
-97.3108435788672
 30
0.0
 10
139.5988431780055
 20
-97.3108435788672
 30
0.0
 10
139.5988431780055
 20
-97.3108435788672
 30
0.0
 10
139.2759618221549
 20
-97.98889442615497
 30
0.0
 10
140.0508770761981
 20
-97.98889442615497
 30
0.0
 10
140.0508770761981
 20
-97.98889442615497
 30
0.0
 10
140.9215893606158
 20
-97.71444527368124
 30
0.0
 10
140.9215893606158
 20
-97.71444527368124
 30
0.0
 10
140.9215893606158
 20
-97.71444527368124
 30
0.0
 10
142.1808117586188
 20
-97.75476568543979
 30
0.0
 10
142.1808117586188
 20
-97.75476568543979
 30
0.0
  0
ELLIPSE
  5
127
330
79
100
AcDbEntity
  8
レイヤー 1
 62
   250
420
  2299925
370
    20
100
AcDbEllipse
 10
156.0335041908465
 20
-87.64054697111481
 30
0.0
 11
0.0000000000000002
 21
3.115805083966972
 31
0.0
210
0.0
220
0.0
230
1.0
 40
0.6321243523315414
 41
0.0
 42
6.283185307179586
  0
ELLIPSE
  5
128
330
79
100
AcDbEntity
  8
レイヤー 1
 62
   250
420
  2299925
370
    20
100
AcDbEllipse
 10
156.4543793316971
 20
-87.68411570176317
 30
0.0
 11
0.0000000000000001
 21
1.997000933549807
 31
0.0
210
0.0
220
0.0
230
1.0
 40
0.5341198567483176
 41
0.0
 42
6.283185307179585
  0
SPLINE
  5
129
330
79
100
AcDbEntity
  8
レイヤー 1
 62
   250
420
  2299925
370
    20
100
AcDbSpline
210
0.0
220
0.0
230
1.0
 70
     8
 71
     3
 72
    20
 73
    16
 74
     0
 42
0.0000000001
 43
0.0000000001
 40
0.0
 40
0.0
 40
0.0
 40
0.0
 40
1.0
 40
1.0
 40
1.0
 40
2.0
 40
2.0
 40
2.0
 40
3.0
 40
3.0
 40
3.0
 40
4.0
 40
4.0
 40
4.0
 40
5.0
 40
5.0
 40
5.0
 40
5.0
 10
156.0335041908465
 20
-84.524741887148
 30
0.0
 10
156.0335041908465
 20
-84.524741887148
 30
0.0
 10
153.1883114389835
 20
-84.36519836835216
 30
0.0
 10
153.1883114389835
 20
-84.36519836835216
 30
0.0
 10
152.78818068126
 20
-84.34276112960118
 30
0.0
 10
152.4030231368055
 20
-84.52957923748186
 30
0.0
 10
152.1811918650609
 20
-84.86334403465965
 30
0.0
 10
151.5568700877601
 20
-85.80269144828882
 30
0.0
 10
150.5911204998112
 20
-87.86134461311762
 30
0.0
 10
151.7997224122441
 20
-89.89264442817844
 30
0.0
 10
152.0153560944149
 20
-90.25506041826552
 30
0.0
 10
152.4794711044061
 20
-90.49051057997488
 30
0.0
 10
152.8997812643313
 20
-90.52489959305971
 30
0.0
 10
152.8997812643313
 20
-90.52489959305971
 30
0.0
 10
156.1384406314983
 20
-90.75635205508177
 30
0.0
 10
156.1384406314983
 20
-90.75635205508177
 30
0.0
  0
ELLIPSE
  5
12A
330
79
100
AcDbEntity
  8
レイヤー 1
 62
   250
420
  2299925
370
    20
100
AcDbEllipse
 10
150.8194713555118
 20
-132.9124007002352
 30
0.0
 11
0.0000000000000002
 21
3.115805083967373
 31
0.0
210
0.0
220
0.0
230
1.0
 40
0.6321243523315116
 41
0.0
 42
6.283185307179586
  0
ELLIPSE
  5
12B
330
79
100
AcDbEntity
  8
レイヤー 1
 62
   250
420
  2299925
370
    20
100
AcDbEllipse
 10
151.2403464963628
 20
-132.9559694308836
 30
0.0
 11
0.0000000000000001
 21
1.997000933550208
 31
0.0
210
0.0
220
0.0
230
1.0
 40
0.53411985674813
 41
0.0
 42
6.283185307179585
  0
SPLINE
  5
12C
330
79
100
AcDbEntity
  8
レイヤー 1
 62
   250
420
  2299925
370
    20
100
AcDbSpline
210
0.0
220
0.0
230
1.0
 70
     8
 71
     3
 72
    20
 73
    16
 74
     0
 42
0.0000000001
 43
0.0000000001
 40
0.0
 40
0.0
 40
0.0
 40
0.0
 40
1.0
 40
1.0
 40
1.0
 40
2.0
 40
2.0
 40
2.0
 40
3.0
 40
3.0
 40
3.0
 40
4.0
 40
4.0
 40
4.0
 40
5.0
 40
5.0
 40
5.0
 40
5.0
 10
150.8194713555117
 20
-129.7965956162685
 30
0.0
 10
150.8194713555117
 20
-129.7965956162685
 30
0.0
 10
147.9742786036487
 20
-129.6370520974733
 30
0.0
 10
147.9742786036487
 20
-129.6370520974733
 30
0.0
 10
147.5741478459252
 20
-129.6146148587216
 30
0.0
 10
147.1889903014713
 20
-129.8014329666026
 30
0.0
 10
146.9671590297267
 20
-130.1351977637798
 30
0.0
 10
146.342837252426
 20
-131.0745451774093
 30
0.0
 10
145.3770876644765
 20
-133.1331983422381
 30
0.0
 10
146.5856895769093
 20
-135.1644981572989
 30
0.0
 10
146.8013232590808
 20
-135.526914147386
 30
0.0
 10
147.2654382690713
 20
-135.7623643090957
 30
0.0
 10
147.6857484289966
 20
-135.7967533221805
 30
0.0
 10
147.6857484289966
 20
-135.7967533221805
 30
0.0
 10
150.9244077961635
 20
-136.0282057842026
 30
0.0
 10
150.9244077961635
 20
-136.0282057842026
 30
0.0
  0
LWPOLYLINE
  5
12D
330
79
100
AcDbEntity
  8
レイヤー 1
 62
   250
420
  2299925
370
    20
100
AcDbPolyline
 90
        5
 70
     0
 43
0.0
 10
147.4932923285753
 20
-81.3927927353882
 10
147.4932923285753
 20
-80.56944527796705
 10
151.4889491072375
 20
-80.56944527796705
 10
151.4889491072375
 20
-81.3927927353882
 10
147.3722118201314
 20
-81.3927927353882
  0
SPLINE
  5
12E
330
79
100
AcDbEntity
  8
レイヤー 1
 62
   250
420
  2299925
370
    20
100
AcDbSpline
210
0.0
220
0.0
230
1.0
 70
     8
 71
     3
 72
    26
 73
    22
 74
     0
 42
0.0000000001
 43
0.0000000001
 40
0.0
 40
0.0
 40
0.0
 40
0.0
 40
1.0
 40
1.0
 40
1.0
 40
2.0
 40
2.0
 40
2.0
 40
3.0
 40
3.0
 40
3.0
 40
4.0
 40
4.0
 40
4.0
 40
5.0
 40
5.0
 40
5.0
 40
6.0
 40
6.0
 40
6.0
 40
7.0
 40
7.0
 40
7.0
 40
7.0
 10
155.3877414791432
 20
-84.46218362445153
 30
0.0
 10
155.3877414791432
 20
-84.46218362445153
 30
0.0
 10
155.4603897842109
 20
-82.72467832827558
 30
0.0
 10
155.3877414791432
 20
-82.07084358267628
 30
0.0
 10
155.3150931740762
 20
-81.41700883707668
 30
0.0
 10
154.7339067335452
 20
-81.3927927353882
 30
0.0
 10
154.7339067335452
 20
-81.3927927353882
 30
0.0
 10
154.7339067335452
 20
-81.3927927353882
 30
0.0
 10
152.7239702933697
 20
-81.3927927353882
 30
0.0
 10
152.7239702933697
 20
-81.3927927353882
 30
0.0
 10
152.7239702933697
 20
-81.3927927353882
 30
0.0
 10
152.7239702933697
 20
-80.56944527796705
 30
0.0
 10
152.7239702933697
 20
-80.56944527796705
 30
0.0
 10
152.7239702933697
 20
-80.56944527796705
 30
0.0
 10
155.1697965639441
 20
-80.56944527796705
 30
0.0
 10
155.1697965639441
 20
-80.56944527796705
 30
0.0
 10
155.1697965639441
 20
-80.56944527796705
 30
0.0
 10
156.1868728348759
 20
-80.83582239654472
 30
0.0
 10
156.1384406314983
 20
-81.92554697254321
 30
0.0
 10
156.1384406314983
 20
-81.92554697254321
 30
0.0
 10
156.1402098743081
 20
-84.49851072332242
 30
0.0
 10
156.1402098743081
 20
-84.49851072332242
 30
0.0
  0
SPLINE
  5
12F
330
79
100
AcDbEntity
  8
レイヤー 1
 62
   250
420
  2299925
370
    20
100
AcDbSpline
210
0.0
220
0.0
230
1.0
 70
     8
 71
     3
 72
    26
 73
    22
 74
     0
 42
0.0000000001
 43
0.0000000001
 40
0.0
 40
0.0
 40
0.0
 40
0.0
 40
1.0
 40
1.0
 40
1.0
 40
2.0
 40
2.0
 40
2.0
 40
3.0
 40
3.0
 40
3.0
 40
4.0
 40
4.0
 40
4.0
 40
5.0
 40
5.0
 40
5.0
 40
6.0
 40
6.0
 40
6.0
 40
7.0
 40
7.0
 40
7.0
 40
7.0
 10
155.5179819527285
 20
-90.64577130576379
 30
0.0
 10
155.5179819527285
 20
-90.64577130576379
 30
0.0
 10
155.5179819527285
 20
-92.41111900381984
 30
0.0
 10
155.5179819527285
 20
-92.41111900381984
 30
0.0
 10
155.5179819527285
 20
-92.41111900381984
 30
0.0
 10
155.4119575808333
 20
-94.03359781697689
 30
0.0
 10
154.5159618183461
 20
-94.42105544399693
 30
0.0
 10
154.5159618183461
 20
-94.42105544399693
 30
0.0
 10
153.3778050389697
 20
-95.0748901895943
 30
0.0
 10
151.5131652089276
 20
-94.29997493555104
 30
0.0
 10
151.5131652089276
 20
-94.29997493555104
 30
0.0
 10
151.3194363954166
 20
-93.45241137644107
 30
0.0
 10
152.0217033443935
 20
-93.40397917306317
 30
0.0
 10
152.0217033443935
 20
-93.40397917306317
 30
0.0
 10
152.3938297877838
 20
-93.81565290177391
 30
0.0
 10
153.5033280064428
 20
-93.76722069839633
 30
0.0
 10
153.5033280064428
 20
-93.76722069839633
 30
0.0
 10
154.2495846997687
 20
-93.7914368000848
 30
0.0
 10
154.5643940217243
 20
-92.84700883421937
 30
0.0
 10
154.5643940217243
 20
-92.84700883421937
 30
0.0
 10
154.591110451998
 20
-90.64577130576379
 30
0.0
 10
154.591110451998
 20
-90.64577130576379
 30
0.0
  0
LWPOLYLINE
  5
130
330
79
100
AcDbEntity
  8
レイヤー 1
 62
   250
420
  2299925
370
    20
100
AcDbPolyline
 90
        9
 70
     0
 43
0.0
 10
150.3750084295512
 20
-92.66230616274979
 10
150.2786280705521
 20
-92.62553501915807
 10
150.0276625709145
 20
-92.52978637784256
 10
146.6699448711551
 20
-91.24874612275462
 10
146.112974532311
 20
-92.29003849537555
 10
149.8893243801177
 20
-93.70062641875216
 10
150.1631175397723
 20
-93.04073764773066
 10
150.2963060990607
 20
-92.73198235119792
 10
150.3686457675376
 20
-92.54017658105675
  0
LWPOLYLINE
  5
131
330
79
100
AcDbEntity
  8
レイヤー 1
 62
   250
420
  2299925
370
    20
100
AcDbPolyline
 90
        5
 70
     0
 43
0.0
 10
142.3745518082713
 20
-126.6810502867728
 10
142.3745518082713
 20
-125.8577028293513
 10
146.3702085869338
 20
-125.8577028293513
 10
146.3702085869338
 20
-126.6810502867728
 10
142.2534712998273
 20
-126.6810502867728
  0
SPLINE
  5
132
330
79
100
AcDbEntity
  8
レイヤー 1
 62
   250
420
  2299925
370
    20
100
AcDbSpline
210
0.0
220
0.0
230
1.0
 70
     8
 71
     3
 72
    26
 73
    22
 74
     0
 42
0.0000000001
 43
0.0000000001
 40
0.0
 40
0.0
 40
0.0
 40
0.0
 40
1.0
 40
1.0
 40
1.0
 40
2.0
 40
2.0
 40
2.0
 40
3.0
 40
3.0
 40
3.0
 40
4.0
 40
4.0
 40
4.0
 40
5.0
 40
5.0
 40
5.0
 40
6.0
 40
6.0
 40
6.0
 40
7.0
 40
7.0
 40
7.0
 40
7.0
 10
150.2690009588395
 20
-129.7504411758361
 30
0.0
 10
150.2690009588395
 20
-129.7504411758361
 30
0.0
 10
150.3416492639065
 20
-128.0129358796602
 30
0.0
 10
150.2690009588395
 20
-127.3591011340602
 30
0.0
 10
150.1963526537725
 20
-126.7052663884616
 30
0.0
 10
149.6151662132415
 20
-126.6810502867728
 30
0.0
 10
149.6151662132415
 20
-126.6810502867728
 30
0.0
 10
149.6151662132415
 20
-126.6810502867728
 30
0.0
 10
147.605229773066
 20
-126.6810502867728
 30
0.0
 10
147.605229773066
 20
-126.6810502867728
 30
0.0
 10
147.605229773066
 20
-126.6810502867728
 30
0.0
 10
147.605229773066
 20
-125.8577028293513
 30
0.0
 10
147.605229773066
 20
-125.8577028293513
 30
0.0
 10
147.605229773066
 20
-125.8577028293513
 30
0.0
 10
150.0510560436404
 20
-125.8577028293513
 30
0.0
 10
150.0510560436404
 20
-125.8577028293513
 30
0.0
 10
150.0510560436404
 20
-125.8577028293513
 30
0.0
 10
151.0681323145716
 20
-126.1240799479293
 30
0.0
 10
151.019700111194
 20
-127.2138045239275
 30
0.0
 10
151.019700111194
 20
-127.2138045239275
 30
0.0
 10
151.0214693540044
 20
-129.7867682747073
 30
0.0
 10
151.0214693540044
 20
-129.7867682747073
 30
0.0
  0
SPLINE
  5
133
330
79
100
AcDbEntity
  8
レイヤー 1
 62
   250
420
  2299925
370
    20
100
AcDbSpline
210
0.0
220
0.0
230
1.0
 70
     8
 71
     3
 72
    26
 73
    22
 74
     0
 42
0.0000000001
 43
0.0000000001
 40
0.0
 40
0.0
 40
0.0
 40
0.0
 40
1.0
 40
1.0
 40
1.0
 40
2.0
 40
2.0
 40
2.0
 40
3.0
 40
3.0
 40
3.0
 40
4.0
 40
4.0
 40
4.0
 40
5.0
 40
5.0
 40
5.0
 40
6.0
 40
6.0
 40
6.0
 40
7.0
 40
7.0
 40
7.0
 40
7.0
 10
150.3992414324241
 20
-135.9340288571484
 30
0.0
 10
150.3992414324241
 20
-135.9340288571484
 30
0.0
 10
150.3992414324241
 20
-137.6993765552044
 30
0.0
 10
150.3992414324241
 20
-137.6993765552044
 30
0.0
 10
150.3992414324241
 20
-137.6993765552044
 30
0.0
 10
150.2932170605296
 20
-139.3218553683618
 30
0.0
 10
149.3972212980424
 20
-139.7093129953812
 30
0.0
 10
149.3972212980424
 20
-139.7093129953812
 30
0.0
 10
148.2590645186653
 20
-140.3631477409786
 30
0.0
 10
146.3944246886232
 20
-139.5882324869353
 30
0.0
 10
146.3944246886232
 20
-139.5882324869353
 30
0.0
 10
146.2006958751129
 20
-138.7406689278257
 30
0.0
 10
146.9029628240891
 20
-138.6922367244481
 30
0.0
 10
146.9029628240891
 20
-138.6922367244481
 30
0.0
 10
147.2750892674801
 20
-139.1039104531582
 30
0.0
 10
148.3845874861385
 20
-139.0554782497799
 30
0.0
 10
148.3845874861385
 20
-139.0554782497799
 30
0.0
 10
149.1308441794644
 20
-139.0796943514694
 30
0.0
 10
149.44565350142
 20
-138.1352663856033
 30
0.0
 10
149.44565350142
 20
-138.1352663856033
 30
0.0
 10
149.4723699316936
 20
-135.9340288571484
 30
0.0
 10
149.4723699316936
 20
-135.9340288571484
 30
0.0
  0
LWPOLYLINE
  5
134
330
79
100
AcDbEntity
  8
レイヤー 1
 62
   250
420
  2299925
370
    20
100
AcDbPolyline
 90
        9
 70
     0
 43
0.0
 10
145.2562679092475
 20
-137.9505637141337
 10
145.1598875502477
 20
-137.9137925705426
 10
144.9089220506102
 20
-137.8180439292271
 10
141.5512043508508
 20
-136.5370036741392
 10
140.994234012007
 20
-137.5782960467598
 10
144.7705838598134
 20
-138.988883970137
 10
145.044377019468
 20
-138.3289951991149
 10
145.1775655787563
 20
-138.0202399025822
 10
145.2499052472333
 20
-137.8284341324407
  0
SPLINE
  5
135
330
79
100
AcDbEntity
  8
レイヤー 1
 62
   250
420
  2299925
370
    20
100
AcDbSpline
210
0.0
220
0.0
230
1.0
 70
     8
 71
     3
 72
    20
 73
    16
 74
     0
 42
0.0000000001
 43
0.0000000001
 40
0.0
 40
0.0
 40
0.0
 40
0.0
 40
1.0
 40
1.0
 40
1.0
 40
2.0
 40
2.0
 40
2.0
 40
3.0
 40
3.0
 40
3.0
 40
4.0
 40
4.0
 40
4.0
 40
5.0
 40
5.0
 40
5.0
 40
5.0
 10
148.1229109724852
 20
-75.30647917758781
 30
0.0
 10
148.1229109724852
 20
-75.30647917758781
 30
0.0
 10
147.9791175847879
 20
-74.04828703523607
 30
0.0
 10
147.9791175847879
 20
-74.04828703523607
 30
0.0
 10
147.9379123046011
 20
-73.6877408335969
 30
0.0
 10
148.0364048795699
 20
-73.31340569848956
 30
0.0
 10
148.2895622113539
 20
-73.05340030624646
 30
0.0
 10
148.5108888673167
 20
-72.82608662904898
 30
0.0
 10
148.926772171406
 20
-72.60068361277783
 30
0.0
 10
149.2558652095921
 20
-73.01398120768256
 30
0.0
 10
149.4462631890898
 20
-73.25309604108902
 30
0.0
 10
149.5468336725844
 20
-73.55152850329864
 30
0.0
 10
149.5758770738172
 20
-73.85580432389
 30
0.0
 10
149.5758770738172
 20
-73.85580432389
 30
0.0
 10
149.5758770738172
 20
-75.13356514047881
 30
0.0
 10
149.5758770738172
 20
-75.13356514047881
 30
0.0
  0
ENDBLK
  5
7C
330
79
100
AcDbEntity
  8
0
100
AcDbBlockEnd
  0
BLOCK
  5
7F
330
7D
100
AcDbEntity
  8
0
100
AcDbBlockBegin
  2
Block_1
 70
     0
 10
0.0
 20
0.0
 30
0.0
  3
Block_1
  1

  0
SPLINE
  5
81
330
7D
100
AcDbEntity
  8
レイヤー 1
 62
   250
420
  2299925
370
    20
100
AcDbSpline
210
0.0
220
0.0
230
1.0
 70
    11
 71
     3
 72
    32
 73
    28
 74
     0
 42
0.0000000001
 43
0.0000000001
 40
0.0
 40
0.0
 40
0.0
 40
0.0
 40
1.0
 40
1.0
 40
1.0
 40
2.0
 40
2.0
 40
2.0
 40
3.0
 40
3.0
 40
3.0
 40
4.0
 40
4.0
 40
4.0
 40
5.0
 40
5.0
 40
5.0
 40
6.0
 40
6.0
 40
6.0
 40
7.0
 40
7.0
 40
7.0
 40
8.0
 40
8.0
 40
8.0
 40
9.0
 40
9.0
 40
9.0
 40
9.0
 10
96.42960590066422
 20
-66.7985554509028
 30
0.0
 10
96.42960590066422
 20
-66.7985554509028
 30
0.0
 10
96.49418217183486
 20
-65.73304697659276
 30
0.0
 10
97.43053810380393
 20
-65.73304697659276
 30
0.0
 10
97.43053810380393
 20
-65.73304697659276
 30
0.0
 10
138.3718940257713
 20
-64.63525036669756
 30
0.0
 10
138.3718940257713
 20
-64.63525036669756
 30
0.0
 10
138.3718940257713
 20
-64.63525036669756
 30
0.0
 10
140.3737584320514
 20
-64.76440290903852
 30
0.0
 10
140.4706228388065
 20
-65.92677579010373
 30
0.0
 10
140.4706228388065
 20
-65.92677579010373
 30
0.0
 10
136.2408770771522
 20
-103.28414866212
 30
0.0
 10
136.2408770771522
 20
-103.28414866212
 30
0.0
 10
136.2408770771522
 20
-103.28414866212
 30
0.0
 10
135.7888431789596
 20
-105.3183012039846
 30
0.0
 10
133.5932499591701
 20
-105.1568605260587
 30
0.0
 10
133.5932499591701
 20
-105.1568605260587
 30
0.0
 10
93.94341946060832
 20
-98.50550459551854
 30
0.0
 10
93.94341946060832
 20
-98.50550459551854
 30
0.0
 10
93.94341946060832
 20
-98.50550459551854
 30
0.0
 10
93.74969064709764
 20
-98.48128849382941
 30
0.0
 10
93.48734954546833
 20
-98.32388383285195
 30
0.0
 10
92.91544172591709
 20
-97.98073914112121
 30
0.0
 10
92.62358056037609
 20
-97.31126707728606
 30
0.0
 10
92.7061337351205
 20
-96.64944247297848
 30
0.0
 10
92.7061337351205
 20
-96.64944247297848
 30
0.0
 10
96.42960590066422
 20
-66.7985554509028
 30
0.0
 10
96.42960590066422
 20
-66.7985554509028
 30
0.0
  0
SPLINE
  5
82
330
7D
100
AcDbEntity
  8
レイヤー 1
 62
   250
420
  2299925
370
    20
100
AcDbSpline
210
0.0
220
0.0
230
1.0
 70
     9
 71
     3
 72
    74
 73
    70
 74
     0
 42
0.0000000001
 43
0.0000000001
 40
0.0
 40
0.0
 40
0.0
 40
0.0
 40
1.0
 40
1.0
 40
1.0
 40
2.0
 40
2.0
 40
2.0
 40
3.0
 40
3.0
 40
3.0
 40
4.0
 40
4.0
 40
4.0
 40
5.0
 40
5.0
 40
5.0
 40
6.0
 40
6.0
 40
6.0
 40
7.0
 40
7.0
 40
7.0
 40
8.0
 40
8.0
 40
8.0
 40
9.0
 40
9.0
 40
9.0
 40
10.0
 40
10.0
 40
10.0
 40
11.0
 40
11.0
 40
11.0
 40
12.0
 40
12.0
 40
12.0
 40
13.0
 40
13.0
 40
13.0
 40
14.0
 40
14.0
 40
14.0
 40
15.0
 40
15.0
 40
15.0
 40
16.0
 40
16.0
 40
16.0
 40
17.0
 40
17.0
 40
17.0
 40
18.0
 40
18.0
 40
18.0
 40
19.0
 40
19.0
 40
19.0
 40
20.0
 40
20.0
 40
20.0
 40
21.0
 40
21.0
 40
21.0
 40
22.0
 40
22.0
 40
22.0
 40
23.0
 40
23.0
 40
23.0
 40
23.0
 10
133.5452518841755
 20
-78.60951135390681
 30
0.0
 10
133.8603099483811
 20
-78.93613278568018
 30
0.0
 10
135.4498735011113
 20
-81.03673131121153
 30
0.0
 10
135.4215656366777
 20
-81.48965714214401
 30
0.0
 10
135.4215656366777
 20
-81.48965714214401
 30
0.0
 10
134.7071906368558
 20
-87.20465714071551
 30
0.0
 10
134.7071906368558
 20
-87.20465714071551
 30
0.0
 10
134.6874325860358
 20
-87.52078595382791
 30
0.0
 10
134.5599571876443
 20
-88.11462530429075
 30
0.0
 10
134.3582755798329
 20
-88.35886358164016
 30
0.0
 10
134.3582755798329
 20
-88.35886358164016
 30
0.0
 10
131.6928078647195
 20
-91.58676925830807
 30
0.0
 10
131.6928078647195
 20
-91.58676925830807
 30
0.0
 10
131.4800474758221
 20
-91.84442404119335
 30
0.0
 10
131.3547924251336
 20
-92.16309624453302
 30
0.0
 10
131.3351707472701
 20
-92.49666476820566
 30
0.0
 10
131.3351707472701
 20
-92.49666476820566
 30
0.0
 10
131.0678707974171
 20
-97.0407639157044
 30
0.0
 10
131.0678707974171
 20
-97.0407639157044
 30
0.0
 10
131.0484050269132
 20
-97.37168201426435
 30
0.0
 10
130.9572142222153
 20
-97.69530564905993
 30
0.0
 10
130.789750348466
 20
-97.98138527987063
 30
0.0
 10
130.6043539473555
 20
-98.29809916445906
 30
0.0
 10
130.312894883153
 20
-98.70616209593316
 30
0.0
 10
129.9020948740783
 20
-99.03461679123552
 30
0.0
 10
129.4184735309611
 20
-99.42129570405496
 30
0.0
 10
128.7886778874561
 20
-99.57697553242571
 30
0.0
 10
128.1767056416895
 20
-99.48263489669983
 30
0.0
 10
128.1767056416895
 20
-99.48263489669983
 30
0.0
 10
96.9139279344391
 20
-94.66321646088772
 30
0.0
 10
96.9139279344391
 20
-94.66321646088772
 30
0.0
 10
96.9139279344391
 20
-94.66321646088772
 30
0.0
 10
96.62688654438412
 20
-94.61400936544967
 30
0.0
 10
96.32146726168727
 20
-94.47012853505544
 30
0.0
 10
95.87212781256507
 20
-94.25844794796963
 30
0.0
 10
95.61743053044734
 20
-93.77324924999594
 30
0.0
 10
95.67026548305511
 20
-93.27936355545768
 30
0.0
 10
95.67026548305511
 20
-93.27936355545768
 30
0.0
 10
96.36502962949165
 20
-86.78491137811162
 30
0.0
 10
96.36502962949165
 20
-86.78491137811162
 30
0.0
 10
96.36502962949165
 20
-86.78491137811162
 30
0.0
 10
95.40766332536964
 20
-85.48387511866406
 30
0.0
 10
95.40766332536964
 20
-85.48387511866406
 30
0.0
 10
95.21332860898146
 20
-85.21977922203424
 30
0.0
 10
95.12366011961331
 20
-84.89308159394026
 30
0.0
 10
95.15594996606052
 20
-84.56678419826136
 30
0.0
 10
95.15594996606052
 20
-84.56678419826136
 30
0.0
 10
95.62495274193203
 20
-79.82738772629033
 30
0.0
 10
95.62495274193203
 20
-79.82738772629033
 30
0.0
 10
95.68622512111579
 20
-79.20821421032622
 30
0.0
 10
95.94354803338061
 20
-78.62476593254254
 30
0.0
 10
96.3594527039126
 20
-78.16199876392293
 30
0.0
 10
96.3594527039126
 20
-78.16199876392293
 30
0.0
 10
98.01172454433654
 20
-76.32355544852412
 30
0.0
 10
98.01172454433654
 20
-76.32355544852412
 30
0.0
 10
98.01172454433654
 20
-76.32355544852412
 30
0.0
 10
98.65748725603978
 20
-70.25338595851614
 30
0.0
 10
98.65748725603978
 20
-70.25338595851614
 30
0.0
 10
98.65748725603978
 20
-70.25338595851614
 30
0.0
 10
98.65748725603946
 20
-69.80135206032419
 30
0.0
 10
99.40011437449788
 20
-69.67219951798354
 30
0.0
 10
100.1427414929563
 20
-69.54304697564289
 30
0.0
 10
132.2694364001781
 20
-69.60762324681353
 30
0.0
 10
132.2694364001781
 20
-69.60762324681353
 30
0.0
 10
132.2694364001781
 20
-69.60762324681353
 30
0.0
 10
134.2925953254247
 20
-69.44749839497406
 30
0.0
 10
134.2603071898395
 20
-70.83588822513508
 30
0.0
 10
134.2304040925056
 20
-72.12172141049539
 30
0.0
 10
133.5822376312819
 20
-77.95196303278467
 30
0.0
 10
133.5452518841755
 20
-78.60951135390681
 30
0.0
  0
LWPOLYLINE
  5
83
330
7D
100
AcDbEntity
  8
レイヤー 1
 62
   250
420
  2299925
370
    20
100
AcDbPolyline
 90
        1
 70
     0
 43
0.0
 10
133.5452518841755
 20
-78.60951135390681
  0
SPLINE
  5
84
330
7D
100
AcDbEntity
  8
レイヤー 1
 62
   250
420
  2299925
370
    20
100
AcDbSpline
210
0.0
220
0.0
230
1.0
 70
     8
 71
     3
 72
    17
 73
    13
 74
     0
 42
0.0000000001
 43
0.0000000001
 40
0.0
 40
0.0
 40
0.0
 40
0.0
 40
1.0
 40
1.0
 40
1.0
 40
2.0
 40
2.0
 40
2.0
 40
3.0
 40
3.0
 40
3.0
 40
4.0
 40
4.0
 40
4.0
 40
4.0
 10
136.6959254935544
 20
-64.68018958601579
 30
0.0
 10
136.6959254935544
 20
-64.68018958601579
 30
0.0
 10
137.9642563140092
 20
-65.15993256995331
 30
0.0
 10
137.9521482631635
 20
-66.03978426465004
 30
0.0
 10
137.9521482631635
 20
-66.03978426465004
 30
0.0
 10
133.4479533490354
 20
-103.6231740857627
 30
0.0
 10
133.4479533490354
 20
-103.6231740857627
 30
0.0
 10
133.4479533490354
 20
-103.6231740857627
 30
0.0
 10
133.2542245355238
 20
-104.0590639161623
 30
0.0
 10
132.6730380949916
 20
-104.0590639161623
 30
0.0
 10
132.0918516544589
 20
-104.0590639161623
 30
0.0
 10
92.69235321319928
 20
-97.56914866354753
 30
0.0
 10
92.69235321319928
 20
-97.56914866354753
 30
0.0
  0
CIRCLE
  5
85
330
7D
100
AcDbEntity
  8
レイヤー 1
 62
   250
420
  2299925
370
    20
100
AcDbCircle
 10
99.94901267938315
 20
-67.89635206086618
 30
0.0
 40
0.9686440675585227
  0
CIRCLE
  5
86
330
7D
100
AcDbEntity
  8
レイヤー 1
 62
   250
420
  2299925
370
    20
100
AcDbCircle
 10
107.5690126774781
 20
-67.89635206086602
 30
0.0
 40
0.9686440675586835
  0
CIRCLE
  5
87
330
7D
100
AcDbEntity
  8
レイヤー 1
 62
   250
420
  2299925
370
    20
100
AcDbCircle
 10
123.4547753853493
 20
-67.83177578971751
 30
0.0
 40
1.291525423410227
  0
CIRCLE
  5
88
330
7D
100
AcDbEntity
  8
レイヤー 1
 62
   250
420
  2299925
370
    20
100
AcDbCircle
 10
132.5438855525623
 20
-67.62190290842294
 30
0.0
 40
1.404533897959298
  0
CIRCLE
  5
89
330
7D
100
AcDbEntity
  8
レイヤー 1
 62
   250
420
  2299925
370
    20
100
AcDbCircle
 10
115.374669455175
 20
-67.89635206088776
 30
0.0
 40
1.226949152244515
  0
CIRCLE
  5
8A
330
7D
100
AcDbEntity
  8
レイヤー 1
 62
   250
420
  2299925
370
    20
100
AcDbCircle
 10
96.11814151555456
 20
-96.56821646038624
 30
0.0
 40
0.9686440675586434
  0
CIRCLE
  5
8B
330
7D
100
AcDbEntity
  8
レイヤー 1
 62
   250
420
  2299925
370
    20
100
AcDbCircle
 10
103.9850296275873
 20
-97.7951656127351
 30
0.0
 40
0.9686440675586835
  0
CIRCLE
  5
8C
330
7D
100
AcDbEntity
  8
レイヤー 1
 62
   250
420
  2299925
370
    20
100
AcDbCircle
 10
119.6239042215207
 20
-100.2490639173895
 30
0.0
 40
1.291525423410307
  0
CIRCLE
  5
8D
330
7D
100
AcDbEntity
  8
レイヤー 1
 62
   250
420
  2299925
370
    20
100
AcDbCircle
 10
128.1849872486563
 20
-101.4275808661653
 30
0.0
 40
1.404533897959338
  0
CIRCLE
  5
8E
330
7D
100
AcDbEntity
  8
レイヤー 1
 62
   250
420
  2299925
370
    20
100
AcDbCircle
 10
111.6373177612679
 20
-99.02211476506233
 30
0.0
 40
1.226949152244515
  0
ELLIPSE
  5
8F
330
7D
100
AcDbEntity
  8
レイヤー 1
 62
   250
420
  2299925
370
    20
100
AcDbEllipse
 10
96.53050632436645
 20
-76.16211477059437
 30
0.0
 11
0.0
 21
0.7749152540433372
 31
0.0
210
0.0
220
0.0
230
1.0
 40
0.7968750000000081
 41
0.0
 42
6.283185307179586
  0
ELLIPSE
  5
90
330
7D
100
AcDbEntity
  8
レイヤー 1
 62
   250
420
  2299925
370
    20
100
AcDbEllipse
 10
95.16229657894553
 20
-87.77373553040339
 30
0.0
 11
0.0000000000000001
 21
1.029184321776531
 31
0.0
210
0.0
220
0.0
230
1.0
 40
0.6823529411764265
 41
0.0
 42
6.283185307179586
  0
ELLIPSE
  5
91
330
7D
100
AcDbEntity
  8
レイヤー 1
 62
   250
420
  2299925
370
    20
100
AcDbEllipse
 10
134.9493516537449
 20
-77.41810119783571
 30
0.0
 11
0.0000000000000001
 21
1.191410156071097
 31
0.0
210
0.0
220
0.0
230
1.0
 40
0.6233177673317903
 41
0.0
 42
6.283185307179586
  0
ELLIPSE
  5
92
330
7D
100
AcDbEntity
  8
レイヤー 1
 62
   250
420
  2299925
370
    20
100
AcDbEllipse
 10
133.1735041965627
 20
-92.33847069875338
 30
0.0
 11
0.0000000000000001
 21
1.48525423691659
 31
0.0
210
0.0
220
0.0
230
1.0
 40
0.6956521739132408
 41
0.0
 42
6.283185307179586
  0
ELLIPSE
  5
93
330
7D
100
AcDbEntity
  8
レイヤー 1
 62
   250
420
  2299925
370
    20
100
AcDbEllipse
 10
101.4019787807458
 20
-73.1108859577986
 30
0.0
 11
0.0000000000000001
 21
2.114872880827097
 31
0.0
210
0.0
220
0.0
230
1.0
 40
0.6870229007781101
 41
0.0
 42
6.283185307179586
  0
ELLIPSE
  5
94
330
7D
100
AcDbEntity
  8
レイヤー 1
 62
   250
420
  2299925
370
    20
100
AcDbEllipse
 10
104.7115126782547
 20
-73.1108859577986
 30
0.0
 11
0.0000000000000001
 21
2.114872880827097
 31
0.0
210
0.0
220
0.0
230
1.0
 40
0.6641221374045284
 41
0.0
 42
6.283185307179586
  0
ELLIPSE
  5
95
330
7D
100
AcDbEntity
  8
レイヤー 1
 62
   250
420
  2299925
370
    20
100
AcDbEllipse
 10
107.875749965599
 20
-73.19160629676111
 30
0.0
 11
0.0000000000000001
 21
2.195593219789762
 31
0.0
210
0.0
220
0.0
230
1.0
 40
0.6544117647059361
 41
0.0
 42
6.283185307179586
  0
ELLIPSE
  5
96
330
7D
100
AcDbEntity
  8
レイヤー 1
 62
   250
420
  2299925
370
    20
100
AcDbEllipse
 10
111.0238431851512
 20
-73.27232663572418
 30
0.0
 11
0.0000000000000001
 21
2.276313558752829
 31
0.0
210
0.0
220
0.0
230
1.0
 40
0.5531914893616932
 41
0.0
 42
6.283185307179586
  0
ELLIPSE
  5
97
330
7D
100
AcDbEntity
  8
レイヤー 1
 62
   250
420
  2299925
370
    20
100
AcDbEllipse
 10
114.2365126758728
 20
-73.27232663572418
 30
0.0
 11
0.0000000000000001
 21
2.276313558752829
 31
0.0
210
0.0
220
0.0
230
1.0
 40
0.6453900709219872
 41
0.0
 42
6.283185307179586
  0
ELLIPSE
  5
98
330
7D
100
AcDbEntity
  8
レイヤー 1
 62
   250
420
  2299925
370
    20
100
AcDbEllipse
 10
117.5944787767283
 20
-73.35304697468716
 30
0.0
 11
0.0000000000000001
 21
2.357033897715655
 31
0.0
210
0.0
220
0.0
230
1.0
 40
0.6095890410959633
 41
0.0
 42
6.283185307179586
  0
ELLIPSE
  5
99
330
7D
100
AcDbEntity
  8
レイヤー 1
 62
   250
420
  2299925
370
    20
100
AcDbEllipse
 10
120.9040126742064
 20
-73.46605544923516
 30
0.0
 11
0.0000000000000002
 21
2.470042372263804
 31
0.0
210
0.0
220
0.0
230
1.0
 40
0.640522875817025
 41
0.0
 42
6.283185307179586
  0
ELLIPSE
  5
9A
330
7D
100
AcDbEntity
  8
レイヤー 1
 62
   250
420
  2299925
370
    20
100
AcDbEllipse
 10
124.5041397919505
 20
-73.6113520593679
 30
0.0
 11
0.0000000000000002
 21
2.615338982396553
 31
0.0
210
0.0
220
0.0
230
1.0
 40
0.6234567901236245
 41
0.0
 42
6.283185307179586
  0
ELLIPSE
  5
9B
330
7D
100
AcDbEntity
  8
レイヤー 1
 62
   250
420
  2299925
370
    20
100
AcDbEllipse
 10
128.3141397909981
 20
-73.6113520593679
 30
0.0
 11
0.0000000000000002
 21
2.615338982396553
 31
0.0
210
0.0
220
0.0
230
1.0
 40
0.6481481481482084
 41
0.0
 42
6.283185307179586
  0
SPLINE
  5
9C
330
7D
100
AcDbEntity
  8
レイヤー 1
 62
   250
420
  2299925
370
    20
100
AcDbSpline
210
0.0
220
0.0
230
1.0
 70
     8
 71
     3
 72
    35
 73
    31
 74
     0
 42
0.0000000001
 43
0.0000000001
 40
0.0
 40
0.0
 40
0.0
 40
0.0
 40
1.0
 40
1.0
 40
1.0
 40
2.0
 40
2.0
 40
2.0
 40
3.0
 40
3.0
 40
3.0
 40
4.0
 40
4.0
 40
4.0
 40
5.0
 40
5.0
 40
5.0
 40
6.0
 40
6.0
 40
6.0
 40
7.0
 40
7.0
 40
7.0
 40
8.0
 40
8.0
 40
8.0
 40
9.0
 40
9.0
 40
9.0
 40
10.0
 40
10.0
 40
10.0
 40
10.0
 10
98.53073392162546
 20
-71.44486730200849
 30
0.0
 10
98.53073392162546
 20
-71.44486730200849
 30
0.0
 10
98.88350420513496
 20
-70.54397917877939
 30
0.0
 10
99.56155505242271
 20
-70.54397917877939
 30
0.0
 10
99.56155505242271
 20
-70.54397917877939
 30
0.0
 10
132.5438855525623
 20
-70.80228426346005
 30
0.0
 10
132.5438855525623
 20
-70.80228426346005
 30
0.0
 10
132.5438855525623
 20
-70.80228426346005
 30
0.0
 10
132.8183347051253
 20
-70.8668605346307
 30
0.0
 10
132.9151991118808
 20
-71.2866062972375
 30
0.0
 10
132.9151991118808
 20
-71.2866062972375
 30
0.0
 10
132.1725719934226
 20
-78.93889443091746
 30
0.0
 10
132.1725719934226
 20
-78.93889443091746
 30
0.0
 10
132.1725719934226
 20
-78.93889443091746
 30
0.0
 10
133.9161313150198
 20
-81.26364019304851
 30
0.0
 10
133.9161313150198
 20
-81.26364019304851
 30
0.0
 10
133.9161313150198
 20
-81.26364019304851
 30
0.0
 10
133.1735041965627
 20
-87.17236900513034
 30
0.0
 10
133.1735041965627
 20
-87.17236900513034
 30
0.0
 10
133.1735041965627
 20
-87.17236900513034
 30
0.0
 10
130.0738431803881
 20
-91.20838595327406
 30
0.0
 10
130.0738431803881
 20
-91.20838595327406
 30
0.0
 10
130.0738431803881
 20
-91.20838595327406
 30
0.0
 10
129.5572330110255
 20
-97.05253849418589
 30
0.0
 10
129.5572330110255
 20
-97.05253849418589
 30
0.0
 10
129.5572330110255
 20
-97.05253849418589
 30
0.0
 10
129.3957923330997
 20
-98.66694527344305
 30
0.0
 10
127.2970635200654
 20
-98.66694527344305
 30
0.0
 10
127.2970635200654
 20
-98.66694527344305
 30
0.0
 10
95.69497804261033
 20
-93.6744441191797
 30
0.0
 10
95.69497804261033
 20
-93.6744441191797
 30
0.0
  0
ELLIPSE
  5
9D
330
7D
100
AcDbEntity
  8
レイヤー 1
 62
   250
420
  2299925
370
    20
100
AcDbEllipse
 10
99.65841945911693
 20
-77.64736900751225
 30
0.0
 11
0.0000000000000001
 21
2.098728813035238
 31
0.0
210
0.0
220
0.0
230
1.0
 40
0.5999999999707391
 41
0.0
 42
6.283185307179586
  0
ELLIPSE
  5
9E
330
7D
100
AcDbEntity
  8
レイヤー 1
 62
   250
420
  2299925
370
    20
100
AcDbEllipse
 10
102.5159194584635
 20
-77.71194527868257
 30
0.0
 11
0.0000000000000001
 21
2.163305084205563
 31
0.0
210
0.0
220
0.0
230
1.0
 40
0.6641791044774508
 41
0.0
 42
6.283185307179586
  0
ELLIPSE
  5
9F
330
7D
100
AcDbEntity
  8
レイヤー 1
 62
   250
420
  2299925
370
    20
100
AcDbEllipse
 10
105.680156745808
 20
-77.8410978210229
 30
0.0
 11
0.0000000000000001
 21
2.292457626545891
 31
0.0
210
0.0
220
0.0
230
1.0
 40
0.6267605633801424
 41
0.0
 42
6.283185307179586
  0
ELLIPSE
  5
A0
330
7D
100
AcDbEntity
  8
レイヤー 1
 62
   250
420
  2299925
370
    20
100
AcDbEllipse
 10
108.6829533552268
 20
-77.92181815998588
 30
0.0
 11
0.0000000000000001
 21
2.211737287582905
 31
0.0
210
0.0
220
0.0
230
1.0
 40
0.6350364963502459
 41
0.0
 42
6.283185307179586
  0
ELLIPSE
  5
A1
330
7D
100
AcDbEntity
  8
レイヤー 1
 62
   250
420
  2299925
370
    20
100
AcDbEllipse
 10
111.9279109815341
 20
-78.00253849894895
 30
0.0
 11
0.0000000000000001
 21
2.292457626545972
 31
0.0
210
0.0
220
0.0
230
1.0
 40
0.6338028169013887
 41
0.0
 42
6.283185307179586
  0
ELLIPSE
  5
A2
330
7D
100
AcDbEntity
  8
レイヤー 1
 62
   250
420
  2299925
370
    20
100
AcDbEllipse
 10
115.071968184064
 20
-78.16397917687452
 30
0.0
 11
0.0000000000000002
 21
2.453898304471703
 31
0.0
210
0.0
220
0.0
230
1.0
 40
0.62335526312774
 41
0.0
 42
6.283185307179586
  0
ELLIPSE
  5
A3
330
7D
100
AcDbEntity
  8
レイヤー 1
 62
   250
420
  2299925
370
    20
100
AcDbEllipse
 10
118.4178262341487
 20
-78.29313171921558
 30
0.0
 11
0.0000000000000001
 21
2.357033897716777
 31
0.0
210
0.0
220
0.0
230
1.0
 40
0.6712328767119775
 41
0.0
 42
6.283185307179586
  0
ELLIPSE
  5
A4
330
7D
100
AcDbEntity
  8
レイヤー 1
 62
   250
420
  2299925
370
    20
100
AcDbEllipse
 10
122.1148177586486
 20
-78.64830121065132
 30
0.0
 11
0.0000000000000001
 21
2.421610168886862
 31
0.0
210
0.0
220
0.0
230
1.0
 40
0.7266666666664318
 41
0.0
 42
6.283185307179586
  0
ELLIPSE
  5
A5
330
7D
100
AcDbEntity
  8
レイヤー 1
 62
   250
420
  2299925
370
    20
100
AcDbEllipse
 10
125.8440974187331
 20
-78.95503849871085
 30
0.0
 11
0.0000000000000001
 21
2.437754236678641
 31
0.0
210
0.0
220
0.0
230
1.0
 40
0.7284768211920268
 41
0.0
 42
6.283185307179586
  0
ELLIPSE
  5
A6
330
7D
100
AcDbEntity
  8
レイヤー 1
 62
   250
420
  2299925
370
    20
100
AcDbEllipse
 10
129.7025296211583
 20
-78.95503849871085
 30
0.0
 11
0.0000000000000001
 21
2.437754236678641
 31
0.0
210
0.0
220
0.0
230
1.0
 40
0.7748344370861535
 41
0.0
 42
6.283185307179586
  0
ELLIPSE
  5
A7
330
7D
100
AcDbEntity
  8
レイヤー 1
 62
   250
420
  2299925
370
    20
100
AcDbEllipse
 10
100.094309289577
 20
-82.34201309644127
 30
0.0
 11
0.0000000000000001
 21
2.208457648872157
 31
0.0
210
0.0
220
0.0
230
1.0
 40
0.6652199872950214
 41
0.0
 42
6.283185307179586
  0
ELLIPSE
  5
A8
330
7D
100
AcDbEntity
  8
レイヤー 1
 62
   250
420
  2299925
370
    20
100
AcDbEllipse
 10
103.306978780299
 20
-82.36950883684007
 30
0.0
 11
0.0000000000000001
 21
2.235953389271296
 31
0.0
210
0.0
220
0.0
230
1.0
 40
0.6931407942239126
 41
0.0
 42
6.283185307179586
  0
ELLIPSE
  5
A9
330
7D
100
AcDbEntity
  8
レイヤー 1
 62
   250
420
  2299925
370
    20
100
AcDbEllipse
 10
106.43892793206
 20
-82.59780708448506
 30
0.0
 11
0.0000000000000001
 21
2.302810958990608
 31
0.0
210
0.0
220
0.0
230
1.0
 40
0.6379638603805695
 41
0.0
 42
6.283185307179586
  0
ELLIPSE
  5
AA
330
7D
100
AcDbEntity
  8
レイヤー 1
 62
   250
420
  2299925
370
    20
100
AcDbEllipse
 10
109.385220304204
 20
-82.70046222658839
 30
0.0
 11
0.0000000000000001
 21
2.405466101093479
 31
0.0
210
0.0
220
0.0
230
1.0
 40
0.6140939597312634
 41
0.0
 42
6.283185307179586
  0
ELLIPSE
  5
AB
330
7D
100
AcDbEntity
  8
レイヤー 1
 62
   250
420
  2299925
370
    20
100
AcDbEllipse
 10
112.5494575915486
 20
-82.98621222651702
 30
0.0
 11
0.0000000000000001
 21
2.368334745170638
 31
0.0
210
0.0
220
0.0
230
1.0
 40
0.6411042944787141
 41
0.0
 42
6.283185307179586
  0
ELLIPSE
  5
AC
330
7D
100
AcDbEntity
  8
レイヤー 1
 62
   250
420
  2299925
370
    20
100
AcDbEllipse
 10
115.9154957263006
 20
-83.21707239595108
 30
0.0
 11
0.0000000000000002
 21
2.56690677901889
 31
0.0
210
0.0
220
0.0
230
1.0
 40
0.6540880503146038
 41
0.0
 42
6.283185307179586
  0
ELLIPSE
  5
AD
330
7D
100
AcDbEntity
  8
レイヤー 1
 62
   250
420
  2299925
370
    20
100
AcDbEllipse
 10
119.5156228440435
 20
-83.49152154842352
 30
0.0
 11
0.0000000000000002
 21
2.615338982397114
 31
0.0
210
0.0
220
0.0
230
1.0
 40
0.6543209876543365
 41
0.0
 42
6.283185307179586
  0
ELLIPSE
  5
AE
330
7D
100
AcDbEntity
  8
レイヤー 1
 62
   250
420
  2299925
370
    20
100
AcDbEllipse
 10
123.1803262329576
 20
-83.83054697206789
 30
0.0
 11
0.0000000000000002
 21
2.760635592529864
 31
0.0
210
0.0
220
0.0
230
1.0
 40
0.6257309941521017
 41
0.0
 42
6.283185307179586
  0
ELLIPSE
  5
AF
330
7D
100
AcDbEntity
  8
レイヤー 1
 62
   250
420
  2299925
370
    20
100
AcDbEllipse
 10
126.9096058930424
 20
-84.18571646350427
 30
0.0
 11
0.0000000000000002
 21
2.534618643434129
 31
0.0
210
0.0
220
0.0
230
1.0
 40
0.7388535031847559
 41
0.0
 42
6.283185307179586
  0
ELLIPSE
  5
B0
330
7D
100
AcDbEntity
  8
レイヤー 1
 62
   250
420
  2299925
370
    20
100
AcDbEllipse
 10
130.9779109767712
 20
-84.39558934480791
 30
0.0
 11
0.0000000000000002
 21
2.744491524737604
 31
0.0
210
0.0
220
0.0
230
1.0
 40
0.6705882352941486
 41
0.0
 42
6.283185307179586
  0
ELLIPSE
  5
B1
330
7D
100
AcDbEntity
  8
レイヤー 1
 62
   250
420
  2299925
370
    20
100
AcDbEllipse
 10
98.07630081550509
 20
-86.77683934421267
 30
0.0
 11
0.0000000000000001
 21
2.171377118101291
 31
0.0
210
0.0
220
0.0
230
1.0
 40
0.6394052044608568
 41
0.0
 42
6.283185307179586
  0
ELLIPSE
  5
B2
330
7D
100
AcDbEntity
  8
レイヤー 1
 62
   250
420
  2299925
370
    20
100
AcDbEllipse
 10
101.2728262384349
 20
-86.95442408993091
 30
0.0
 11
0.0000000000000001
 21
2.348961863819525
 31
0.0
210
0.0
220
0.0
230
1.0
 40
0.6185567010308951
 41
0.0
 42
6.283185307179586
  0
ELLIPSE
  5
B3
330
7D
100
AcDbEntity
  8
レイヤー 1
 62
   250
420
  2299925
370
    20
100
AcDbEllipse
 10
104.3886313224017
 20
-87.18272233757595
 30
0.0
 11
0.0000000000000001
 21
2.282104294099972
 31
0.0
210
0.0
220
0.0
230
1.0
 40
0.6579008280169866
 41
0.0
 42
6.283185307179586
  0
ELLIPSE
  5
B4
330
7D
100
AcDbEntity
  8
レイヤー 1
 62
   250
420
  2299925
370
    20
100
AcDbEllipse
 10
107.286491491169
 20
-87.3499537508494
 30
0.0
 11
0.0000000000000001
 21
2.244025423167185
 31
0.0
210
0.0
220
0.0
230
1.0
 40
0.6223021582736833
 41
0.0
 42
6.283185307179586
  0
ELLIPSE
  5
B5
330
7D
100
AcDbEntity
  8
レイヤー 1
 62
   250
420
  2299925
370
    20
100
AcDbEllipse
 10
110.3054321683804
 20
-87.67283510670086
 30
0.0
 11
0.0000000000000002
 21
2.56690677901897
 31
0.0
210
0.0
220
0.0
230
1.0
 40
0.6320754716981563
 41
0.0
 42
6.283185307179586
  0
ELLIPSE
  5
B6
330
7D
100
AcDbEntity
  8
レイヤー 1
 62
   250
420
  2299925
370
    20
100
AcDbEllipse
 10
98.94808047630391
 20
-91.22453002106713
 30
0.0
 11
0.0000000000000001
 21
2.1471610164125
 31
0.0
210
0.0
220
0.0
230
1.0
 40
0.7218045112781291
 41
0.0
 42
6.283185307179586
  0
ELLIPSE
  5
B7
330
7D
100
AcDbEntity
  8
レイヤー 1
 62
   250
420
  2299925
370
    20
100
AcDbEllipse
 10
102.2414703059889
 20
-91.87029273276996
 30
0.0
 11
0.0000000000000001
 21
2.27631355875323
 31
0.0
210
0.0
220
0.0
230
1.0
 40
0.6524822695034712
 41
0.0
 42
6.283185307179586
  0
ELLIPSE
  5
B8
330
7D
100
AcDbEntity
  8
レイヤー 1
 62
   250
420
  2299925
370
    20
100
AcDbEllipse
 10
105.3895635255409
 20
-92.08016561407337
 30
0.0
 11
0.0000000000000002
 21
2.486186440056625
 31
0.0
210
0.0
220
0.0
230
1.0
 40
0.564935064934975
 41
0.0
 42
6.283185307179586
  0
ELLIPSE
  5
B9
330
7D
100
AcDbEntity
  8
レイヤー 1
 62
   250
420
  2299925
370
    20
100
AcDbEllipse
 10
108.6022330163004
 20
-92.51605544447299
 30
0.0
 11
0.0000000000000002
 21
2.599194914604453
 31
0.0
210
0.0
220
0.0
230
1.0
 40
0.5807453416149418
 41
0.0
 42
6.283185307179586
  0
ELLIPSE
  5
BA
330
7D
100
AcDbEntity
  8
レイヤー 1
 62
   250
420
  2299925
370
    20
100
AcDbEllipse
 10
111.8794787781929
 20
-93.00037747820413
 30
0.0
 11
0.0000000000000002
 21
2.59919491455801
 31
0.0
210
0.0
220
0.0
230
1.0
 40
0.5652173913000944
 41
0.0
 42
6.283185307179586
  0
ELLIPSE
  5
BB
330
7D
100
AcDbEntity
  8
レイヤー 1
 62
   250
420
  2299925
370
    20
100
AcDbEllipse
 10
114.9650384866414
 20
-93.24253849513898
 30
0.0
 11
0.0000000000000002
 21
2.712203389152362
 31
0.0
210
0.0
220
0.0
230
1.0
 40
0.5959912688799586
 41
0.0
 42
6.283185307179586
  0
ELLIPSE
  5
BC
330
7D
100
AcDbEntity
  8
レイヤー 1
 62
   250
420
  2299925
370
    20
100
AcDbEllipse
 10
118.242284248534
 20
-93.54927578319786
 30
0.0
 11
0.0000000000000002
 21
2.728347456945103
 31
0.0
210
0.0
220
0.0
230
1.0
 40
0.6087187386282085
 41
0.0
 42
6.283185307179586
  0
ELLIPSE
  5
BD
330
7D
100
AcDbEntity
  8
レイヤー 1
 62
   250
420
  2299925
370
    20
100
AcDbEllipse
 10
121.8403686061735
 20
-94.11431815593676
 30
0.0
 11
0.0000000000000002
 21
3.002796609418823
 31
0.0
210
0.0
220
0.0
230
1.0
 40
0.5860215053763275
 41
0.0
 42
6.283185307179586
  0
ELLIPSE
  5
BE
330
7D
100
AcDbEntity
  8
レイヤー 1
 62
   250
420
  2299925
370
    20
100
AcDbEllipse
 10
125.7149448763911
 20
-94.79236900322492
 30
0.0
 11
0.0000000000000002
 21
3.164237287344556
 31
0.0
210
0.0
220
0.0
230
1.0
 40
0.6122448979592448
 41
0.0
 42
6.283185307179586
  0
ELLIPSE
  5
BF
330
7D
100
AcDbEntity
  8
レイヤー 1
 62
   250
420
  2299925
370
    20
100
AcDbEllipse
 10
113.705822734614
 20
-88.02800459813749
 30
0.0
 11
0.0000000000000001
 21
2.373177965508477
 31
0.0
210
0.0
220
0.0
230
1.0
 40
0.6811419533844225
 41
0.0
 42
6.283185307179586
  0
ELLIPSE
  5
C0
330
7D
100
AcDbEntity
  8
レイヤー 1
 62
   250
420
  2299925
370
    20
100
AcDbEllipse
 10
117.2877414886675
 20
-88.39931815736589
 30
0.0
 11
0.0000000000000002
 21
2.453898304470741
 31
0.0
210
0.0
220
0.0
230
1.0
 40
0.6710526315790919
 41
0.0
 42
6.283185307179586
  0
ELLIPSE
  5
C1
330
7D
100
AcDbEntity
  8
レイヤー 1
 62
   250
420
  2299925
370
    20
100
AcDbEllipse
 10
120.9201567419968
 20
-88.68991137763236
 30
0.0
 11
0.0000000000000001
 21
2.421610168885579
 31
0.0
210
0.0
220
0.0
230
1.0
 40
0.713333333333541
 41
0.0
 42
6.283185307179586
  0
ELLIPSE
  5
C2
330
7D
100
AcDbEntity
  8
レイヤー 1
 62
   250
420
  2299925
370
    20
100
AcDbEllipse
 10
124.5953492734354
 20
-89.25286078985408
 30
0.0
 11
0.0000000000000002
 21
2.532525682915845
 31
0.0
210
0.0
220
0.0
230
1.0
 40
0.6798589803657802
 41
0.0
 42
6.283185307179586
  0
ELLIPSE
  5
C3
330
7D
100
AcDbEntity
  8
レイヤー 1
 62
   250
420
  2299925
370
    20
100
AcDbEllipse
 10
128.1849872486563
 20
-89.67469951297932
 30
0.0
 11
0.0000000000000002
 21
2.663771185774137
 31
0.0
210
0.0
220
0.0
230
1.0
 40
0.6545454545285737
 41
0.0
 42
6.283185307179586
  0
ENDBLK
  5
80
330
7D
100
AcDbEntity
  8
0
100
AcDbBlockEnd
  0
ENDSEC
  0
SECTION
  2
ENTITIES
  0
INSERT
  5
7A
330
70
100
AcDbEntity
  8
レイヤー 1
100
AcDbBlockReference
  2
Block_0
 10
0.0
 20
0.0
 30
0.0
  0
ENDSEC
  0
SECTION
  2
OBJECTS
  0
DICTIONARY
  5
C
330
0
100
AcDbDictionary
281
     1
  3
ACAD_COLOR
350
63
  3
ACAD_DETAILVIEWSTYLE
350
6A
  3
ACAD_GROUP
350
D
  3
ACAD_LAYOUT
350
62
  3
ACAD_MATERIAL
350
10
  3
ACAD_MLEADERSTYLE
350
66
  3
ACAD_MLINESTYLE
350
5F
  3
ACAD_PLOTSETTINGS
350
61
  3
ACAD_PLOTSTYLENAME
350
E
  3
ACAD_SCALELIST
350
42
  3
ACAD_SECTIONVIEWSTYLE
350
68
  3
ACAD_TABLESTYLE
350
64
  3
ACAD_VISUALSTYLE
350
29
  3
ACDB_RECOMPOSE_DATA
350
13E
  3
AcDbVariableDictionary
350
136
  0
DICTIONARY
  5
63
102
{ACAD_REACTORS
330
C
102
}
330
C
100
AcDbDictionary
281
     1
  0
DICTIONARY
  5
6A
102
{ACAD_REACTORS
330
C
102
}
330
C
100
AcDbDictionary
281
     1
  3
Imperial24
350
6B
  0
DICTIONARY
  5
D
102
{ACAD_REACTORS
330
C
102
}
330
C
100
AcDbDictionary
281
     1
  0
DICTIONARY
  5
62
102
{ACAD_REACTORS
330
C
102
}
330
C
100
AcDbDictionary
281
     1
  3
Layout1
350
6F
  3
Layout2
350
77
  3
Model
350
73
  0
DICTIONARY
  5
10
102
{ACAD_REACTORS
330
C
102
}
330
C
100
AcDbDictionary
281
     1
  3
ByBlock
350
19
  3
ByLayer
350
11
  3
Global
350
21
  0
DICTIONARY
  5
66
102
{ACAD_REACTORS
330
C
102
}
330
C
100
AcDbDictionary
281
     1
  3
Standard
350
67
  0
DICTIONARY
  5
5F
102
{ACAD_REACTORS
330
C
102
}
330
C
100
AcDbDictionary
281
     1
  3
Standard
350
60
  0
DICTIONARY
  5
61
102
{ACAD_REACTORS
330
C
102
}
330
C
100
AcDbDictionary
281
     1
  0
ACDBDICTIONARYWDFLT
  5
E
102
{ACAD_REACTORS
330
C
102
}
330
C
100
AcDbDictionary
281
     1
  3
Normal
350
F
100
AcDbDictionaryWithDefault
340
F
  0
DICTIONARY
  5
42
102
{ACAD_REACTORS
330
C
102
}
330
C
100
AcDbDictionary
281
     1
  3
A0
350
43
  3
A1
350
44
  3
A2
350
45
  3
A3
350
46
  3
A4
350
47
  3
A5
350
48
  3
A6
350
49
  3
A7
350
4A
  3
A8
350
4B
  3
A9
350
4C
  3
B0
350
4D
  3
B1
350
4E
  3
B2
350
4F
  3
B3
350
50
  3
B4
350
51
  3
B5
350
52
  3
B6
350
53
  0
DICTIONARY
  5
68
102
{ACAD_REACTORS
330
C
102
}
330
C
100
AcDbDictionary
281
     1
  3
Imperial24
350
69
  0
DICTIONARY
  5
64
102
{ACAD_REACTORS
330
C
102
}
330
C
100
AcDbDictionary
281
     1
  3
Standard
350
65
  0
DICTIONARY
  5
29
102
{ACAD_REACTORS
330
C
102
}
330
C
100
AcDbDictionary
281
     1
  3
2dWireframe
350
2F
  3
Basic
350
2E
  3
Brighten
350
35
  3
ColorChange
350
39
  3
Conceptual
350
32
  3
Dim
350
34
  3
EdgeColorOff
350
41
  3
Facepattern
350
38
  3
Flat
350
2A
  3
FlatWithEdges
350
2B
  3
Gouraud
350
2C
  3
GouraudWithEdges
350
2D
  3
Hidden
350
31
  3
JitterOff
350
3F
  3
Linepattern
350
37
  3
OverhangOff
350
40
  3
Realistic
350
33
  3
Shaded
350
3E
  3
Shaded with edges
350
3D
  3
Shades of Gray
350
3A
  3
Sketchy
350
3B
  3
Thicken
350
36
  3
Wireframe
350
30
  3
X-Ray
350
3C
  0
XRECORD
  5
13E
102
{ACAD_REACTORS
330
C
102
}
330
C
100
AcDbXrecord
280
     1
 90
        1
330
65
  0
DICTIONARY
  5
136
102
{ACAD_REACTORS
330
C
102
}
330
C
100
AcDbDictionary
281
     1
  3
CANNOSCALE
350
13B
  3
CMLEADERSTYLE
350
138
  3
CTABLESTYLE
350
137
  3
CVIEWDETAILSTYLE
350
139
  3
CVIEWSECTIONSTYLE
350
13A
  0
ACDBDETAILVIEWSTYLE
  5
6B
102
{ACAD_REACTORS
330
6A
102
}
330
6A
100
AcDbModelDocViewStyle
 70
     0
  3
Imperial24
290
     1
300
Imperial24
 90
        0
100
AcDbDetailViewStyle
 70
     0
 71
     0
 90
        3
 71
     1
340
55
 62
   256
 40
0.24
340
0
 62
   256
 40
0.24
300

 40
0.36
280
     3
 71
     2
340
5D
 90
       25
 62
   256
 71
     3
340
55
 62
   256
 40
0.24
 90
        1
 40
0.75
 90
        1
300
%<\AcVar ViewType \f "%tc1">% %<\AcVar ViewDetailId>%\PSCALE %<\AcVar ViewScale \f "%sn">%
 71
     4
340
5D
 90
       25
 62
   256
340
5D
 90
       25
 62
   256
280
     0
  0
LAYOUT
  5
6F
102
{ACAD_REACTORS
330
62
102
}
330
62
100
AcDbPlotSettings
  1

  2

  4

  6

 40
0.0
 41
0.0
 42
0.0
 43
0.0
 44
0.0
 45
0.0
 46
0.0
 47
0.0
 48
0.0
 49
0.0
140
0.0
141
0.0
142
1.0
143
1.0
 70
   688
 72
     0
 73
     0
 74
     5
  7

 75
    16
147
1.0
 76
     0
 77
     2
 78
   300
148
0.0
149
0.0
100
AcDbLayout
  1
Layout1
 70
     1
 71
     1
 10
0.0
 20
0.0
 11
12.0
 21
9.0
 12
0.0
 22
0.0
 32
0.0
 14
0.0
 24
0.0
 34
0.0
 15
0.0
 25
0.0
 35
0.0
146
0.0
 13
0.0
 23
0.0
 33
0.0
 16
1.0
 26
0.0
 36
0.0
 17
0.0
 27
1.0
 37
0.0
 76
     0
330
6C
  0
LAYOUT
  5
77
102
{ACAD_REACTORS
330
62
102
}
330
62
100
AcDbPlotSettings
  1

  2

  4

  6

 40
0.0
 41
0.0
 42
0.0
 43
0.0
 44
0.0
 45
0.0
 46
0.0
 47
0.0
 48
0.0
 49
0.0
140
0.0
141
0.0
142
1.0
143
1.0
 70
   688
 72
     0
 73
     0
 74
     5
  7

 75
    16
147
1.0
 76
     0
 77
     2
 78
   300
148
0.0
149
0.0
100
AcDbLayout
  1
Layout2
 70
     1
 71
     2
 10
0.0
 20
0.0
 11
12.0
 21
9.0
 12
0.0
 22
0.0
 32
0.0
 14
0.0
 24
0.0
 34
0.0
 15
0.0
 25
0.0
 35
0.0
146
0.0
 13
0.0
 23
0.0
 33
0.0
 16
1.0
 26
0.0
 36
0.0
 17
0.0
 27
1.0
 37
0.0
 76
     0
330
74
  0
LAYOUT
  5
73
102
{ACAD_REACTORS
330
62
102
}
330
62
100
AcDbPlotSettings
  1

  2

  4

  6

 40
0.0
 41
0.0
 42
0.0
 43
0.0
 44
0.0
 45
0.0
 46
0.0
 47
0.0
 48
0.0
 49
0.0
140
0.0
141
0.0
142
1.0
143
1.0
 70
  1712
 72
     0
 73
     0
 74
     0
  7

 75
     0
147
1.0
 76
     0
 77
     2
 78
   300
148
0.0
149
0.0
100
AcDbLayout
  1
Model
 70
     1
 71
     0
 10
0.0
 20
0.0
 11
12.0
 21
9.0
 12
0.0
 22
0.0
 32
0.0
 14
0.0
 24
0.0
 34
0.0
 15
0.0
 25
0.0
 35
0.0
146
0.0
 13
0.0
 23
0.0
 33
0.0
 16
1.0
 26
0.0
 36
0.0
 17
0.0
 27
1.0
 37
0.0
 76
     0
330
70
  0
MATERIAL
  5
19
102
{ACAD_XDICTIONARY
360
1A
102
}
102
{ACAD_REACTORS
330
10
102
}
330
10
100
AcDbMaterial
  1
ByBlock
 72
     0
 43
0.0208333333333333
 43
0.0
 43
0.0
 43
0.0
 43
0.0
 43
0.0208333333333333
 43
0.0
 43
0.0
 43
0.0
 43
0.0
 43
1.0
 43
0.0
 43
0.0
 43
0.0
 43
0.0
 43
1.0
 77
     0
 47
0.0208333333333333
 47
0.0
 47
0.0
 47
0.0
 47
0.0
 47
0.0208333333333333
 47
0.0
 47
0.0
 47
0.0
 47
0.0
 47
1.0
 47
0.0
 47
0.0
 47
0.0
 47
0.0
 47
1.0
171
     0
 49
0.0208333333333333
 49
0.0
 49
0.0
 49
0.0
 49
0.0
 49
0.0208333333333333
 49
0.0
 49
0.0
 49
0.0
 49
0.0
 49
1.0
 49
0.0
 49
0.0
 49
0.0
 49
0.0
 49
1.0
175
     0
142
0.0208333333333333
142
0.0
142
0.0
142
0.0
142
0.0
142
0.0208333333333333
142
0.0
142
0.0
142
0.0
142
0.0
142
1.0
142
0.0
142
0.0
142
0.0
142
0.0
142
1.0
179
     0
144
0.0208333333333333
144
0.0
144
0.0
144
0.0
144
0.0
144
0.0208333333333333
144
0.0
144
0.0
144
0.0
144
0.0
144
1.0
144
0.0
144
0.0
144
0.0
144
0.0
144
1.0
147
0.0208333333333333
147
0.0
147
0.0
147
0.0
147
0.0
147
0.0208333333333333
147
0.0
147
0.0
147
0.0
147
0.0
147
1.0
147
0.0
147
0.0
147
0.0
147
0.0
147
1.0
  0
MATERIAL
  5
11
102
{ACAD_XDICTIONARY
360
12
102
}
102
{ACAD_REACTORS
330
10
102
}
330
10
100
AcDbMaterial
  1
ByLayer
 72
     0
 43
0.0208333333333333
 43
0.0
 43
0.0
 43
0.0
 43
0.0
 43
0.0208333333333333
 43
0.0
 43
0.0
 43
0.0
 43
0.0
 43
1.0
 43
0.0
 43
0.0
 43
0.0
 43
0.0
 43
1.0
 77
     0
 47
0.0208333333333333
 47
0.0
 47
0.0
 47
0.0
 47
0.0
 47
0.0208333333333333
 47
0.0
 47
0.0
 47
0.0
 47
0.0
 47
1.0
 47
0.0
 47
0.0
 47
0.0
 47
0.0
 47
1.0
171
     0
 49
0.0208333333333333
 49
0.0
 49
0.0
 49
0.0
 49
0.0
 49
0.0208333333333333
 49
0.0
 49
0.0
 49
0.0
 49
0.0
 49
1.0
 49
0.0
 49
0.0
 49
0.0
 49
0.0
 49
1.0
175
     0
142
0.0208333333333333
142
0.0
142
0.0
142
0.0
142
0.0
142
0.0208333333333333
142
0.0
142
0.0
142
0.0
142
0.0
142
1.0
142
0.0
142
0.0
142
0.0
142
0.0
142
1.0
179
     0
144
0.0208333333333333
144
0.0
144
0.0
144
0.0
144
0.0
144
0.0208333333333333
144
0.0
144
0.0
144
0.0
144
0.0
144
1.0
144
0.0
144
0.0
144
0.0
144
0.0
144
1.0
147
0.0208333333333333
147
0.0
147
0.0
147
0.0
147
0.0
147
0.0208333333333333
147
0.0
147
0.0
147
0.0
147
0.0
147
1.0
147
0.0
147
0.0
147
0.0
147
0.0
147
1.0
  0
MATERIAL
  5
21
102
{ACAD_XDICTIONARY
360
22
102
}
102
{ACAD_REACTORS
330
10
102
}
330
10
100
AcDbMaterial
  1
Global
 72
     0
 43
0.0208333333333333
 43
0.0
 43
0.0
 43
0.0
 43
0.0
 43
0.0208333333333333
 43
0.0
 43
0.0
 43
0.0
 43
0.0
 43
1.0
 43
0.0
 43
0.0
 43
0.0
 43
0.0
 43
1.0
 77
     0
 47
0.0208333333333333
 47
0.0
 47
0.0
 47
0.0
 47
0.0
 47
0.0208333333333333
 47
0.0
 47
0.0
 47
0.0
 47
0.0
 47
1.0
 47
0.0
 47
0.0
 47
0.0
 47
0.0
 47
1.0
171
     0
 49
0.0208333333333333
 49
0.0
 49
0.0
 49
0.0
 49
0.0
 49
0.0208333333333333
 49
0.0
 49
0.0
 49
0.0
 49
0.0
 49
1.0
 49
0.0
 49
0.0
 49
0.0
 49
0.0
 49
1.0
175
     0
142
0.0208333333333333
142
0.0
142
0.0
142
0.0
142
0.0
142
0.0208333333333333
142
0.0
142
0.0
142
0.0
142
0.0
142
1.0
142
0.0
142
0.0
142
0.0
142
0.0
142
1.0
179
     0
144
0.0208333333333333
144
0.0
144
0.0
144
0.0
144
0.0
144
0.0208333333333333
144
0.0
144
0.0
144
0.0
144
0.0
144
1.0
144
0.0
144
0.0
144
0.0
144
0.0
144
1.0
147
0.0208333333333333
147
0.0
147
0.0
147
0.0
147
0.0
147
0.0208333333333333
147
0.0
147
0.0
147
0.0
147
0.0
147
1.0
147
0.0
147
0.0
147
0.0
147
0.0
147
1.0
  0
MLEADERSTYLE
  5
67
102
{ACAD_REACTORS
330
66
102
}
330
66
100
AcDbMLeaderStyle
179
     2
170
     2
171
     1
172
     0
 90
        2
 40
0.0
 41
0.0
173
     1
 91
-1056964608
340
5B
 92
       -2
290
     1
 42
0.09
291
     1
 43
0.36
  3
Standard
 44
0.18
300

342
55
174
     1
178
     6
175
     1
176
     0
 93
-1056964608
 45
0.18
292
     0
297
     0
 46
0.18
 94
-1056964608
 47
1.0
 49
1.0
140
1.0
293
     1
141
0.0
294
     1
177
     0
142
1.0
295
     1
296
     0
143
0.125
271
     0
272
     9
273
     9
298
     1
  0
MLINESTYLE
  5
60
102
{ACAD_REACTORS
330
5F
102
}
330
5F
100
AcDbMlineStyle
  2
STANDARD
 70
     0
  3

 62
   256
 51
90.0
 52
90.0
 71
     2
 49
0.5
 62
   256
  6
BYLAYER
 49
-0.5
 62
   256
  6
BYLAYER
  0
ACDBPLACEHOLDER
  5
F
102
{ACAD_REACTORS
330
E
102
}
330
E
  0
SCALE
  5
43
102
{ACAD_REACTORS
330
42
102
}
330
42
100
AcDbScale
 70
     0
300
1:1
140
1.0
141
1.0
290
     1
  0
SCALE
  5
44
102
{ACAD_REACTORS
330
42
102
}
330
42
100
AcDbScale
 70
     0
300
1/128" = 1'-0"
140
0.0078125
141
12.0
290
     0
  0
SCALE
  5
45
102
{ACAD_REACTORS
330
42
102
}
330
42
100
AcDbScale
 70
     0
300
1/64" = 1'-0"
140
0.015625
141
12.0
290
     0
  0
SCALE
  5
46
102
{ACAD_REACTORS
330
42
102
}
330
42
100
AcDbScale
 70
     0
300
1/32" = 1'-0"
140
0.03125
141
12.0
290
     0
  0
SCALE
  5
47
102
{ACAD_REACTORS
330
42
102
}
330
42
100
AcDbScale
 70
     0
300
1/16" = 1'-0"
140
0.0625
141
12.0
290
     0
  0
SCALE
  5
48
102
{ACAD_REACTORS
330
42
102
}
330
42
100
AcDbScale
 70
     0
300
3/32" = 1'-0"
140
0.09375
141
12.0
290
     0
  0
SCALE
  5
49
102
{ACAD_REACTORS
330
42
102
}
330
42
100
AcDbScale
 70
     0
300
1/8" = 1'-0"
140
0.125
141
12.0
290
     0
  0
SCALE
  5
4A
102
{ACAD_REACTORS
330
42
102
}
330
42
100
AcDbScale
 70
     0
300
3/16" = 1'-0"
140
0.1875
141
12.0
290
     0
  0
SCALE
  5
4B
102
{ACAD_REACTORS
330
42
102
}
330
42
100
AcDbScale
 70
     0
300
1/4" = 1'-0"
140
0.25
141
12.0
290
     0
  0
SCALE
  5
4C
102
{ACAD_REACTORS
330
42
102
}
330
42
100
AcDbScale
 70
     0
300
3/8" = 1'-0"
140
0.375
141
12.0
290
     0
  0
SCALE
  5
4D
102
{ACAD_REACTORS
330
42
102
}
330
42
100
AcDbScale
 70
     0
300
1/2" = 1'-0"
140
0.5
141
12.0
290
     0
  0
SCALE
  5
4E
102
{ACAD_REACTORS
330
42
102
}
330
42
100
AcDbScale
 70
     0
300
3/4" = 1'-0"
140
0.75
141
12.0
290
     0
  0
SCALE
  5
4F
102
{ACAD_REACTORS
330
42
102
}
330
42
100
AcDbScale
 70
     0
300
1" = 1'-0"
140
1.0
141
12.0
290
     0
  0
SCALE
  5
50
102
{ACAD_REACTORS
330
42
102
}
330
42
100
AcDbScale
 70
     0
300
1-1/2" = 1'-0"
140
1.5
141
12.0
290
     0
  0
SCALE
  5
51
102
{ACAD_REACTORS
330
42
102
}
330
42
100
AcDbScale
 70
     0
300
3" = 1'-0"
140
3.0
141
12.0
290
     0
  0
SCALE
  5
52
102
{ACAD_REACTORS
330
42
102
}
330
42
100
AcDbScale
 70
     0
300
6" = 1'-0"
140
6.0
141
12.0
290
     0
  0
SCALE
  5
53
102
{ACAD_REACTORS
330
42
102
}
330
42
100
AcDbScale
 70
     0
300
1'-0" = 1'-0"
140
12.0
141
12.0
290
     0
  0
ACDBSECTIONVIEWSTYLE
  5
69
102
{ACAD_REACTORS
330
68
102
}
330
68
100
AcDbModelDocViewStyle
 70
     0
  3
Imperial24
290
     1
300
Imperial24
 90
        0
100
AcDbSectionViewStyle
 70
     0
 71
     0
 90
       78
 71
     1
340
55
 62
   256
 40
0.24
340
0
340
0
 62
   256
 40
0.24
300
I, O, Q, S, X, Z
 40
0.48
 90
        3
 40
0.18
 90
        1
 71
     2
340
5D
 90
       25
 62
   256
340
5D
 90
       50
 62
   256
 40
0.24
 40
0.0
 40
0.24
 71
     3
340
55
 62
   256
 40
0.24
 90
        1
 40
0.75
 90
        1
300
%<\AcVar ViewType \f "%tc1">% %<\AcVar ViewSectionStartId>%-%<\AcVar ViewSectionEndId>%\PSCALE %<\AcVar ViewScale \f "%sn">%
 71
     4
 62
   256
 62
   257
300
ANSI31
 40
1.0
 90
        0
290
     0
290
     0
 90
        6
 40
0.0
 40
1.570796326794896
 40
0.2617993877991494
 40
1.308996938995747
 40
-0.2617993877991494
 40
1.832595714594046
  0
TABLESTYLE
  5
65
102
{ACAD_XDICTIONARY
360
13C
102
}
102
{ACAD_REACTORS
330
64
102
}
330
64
100
AcDbTableStyle
280
     0
  3
Standard
 70
     0
 71
     0
 40
0.06
 41
0.06
280
     0
281
     0
  7
Standard
140
0.18
170
     2
 62
     0
 63
     7
283
     0
 90
      512
 91
        0
  1

274
    -2
284
     1
 64
     0
275
    -2
285
     1
 65
     0
276
    -2
286
     1
 66
     0
277
    -2
287
     1
 67
     0
278
    -2
288
     1
 68
     0
279
    -2
289
     1
 69
     0
  7
Standard
140
0.25
170
     5
 62
     0
 63
     7
283
     0
 90
      512
 91
        0
  1

274
    -2
284
     1
 64
     0
275
    -2
285
     1
 65
     0
276
    -2
286
     1
 66
     0
277
    -2
287
     1
 67
     0
278
    -2
288
     1
 68
     0
279
    -2
289
     1
 69
     0
  7
Standard
140
0.18
170
     5
 62
     0
 63
     7
283
     0
 90
      512
 91
        0
  1

274
    -2
284
     1
 64
     0
275
    -2
285
     1
 65
     0
276
    -2
286
     1
 66
     0
277
    -2
287
     1
 67
     0
278
    -2
288
     1
 68
     0
279
    -2
289
     1
 69
     0
  0
VISUALSTYLE
  5
2F
102
{ACAD_REACTORS
330
29
102
}
330
29
100
AcDbVisualStyle
  2
2dWireframe
 70
     4
177
     3
291
     0
 70
    58
 90
        0
176
     1
 90
        2
176
     1
 90
        0
176
     1
 90
        0
176
     1
 40
0.6
176
     1
 40
30.0
176
     1
 62
     7
420
 16777215
176
     1
 90
        1
176
     1
 90
        4
176
     1
 62
     7
176
     1
 62
   257
176
     1
 90
        1
176
     1
 90
        1
176
     1
 40
1.0
176
     1
 90
        0
176
     1
 62
   257
176
     1
 40
1.0
176
     1
 90
        1
176
     1
 90
        6
176
     1
 90
        2
176
     1
 62
     7
176
     1
 90
        5
176
     1
 90
        0
176
     1
 90
        0
176
     1
290
     0
176
     1
 90
        1
176
     1
 40
0.0
176
     1
 90
        0
176
     1
290
     1
176
     1
290
     1
176
     1
290
     0
176
     1
290
     0
176
     1
290
     0
176
     1
290
     0
176
     1
290
     0
176
     1
290
     0
176
     1
290
     0
176
     1
 90
       50
176
     1
 40
0.0
176
     1
 40
1.0
176
     1
 90
        0
176
     1
 62
    18
420
        0
176
     1
 90
       50
176
     1
 90
        3
176
     1
 62
     5
420
      255
176
     1
290
     0
176
     1
 90
       50
176
     1
 90
       50
176
     1
 90
       50
176
     1
290
     0
176
     1
 90
       50
176
     1
 62
   256
176
     0
 40
1.0
176
     0
 90
        2
176
     1
  1
strokes_ogs.tif
176
     1
290
     0
176
     1
 40
1.0
176
     1
 40
1.0
176
     1
  0
VISUALSTYLE
  5
2E
102
{ACAD_REACTORS
330
29
102
}
330
29
100
AcDbVisualStyle
  2
Basic
 70
     7
177
     3
291
     1
 70
    58
 90
        1
176
     1
 90
        0
176
     1
 90
        1
176
     1
 90
        0
176
     1
 40
0.6
176
     1
 40
30.0
176
     1
 62
     7
420
 16777215
176
     1
 90
        0
176
     1
 90
        4
176
     1
 62
     7
176
     1
 62
   257
176
     1
 90
        1
176
     1
 90
        1
176
     1
 40
1.0
176
     1
 90
        8
176
     1
 62
     7
176
     1
 40
1.0
176
     1
 90
        1
176
     1
 90
        6
176
     1
 90
        2
176
     1
 62
     7
176
     1
 90
        5
176
     1
 90
        0
176
     1
 90
        0
176
     1
290
     0
176
     1
 90
        1
176
     1
 40
0.0
176
     1
 90
        0
176
     1
290
     0
176
     1
290
     1
176
     1
290
     1
176
     1
290
     0
176
     1
290
     0
176
     1
290
     0
176
     1
290
     0
176
     1
290
     0
176
     1
290
     0
176
     1
 90
       50
176
     1
 40
0.0
176
     1
 40
1.0
176
     1
 90
        0
176
     1
 62
    18
420
        0
176
     1
 90
       50
176
     1
 90
        3
176
     1
 62
     5
420
      255
176
     1
290
     0
176
     1
 90
       50
176
     1
 90
       50
176
     1
 90
       50
176
     1
290
     0
176
     1
 90
       50
176
     1
 62
   256
176
     0
 40
1.0
176
     0
 90
        2
176
     1
  1
strokes_ogs.tif
176
     1
290
     0
176
     1
 40
1.0
176
     1
 40
1.0
176
     1
  0
VISUALSTYLE
  5
35
102
{ACAD_REACTORS
330
29
102
}
330
29
100
AcDbVisualStyle
  2
Brighten
 70
    12
177
     3
291
     1
 70
    58
 90
        2
176
     1
 90
        2
176
     1
 90
        0
176
     1
 90
        0
176
     1
 40
0.6
176
     1
 40
30.0
176
     1
 62
     7
420
 16777215
176
     1
 90
        1
176
     1
 90
        4
176
     1
 62
     7
176
     1
 62
   257
176
     1
 90
        1
176
     1
 90
        1
176
     1
 40
1.0
176
     1
 90
        8
176
     1
 62
     7
176
     1
 40
1.0
176
     1
 90
        1
176
     1
 90
        6
176
     1
 90
        2
176
     1
 62
     7
176
     1
 90
        5
176
     1
 90
        0
176
     1
 90
        0
176
     1
290
     0
176
     1
 90
        1
176
     1
 40
50.0
176
     1
 90
        0
176
     1
290
     0
176
     1
290
     1
176
     1
290
     1
176
     1
290
     0
176
     1
290
     0
176
     1
290
     0
176
     1
290
     0
176
     1
290
     0
176
     1
290
     0
176
     1
 90
       50
176
     1
 40
0.0
176
     1
 40
1.0
176
     1
 90
        0
176
     1
 62
    18
420
        0
176
     1
 90
       50
176
     1
 90
        3
176
     1
 62
     5
420
      255
176
     1
290
     0
176
     1
 90
       50
176
     1
 90
       50
176
     1
 90
       50
176
     1
290
     0
176
     1
 90
       50
176
     1
 62
   256
176
     0
 40
1.0
176
     0
 90
        2
176
     1
  1
strokes_ogs.tif
176
     1
290
     0
176
     1
 40
1.0
176
     1
 40
1.0
176
     1
  0
VISUALSTYLE
  5
39
102
{ACAD_REACTORS
330
29
102
}
330
29
100
AcDbVisualStyle
  2
ColorChange
 70
    16
177
     3
291
     1
 70
    58
 90
        2
176
     1
 90
        2
176
     1
 90
        3
176
     1
 90
        0
176
     1
 40
0.6
176
     1
 40
30.0
176
     1
 62
     8
420
  8421504
176
     1
 90
        1
176
     1
 90
        4
176
     1
 62
     7
176
     1
 62
   257
176
     1
 90
        1
176
     1
 90
        1
176
     1
 40
1.0
176
     1
 90
        8
176
     1
 62
     8
420
  8421504
176
     1
 40
1.0
176
     1
 90
        1
176
     1
 90
        6
176
     1
 90
        2
176
     1
 62
     7
176
     1
 90
        5
176
     1
 90
        0
176
     1
 90
        0
176
     1
290
     0
176
     1
 90
        1
176
     1
 40
0.0
176
     1
 90
        0
176
     1
290
     0
176
     1
290
     1
176
     1
290
     1
176
     1
290
     0
176
     1
290
     0
176
     1
290
     0
176
     1
290
     0
176
     1
290
     0
176
     1
290
     0
176
     1
 90
       50
176
     1
 40
0.0
176
     1
 40
1.0
176
     1
 90
        0
176
     1
 62
    18
420
        0
176
     1
 90
       50
176
     1
 90
        3
176
     1
 62
     5
420
      255
176
     1
290
     0
176
     1
 90
       50
176
     1
 90
       50
176
     1
 90
       50
176
     1
290
     0
176
     1
 90
       50
176
     1
 62
   256
176
     0
 40
1.0
176
     0
 90
        2
176
     1
  1
strokes_ogs.tif
176
     1
290
     0
176
     1
 40
1.0
176
     1
 40
1.0
176
     1
  0
VISUALSTYLE
  5
32
102
{ACAD_REACTORS
330
29
102
}
330
29
100
AcDbVisualStyle
  2
Conceptual
 70
     9
177
     3
291
     0
 70
    58
 90
        3
176
     1
 90
        2
176
     1
 90
        0
176
     1
 90
        0
176
     1
 40
0.6
176
     1
 40
30.0
176
     1
 62
     7
420
 16777215
176
     1
 90
        2
176
     1
 90
        2
176
     1
 62
     7
176
     1
 62
   257
176
     1
 90
        1
176
     1
 90
        1
176
     1
 40
179.0
176
     1
 90
        8
176
     1
 62
     7
176
     1
 40
1.0
176
     1
 90
        1
176
     1
 90
        6
176
     1
 90
        2
176
     1
 62
     7
176
     1
 90
        3
176
     1
 90
        0
176
     1
 90
        0
176
     1
290
     0
176
     1
 90
        1
176
     1
 40
0.0
176
     1
 90
        0
176
     1
290
     0
176
     1
290
     1
176
     1
290
     1
176
     1
290
     0
176
     1
290
     0
176
     1
290
     0
176
     1
290
     0
176
     1
290
     0
176
     1
290
     0
176
     1
 90
       50
176
     1
 40
0.0
176
     1
 40
1.0
176
     1
 90
        0
176
     1
 62
    18
420
        0
176
     1
 90
       50
176
     1
 90
        3
176
     1
 62
     5
420
      255
176
     1
290
     0
176
     1
 90
       50
176
     1
 90
       50
176
     1
 90
       50
176
     1
290
     0
176
     1
 90
       50
176
     1
 62
   256
176
     0
 40
1.0
176
     0
 90
        2
176
     1
  1
strokes_ogs.tif
176
     1
290
     0
176
     1
 40
1.0
176
     1
 40
1.0
176
     1
  0
VISUALSTYLE
  5
34
102
{ACAD_REACTORS
330
29
102
}
330
29
100
AcDbVisualStyle
  2
Dim
 70
    11
177
     3
291
     1
 70
    58
 90
        2
176
     1
 90
        2
176
     1
 90
        0
176
     1
 90
        0
176
     1
 40
0.6
176
     1
 40
30.0
176
     1
 62
     7
420
 16777215
176
     1
 90
        1
176
     1
 90
        4
176
     1
 62
     7
176
     1
 62
   257
176
     1
 90
        1
176
     1
 90
        1
176
     1
 40
1.0
176
     1
 90
        8
176
     1
 62
     7
176
     1
 40
1.0
176
     1
 90
        1
176
     1
 90
        6
176
     1
 90
        2
176
     1
 62
     7
176
     1
 90
        5
176
     1
 90
        0
176
     1
 90
        0
176
     1
290
     0
176
     1
 90
        1
176
     1
 40
-50.0
176
     1
 90
        0
176
     1
290
     0
176
     1
290
     1
176
     1
290
     1
176
     1
290
     0
176
     1
290
     0
176
     1
290
     0
176
     1
290
     0
176
     1
290
     0
176
     1
290
     0
176
     1
 90
       50
176
     1
 40
0.0
176
     1
 40
1.0
176
     1
 90
        0
176
     1
 62
    18
420
        0
176
     1
 90
       50
176
     1
 90
        3
176
     1
 62
     5
420
      255
176
     1
290
     0
176
     1
 90
       50
176
     1
 90
       50
176
     1
 90
       50
176
     1
290
     0
176
     1
 90
       50
176
     1
 62
   256
176
     0
 40
1.0
176
     0
 90
        2
176
     1
  1
strokes_ogs.tif
176
     1
290
     0
176
     1
 40
1.0
176
     1
 40
1.0
176
     1
  0
VISUALSTYLE
  5
41
102
{ACAD_REACTORS
330
29
102
}
330
29
100
AcDbVisualStyle
  2
EdgeColorOff
 70
    22
177
     3
291
     1
 70
    58
 90
        2
176
     0
 90
        2
176
     0
 90
        0
176
     0
 90
        0
176
     0
 40
0.6
176
     0
 40
30.0
176
     0
 62
     7
420
 16777215
176
     0
 90
        1
176
     0
 90
        4
176
     0
 62
     7
176
     0
 62
   257
176
     0
 90
        1
176
     0
 90
        1
176
     0
 40
1.0
176
     0
 90
        8
176
     2
 62
     7
176
     0
 40
1.0
176
     0
 90
        1
176
     0
 90
        6
176
     0
 90
        2
176
     0
 62
     7
176
     0
 90
        5
176
     0
 90
        0
176
     0
 90
        0
176
     0
290
     0
176
     0
 90
        1
176
     0
 40
0.0
176
     0
 90
        0
176
     0
290
     0
176
     0
290
     1
176
     0
290
     1
176
     0
290
     0
176
     0
290
     0
176
     0
290
     0
176
     0
290
     0
176
     0
290
     0
176
     0
290
     0
176
     0
 90
       50
176
     0
 40
0.0
176
     0
 40
1.0
176
     0
 90
        0
176
     0
 62
    18
420
        0
176
     0
 90
       50
176
     0
 90
        3
176
     0
 62
     5
420
      255
176
     0
290
     0
176
     0
 90
       50
176
     0
 90
       50
176
     0
 90
       50
176
     0
290
     0
176
     0
 90
       50
176
     0
 62
   256
176
     0
 40
1.0
176
     0
 90
        2
176
     0
  1
strokes_ogs.tif
176
     0
290
     0
176
     0
 40
1.0
176
     0
 40
1.0
176
     0
  0
VISUALSTYLE
  5
38
102
{ACAD_REACTORS
330
29
102
}
330
29
100
AcDbVisualStyle
  2
Facepattern
 70
    15
177
     3
291
     1
 70
    58
 90
        2
176
     1
 90
        2
176
     1
 90
        0
176
     1
 90
        0
176
     1
 40
0.6
176
     1
 40
30.0
176
     1
 62
     7
420
 16777215
176
     1
 90
        1
176
     1
 90
        4
176
     1
 62
     7
176
     1
 62
   257
176
     1
 90
        1
176
     1
 90
        1
176
     1
 40
1.0
176
     1
 90
        8
176
     1
 62
     7
176
     1
 40
1.0
176
     1
 90
        1
176
     1
 90
        6
176
     1
 90
        2
176
     1
 62
     7
176
     1
 90
        5
176
     1
 90
        0
176
     1
 90
        0
176
     1
290
     0
176
     1
 90
        1
176
     1
 40
0.0
176
     1
 90
        0
176
     1
290
     0
176
     1
290
     1
176
     1
290
     1
176
     1
290
     0
176
     1
290
     0
176
     1
290
     0
176
     1
290
     0
176
     1
290
     0
176
     1
290
     0
176
     1
 90
       50
176
     1
 40
0.0
176
     1
 40
1.0
176
     1
 90
        0
176
     1
 62
    18
420
        0
176
     1
 90
       50
176
     1
 90
        3
176
     1
 62
     5
420
      255
176
     1
290
     0
176
     1
 90
       50
176
     1
 90
       50
176
     1
 90
       50
176
     1
290
     0
176
     1
 90
       50
176
     1
 62
   256
176
     0
 40
1.0
176
     0
 90
        2
176
     1
  1
strokes_ogs.tif
176
     1
290
     0
176
     1
 40
1.0
176
     1
 40
1.0
176
     1
  0
VISUALSTYLE
  5
2A
102
{ACAD_REACTORS
330
29
102
}
330
29
100
AcDbVisualStyle
  2
Flat
 70
     0
177
     3
291
     1
 70
    58
 90
        2
176
     1
 90
        1
176
     1
 90
        1
176
     1
 90
        2
176
     1
 40
0.6
176
     1
 40
30.0
176
     1
 62
     7
420
 16777215
176
     1
 90
        0
176
     1
 90
        0
176
     1
 62
     7
176
     1
 62
   257
176
     1
 90
        1
176
     1
 90
        1
176
     1
 40
1.0
176
     1
 90
        8
176
     1
 62
     7
176
     1
 40
1.0
176
     1
 90
        1
176
     1
 90
        6
176
     1
 90
        2
176
     1
 62
     7
176
     1
 90
        5
176
     1
 90
        0
176
     1
 90
        0
176
     1
290
     0
176
     1
 90
       13
176
     1
 40
0.0
176
     1
 90
        0
176
     1
290
     0
176
     1
290
     1
176
     1
290
     1
176
     1
290
     0
176
     1
290
     0
176
     1
290
     0
176
     1
290
     0
176
     1
290
     0
176
     1
290
     0
176
     1
 90
       50
176
     1
 40
0.0
176
     1
 40
1.0
176
     1
 90
        0
176
     1
 62
    18
420
        0
176
     1
 90
       50
176
     1
 90
        3
176
     1
 62
     5
420
      255
176
     1
290
     0
176
     1
 90
       50
176
     1
 90
       50
176
     1
 90
       50
176
     1
290
     0
176
     1
 90
       50
176
     1
 62
   256
176
     0
 40
1.0
176
     0
 90
        2
176
     1
  1
strokes_ogs.tif
176
     1
290
     0
176
     1
 40
1.0
176
     1
 40
1.0
176
     1
  0
VISUALSTYLE
  5
2B
102
{ACAD_REACTORS
330
29
102
}
330
29
100
AcDbVisualStyle
  2
FlatWithEdges
 70
     1
177
     3
291
     1
 70
    58
 90
        2
176
     1
 90
        1
176
     1
 90
        1
176
     1
 90
        2
176
     1
 40
0.6
176
     1
 40
30.0
176
     1
 62
     7
420
 16777215
176
     1
 90
        1
176
     1
 90
        0
176
     1
 62
     7
176
     1
 62
   257
176
     1
 90
        1
176
     1
 90
        1
176
     1
 40
1.0
176
     1
 90
        0
176
     1
 62
   257
176
     1
 40
1.0
176
     1
 90
        1
176
     1
 90
        6
176
     1
 90
        2
176
     1
 62
     7
176
     1
 90
        5
176
     1
 90
        0
176
     1
 90
        0
176
     1
290
     0
176
     1
 90
       13
176
     1
 40
0.0
176
     1
 90
        0
176
     1
290
     0
176
     1
290
     1
176
     1
290
     1
176
     1
290
     0
176
     1
290
     0
176
     1
290
     0
176
     1
290
     0
176
     1
290
     0
176
     1
290
     0
176
     1
 90
       50
176
     1
 40
0.0
176
     1
 40
1.0
176
     1
 90
        0
176
     1
 62
    18
420
        0
176
     1
 90
       50
176
     1
 90
        3
176
     1
 62
     5
420
      255
176
     1
290
     0
176
     1
 90
       50
176
     1
 90
       50
176
     1
 90
       50
176
     1
290
     0
176
     1
 90
       50
176
     1
 62
   256
176
     0
 40
1.0
176
     0
 90
        2
176
     1
  1
strokes_ogs.tif
176
     1
290
     0
176
     1
 40
1.0
176
     1
 40
1.0
176
     1
  0
VISUALSTYLE
  5
2C
102
{ACAD_REACTORS
330
29
102
}
330
29
100
AcDbVisualStyle
  2
Gouraud
 70
     2
177
     3
291
     1
 70
    58
 90
        2
176
     1
 90
        2
176
     1
 90
        1
176
     1
 90
        2
176
     1
 40
0.6
176
     1
 40
30.0
176
     1
 62
     7
420
 16777215
176
     1
 90
        0
176
     1
 90
        0
176
     1
 62
     7
176
     1
 62
   257
176
     1
 90
        1
176
     1
 90
        1
176
     1
 40
1.0
176
     1
 90
        0
176
     1
 62
     7
176
     1
 40
1.0
176
     1
 90
        1
176
     1
 90
        6
176
     1
 90
        2
176
     1
 62
     7
176
     1
 90
        5
176
     1
 90
        0
176
     1
 90
        0
176
     1
290
     0
176
     1
 90
       13
176
     1
 40
0.0
176
     1
 90
        0
176
     1
290
     0
176
     1
290
     1
176
     1
290
     1
176
     1
290
     0
176
     1
290
     0
176
     1
290
     0
176
     1
290
     0
176
     1
290
     0
176
     1
290
     0
176
     1
 90
       50
176
     1
 40
0.0
176
     1
 40
1.0
176
     1
 90
        0
176
     1
 62
    18
420
        0
176
     1
 90
       50
176
     1
 90
        3
176
     1
 62
     5
420
      255
176
     1
290
     0
176
     1
 90
       50
176
     1
 90
       50
176
     1
 90
       50
176
     1
290
     0
176
     1
 90
       50
176
     1
 62
   256
176
     0
 40
1.0
176
     0
 90
        2
176
     1
  1
strokes_ogs.tif
176
     1
290
     0
176
     1
 40
1.0
176
     1
 40
1.0
176
     1
  0
VISUALSTYLE
  5
2D
102
{ACAD_REACTORS
330
29
102
}
330
29
100
AcDbVisualStyle
  2
GouraudWithEdges
 70
     3
177
     3
291
     1
 70
    58
 90
        2
176
     1
 90
        2
176
     1
 90
        1
176
     1
 90
        2
176
     1
 40
0.6
176
     1
 40
30.0
176
     1
 62
     7
420
 16777215
176
     1
 90
        1
176
     1
 90
        0
176
     1
 62
     7
176
     1
 62
   257
176
     1
 90
        1
176
     1
 90
        1
176
     1
 40
1.0
176
     1
 90
        0
176
     1
 62
   257
176
     1
 40
1.0
176
     1
 90
        1
176
     1
 90
        6
176
     1
 90
        2
176
     1
 62
     7
176
     1
 90
        5
176
     1
 90
        0
176
     1
 90
        0
176
     1
290
     0
176
     1
 90
       13
176
     1
 40
0.0
176
     1
 90
        0
176
     1
290
     0
176
     1
290
     1
176
     1
290
     1
176
     1
290
     0
176
     1
290
     0
176
     1
290
     0
176
     1
290
     0
176
     1
290
     0
176
     1
290
     0
176
     1
 90
       50
176
     1
 40
0.0
176
     1
 40
1.0
176
     1
 90
        0
176
     1
 62
    18
420
        0
176
     1
 90
       50
176
     1
 90
        3
176
     1
 62
     5
420
      255
176
     1
290
     0
176
     1
 90
       50
176
     1
 90
       50
176
     1
 90
       50
176
     1
290
     0
176
     1
 90
       50
176
     1
 62
   256
176
     0
 40
1.0
176
     0
 90
        2
176
     1
  1
strokes_ogs.tif
176
     1
290
     0
176
     1
 40
1.0
176
     1
 40
1.0
176
     1
  0
VISUALSTYLE
  5
31
102
{ACAD_REACTORS
330
29
102
}
330
29
100
AcDbVisualStyle
  2
Hidden
 70
     6
177
     3
291
     0
 70
    58
 90
        1
176
     1
 90
        2
176
     1
 90
        2
176
     1
 90
        0
176
     1
 40
0.6
176
     1
 40
30.0
176
     1
 62
     7
420
 16777215
176
     1
 90
        2
176
     1
 90
        2
176
     1
 62
     7
176
     1
 62
   257
176
     1
 90
        2
176
     1
 90
        1
176
     1
 40
40.0
176
     1
 90
        0
176
     1
 62
   257
176
     1
 40
1.0
176
     1
 90
        1
176
     1
 90
        6
176
     1
 90
        2
176
     1
 62
     7
176
     1
 90
        3
176
     1
 90
        0
176
     1
 90
        0
176
     1
290
     0
176
     1
 90
        1
176
     1
 40
0.0
176
     1
 90
        0
176
     1
290
     0
176
     1
290
     1
176
     1
290
     1
176
     1
290
     0
176
     1
290
     0
176
     1
290
     0
176
     1
290
     0
176
     1
290
     0
176
     1
290
     0
176
     1
 90
       50
176
     1
 40
0.0
176
     1
 40
1.0
176
     1
 90
        0
176
     1
 62
    18
420
        0
176
     1
 90
       50
176
     1
 90
        3
176
     1
 62
     5
420
      255
176
     1
290
     0
176
     1
 90
       50
176
     1
 90
       50
176
     1
 90
       50
176
     1
290
     0
176
     1
 90
       50
176
     1
 62
   256
176
     0
 40
1.0
176
     0
 90
        2
176
     1
  1
strokes_ogs.tif
176
     1
290
     0
176
     1
 40
1.0
176
     1
 40
1.0
176
     1
  0
VISUALSTYLE
  5
3F
102
{ACAD_REACTORS
330
29
102
}
330
29
100
AcDbVisualStyle
  2
JitterOff
 70
    20
177
     3
291
     1
 70
    58
 90
        2
176
     0
 90
        2
176
     0
 90
        0
176
     0
 90
        0
176
     0
 40
0.6
176
     0
 40
30.0
176
     0
 62
     7
420
 16777215
176
     0
 90
        1
176
     0
 90
        4
176
     0
 62
     7
176
     0
 62
   257
176
     0
 90
        1
176
     0
 90
        1
176
     0
 40
1.0
176
     0
 90
       10
176
     2
 62
     7
176
     0
 40
1.0
176
     0
 90
        1
176
     0
 90
        6
176
     0
 90
        2
176
     0
 62
     7
176
     0
 90
        5
176
     0
 90
        0
176
     0
 90
        0
176
     0
290
     0
176
     0
 90
        1
176
     0
 40
0.0
176
     0
 90
        0
176
     0
290
     0
176
     0
290
     1
176
     0
290
     1
176
     0
290
     0
176
     0
290
     0
176
     0
290
     0
176
     0
290
     0
176
     0
290
     0
176
     0
290
     0
176
     0
 90
       50
176
     0
 40
0.0
176
     0
 40
1.0
176
     0
 90
        0
176
     0
 62
    18
420
        0
176
     0
 90
       50
176
     0
 90
        3
176
     0
 62
     5
420
      255
176
     0
290
     0
176
     0
 90
       50
176
     0
 90
       50
176
     0
 90
       50
176
     0
290
     0
176
     0
 90
       50
176
     0
 62
   256
176
     0
 40
1.0
176
     0
 90
        2
176
     0
  1
strokes_ogs.tif
176
     0
290
     0
176
     0
 40
1.0
176
     0
 40
1.0
176
     0
  0
VISUALSTYLE
  5
37
102
{ACAD_REACTORS
330
29
102
}
330
29
100
AcDbVisualStyle
  2
Linepattern
 70
    14
177
     3
291
     1
 70
    58
 90
        2
176
     1
 90
        2
176
     1
 90
        0
176
     1
 90
        0
176
     1
 40
0.6
176
     1
 40
30.0
176
     1
 62
     7
420
 16777215
176
     1
 90
        1
176
     1
 90
        4
176
     1
 62
     7
176
     1
 62
   257
176
     1
 90
        7
176
     1
 90
        7
176
     1
 40
1.0
176
     1
 90
        8
176
     1
 62
     7
176
     1
 40
1.0
176
     1
 90
        1
176
     1
 90
        6
176
     1
 90
        2
176
     1
 62
     7
176
     1
 90
        5
176
     1
 90
        0
176
     1
 90
        0
176
     1
290
     0
176
     1
 90
        1
176
     1
 40
0.0
176
     1
 90
        0
176
     1
290
     0
176
     1
290
     1
176
     1
290
     1
176
     1
290
     0
176
     1
290
     0
176
     1
290
     0
176
     1
290
     0
176
     1
290
     0
176
     1
290
     0
176
     1
 90
       50
176
     1
 40
0.0
176
     1
 40
1.0
176
     1
 90
        0
176
     1
 62
    18
420
        0
176
     1
 90
       50
176
     1
 90
        3
176
     1
 62
     5
420
      255
176
     1
290
     0
176
     1
 90
       50
176
     1
 90
       50
176
     1
 90
       50
176
     1
290
     0
176
     1
 90
       50
176
     1
 62
   256
176
     0
 40
1.0
176
     0
 90
        2
176
     1
  1
strokes_ogs.tif
176
     1
290
     0
176
     1
 40
1.0
176
     1
 40
1.0
176
     1
  0
VISUALSTYLE
  5
40
102
{ACAD_REACTORS
330
29
102
}
330
29
100
AcDbVisualStyle
  2
OverhangOff
 70
    21
177
     3
291
     1
 70
    58
 90
        2
176
     0
 90
        2
176
     0
 90
        0
176
     0
 90
        0
176
     0
 40
0.6
176
     0
 40
30.0
176
     0
 62
     7
420
 16777215
176
     0
 90
        1
176
     0
 90
        4
176
     0
 62
     7
176
     0
 62
   257
176
     0
 90
        1
176
     0
 90
        1
176
     0
 40
1.0
176
     0
 90
        9
176
     2
 62
     7
176
     0
 40
1.0
176
     0
 90
        1
176
     0
 90
        6
176
     0
 90
        2
176
     0
 62
     7
176
     0
 90
        5
176
     0
 90
        0
176
     0
 90
        0
176
     0
290
     0
176
     0
 90
        1
176
     0
 40
0.0
176
     0
 90
        0
176
     0
290
     0
176
     0
290
     1
176
     0
290
     1
176
     0
290
     0
176
     0
290
     0
176
     0
290
     0
176
     0
290
     0
176
     0
290
     0
176
     0
290
     0
176
     0
 90
       50
176
     0
 40
0.0
176
     0
 40
1.0
176
     0
 90
        0
176
     0
 62
    18
420
        0
176
     0
 90
       50
176
     0
 90
        3
176
     0
 62
     5
420
      255
176
     0
290
     0
176
     0
 90
       50
176
     0
 90
       50
176
     0
 90
       50
176
     0
290
     0
176
     0
 90
       50
176
     0
 62
   256
176
     0
 40
1.0
176
     0
 90
        2
176
     0
  1
strokes_ogs.tif
176
     0
290
     0
176
     0
 40
1.0
176
     0
 40
1.0
176
     0
  0
VISUALSTYLE
  5
33
102
{ACAD_REACTORS
330
29
102
}
330
29
100
AcDbVisualStyle
  2
Realistic
 70
     8
177
     3
291
     0
 70
    58
 90
        2
176
     1
 90
        3
176
     1
 90
        0
176
     1
 90
        2
176
     1
 40
0.6
176
     1
 40
30.0
176
     1
 62
     7
420
 16777215
176
     1
 90
        0
176
     1
 90
        0
176
     1
 62
     7
176
     1
 62
   257
176
     1
 90
        1
176
     1
 90
        1
176
     1
 40
1.0
176
     1
 90
        8
176
     1
 62
   257
176
     1
 40
1.0
176
     1
 90
        1
176
     1
 90
        6
176
     1
 90
        2
176
     1
 62
     7
176
     1
 90
        3
176
     1
 90
        0
176
     1
 90
        0
176
     1
290
     0
176
     1
 90
       13
176
     1
 40
0.0
176
     1
 90
        0
176
     1
290
     0
176
     1
290
     1
176
     1
290
     1
176
     1
290
     0
176
     1
290
     0
176
     1
290
     0
176
     1
290
     0
176
     1
290
     0
176
     1
290
     0
176
     1
 90
       50
176
     1
 40
0.0
176
     1
 40
1.0
176
     1
 90
        0
176
     1
 62
    18
420
        0
176
     1
 90
       50
176
     1
 90
        3
176
     1
 62
     5
420
      255
176
     1
290
     0
176
     1
 90
       50
176
     1
 90
       50
176
     1
 90
       50
176
     1
290
     0
176
     1
 90
       50
176
     1
 62
   256
176
     0
 40
1.0
176
     0
 90
        2
176
     1
  1
strokes_ogs.tif
176
     1
290
     0
176
     1
 40
1.0
176
     1
 40
1.0
176
     1
  0
VISUALSTYLE
  5
3E
102
{ACAD_REACTORS
330
29
102
}
330
29
100
AcDbVisualStyle
  2
Shaded
 70
    27
177
     3
291
     0
 70
    58
 90
        2
176
     1
 90
        2
176
     1
 90
        1
176
     1
 90
        2
176
     1
 40
0.6
176
     1
 40
30.0
176
     1
 62
     7
420
 16777215
176
     1
 90
        0
176
     1
 90
        4
176
     1
 62
     7
176
     1
 62
   257
176
     1
 90
        1
176
     1
 90
        1
176
     1
 40
1.0
176
     1
 90
        8
176
     1
 62
   257
176
     1
 40
1.0
176
     1
 90
        1
176
     1
 90
        6
176
     1
 90
        2
176
     1
 62
     8
420
  7895160
176
     1
 90
        3
176
     1
 90
        0
176
     1
 90
        0
176
     1
290
     0
176
     1
 90
        5
176
     1
 40
0.0
176
     1
 90
        0
176
     1
290
     0
176
     1
290
     1
176
     1
290
     1
176
     1
290
     0
176
     1
290
     0
176
     1
290
     0
176
     1
290
     0
176
     1
290
     0
176
     1
290
     0
176
     1
 90
       50
176
     1
 40
0.0
176
     1
 40
1.0
176
     1
 90
        0
176
     1
 62
    18
420
        0
176
     1
 90
       50
176
     1
 90
        3
176
     1
 62
     5
420
      255
176
     1
290
     0
176
     1
 90
       50
176
     1
 90
       50
176
     1
 90
       50
176
     1
290
     0
176
     1
 90
       50
176
     1
 62
   256
176
     0
 40
1.0
176
     0
 90
        2
176
     1
  1
strokes_ogs.tif
176
     1
290
     0
176
     1
 40
1.0
176
     1
 40
1.0
176
     1
  0
VISUALSTYLE
  5
3D
102
{ACAD_REACTORS
330
29
102
}
330
29
100
AcDbVisualStyle
  2
Shaded with edges
 70
    26
177
     3
291
     0
 70
    58
 90
        2
176
     1
 90
        2
176
     1
 90
        1
176
     1
 90
        2
176
     1
 40
0.6
176
     1
 40
30.0
176
     1
 62
     7
420
 16777215
176
     1
 90
        1
176
     1
 90
        2
176
     1
 62
     7
176
     1
 62
   257
176
     1
 90
        2
176
     1
 90
        1
176
     1
 40
1.0
176
     1
 90
        8
176
     1
 62
   257
176
     1
 40
1.0
176
     1
 90
        1
176
     1
 90
        6
176
     1
 90
        2
176
     1
 62
     7
176
     1
 90
        3
176
     1
 90
        0
176
     1
 90
        0
176
     1
290
     0
176
     1
 90
        5
176
     1
 40
0.0
176
     1
 90
        0
176
     1
290
     0
176
     1
290
     1
176
     1
290
     1
176
     1
290
     0
176
     1
290
     0
176
     1
290
     0
176
     1
290
     0
176
     1
290
     0
176
     1
290
     0
176
     1
 90
       50
176
     1
 40
0.0
176
     1
 40
1.0
176
     1
 90
        0
176
     1
 62
    18
420
        0
176
     1
 90
       50
176
     1
 90
        3
176
     1
 62
     5
420
      255
176
     1
290
     0
176
     1
 90
       50
176
     1
 90
       50
176
     1
 90
       50
176
     1
290
     0
176
     1
 90
       50
176
     1
 62
   256
176
     0
 40
1.0
176
     0
 90
        2
176
     1
  1
strokes_ogs.tif
176
     1
290
     0
176
     1
 40
1.0
176
     1
 40
1.0
176
     1
  0
VISUALSTYLE
  5
3A
102
{ACAD_REACTORS
330
29
102
}
330
29
100
AcDbVisualStyle
  2
Shades of Gray
 70
    23
177
     3
291
     0
 70
    58
 90
        2
176
     1
 90
        2
176
     1
 90
        3
176
     1
 90
        0
176
     1
 40
0.6
176
     1
 40
30.0
176
     1
 62
     7
420
 16777215
176
     1
 90
        2
176
     1
 90
        2
176
     1
 62
     7
176
     1
 62
     7
176
     1
 90
        1
176
     1
 90
        1
176
     1
 40
40.0
176
     1
 90
        8
176
     1
 62
     7
176
     1
 40
1.0
176
     1
 90
        1
176
     1
 90
        6
176
     1
 90
        2
176
     1
 62
     7
176
     1
 90
        3
176
     1
 90
        0
176
     1
 90
        0
176
     1
290
     0
176
     1
 90
        1
176
     1
 40
0.0
176
     1
 90
        0
176
     1
290
     0
176
     1
290
     1
176
     1
290
     1
176
     1
290
     0
176
     1
290
     0
176
     1
290
     0
176
     1
290
     0
176
     1
290
     0
176
     1
290
     0
176
     1
 90
       50
176
     1
 40
0.0
176
     1
 40
1.0
176
     1
 90
        0
176
     1
 62
    18
420
        0
176
     1
 90
       50
176
     1
 90
        3
176
     1
 62
     5
420
      255
176
     1
290
     0
176
     1
 90
       50
176
     1
 90
       50
176
     1
 90
       50
176
     1
290
     0
176
     1
 90
       50
176
     1
 62
   256
176
     0
 40
1.0
176
     0
 90
        2
176
     1
  1
strokes_ogs.tif
176
     1
290
     0
176
     1
 40
1.0
176
     1
 40
1.0
176
     1
  0
VISUALSTYLE
  5
3B
102
{ACAD_REACTORS
330
29
102
}
330
29
100
AcDbVisualStyle
  2
Sketchy
 70
    24
177
     3
291
     0
 70
    58
 90
        1
176
     1
 90
        2
176
     1
 90
        2
176
     1
 90
        0
176
     1
 40
0.6
176
     1
 40
30.0
176
     1
 62
     7
420
 16777215
176
     1
 90
        2
176
     1
 90
        2
176
     1
 62
     7
176
     1
 62
     7
176
     1
 90
        1
176
     1
 90
        1
176
     1
 40
40.0
176
     1
 90
       11
176
     1
 62
     7
176
     1
 40
1.0
176
     1
 90
        1
176
     1
 90
        6
176
     1
 90
        2
176
     1
 62
     7
176
     1
 90
        6
176
     1
 90
        0
176
     1
 90
        0
176
     1
290
     0
176
     1
 90
        1
176
     1
 40
0.0
176
     1
 90
        0
176
     1
290
     0
176
     1
290
     1
176
     1
290
     1
176
     1
290
     0
176
     1
290
     0
176
     1
290
     0
176
     1
290
     0
176
     1
290
     0
176
     1
290
     0
176
     1
 90
       50
176
     1
 40
0.0
176
     1
 40
1.0
176
     1
 90
        0
176
     1
 62
    18
420
        0
176
     1
 90
       50
176
     1
 90
        3
176
     1
 62
     5
420
      255
176
     1
290
     0
176
     1
 90
       50
176
     1
 90
       50
176
     1
 90
       50
176
     1
290
     0
176
     1
 90
       50
176
     1
 62
   256
176
     0
 40
1.0
176
     0
 90
        2
176
     1
  1
strokes_ogs.tif
176
     1
290
     0
176
     1
 40
1.0
176
     1
 40
1.0
176
     1
  0
VISUALSTYLE
  5
36
102
{ACAD_REACTORS
330
29
102
}
330
29
100
AcDbVisualStyle
  2
Thicken
 70
    13
177
     3
291
     1
 70
    58
 90
        2
176
     1
 90
        2
176
     1
 90
        0
176
     1
 90
        0
176
     1
 40
0.6
176
     1
 40
30.0
176
     1
 62
     7
420
 16777215
176
     1
 90
        1
176
     1
 90
        4
176
     1
 62
     7
176
     1
 62
   257
176
     1
 90
        1
176
     1
 90
        1
176
     1
 40
1.0
176
     1
 90
       12
176
     1
 62
     7
176
     1
 40
1.0
176
     1
 90
        1
176
     1
 90
        6
176
     1
 90
        2
176
     1
 62
     7
176
     1
 90
        5
176
     1
 90
        0
176
     1
 90
        0
176
     1
290
     0
176
     1
 90
        1
176
     1
 40
0.0
176
     1
 90
        0
176
     1
290
     0
176
     1
290
     1
176
     1
290
     1
176
     1
290
     0
176
     1
290
     0
176
     1
290
     0
176
     1
290
     0
176
     1
290
     0
176
     1
290
     0
176
     1
 90
       50
176
     1
 40
0.0
176
     1
 40
1.0
176
     1
 90
        0
176
     1
 62
    18
420
        0
176
     1
 90
       50
176
     1
 90
        3
176
     1
 62
     5
420
      255
176
     1
290
     0
176
     1
 90
       50
176
     1
 90
       50
176
     1
 90
       50
176
     1
290
     0
176
     1
 90
       50
176
     1
 62
   256
176
     0
 40
1.0
176
     0
 90
        2
176
     1
  1
strokes_ogs.tif
176
     1
290
     0
176
     1
 40
1.0
176
     1
 40
1.0
176
     1
  0
VISUALSTYLE
  5
30
102
{ACAD_REACTORS
330
29
102
}
330
29
100
AcDbVisualStyle
  2
Wireframe
 70
     5
177
     3
291
     0
 70
    58
 90
        0
176
     1
 90
        2
176
     1
 90
        0
176
     1
 90
        0
176
     1
 40
0.6
176
     1
 40
30.0
176
     1
 62
     7
420
 16777215
176
     1
 90
        1
176
     1
 90
        4
176
     1
 62
     7
176
     1
 62
   257
176
     1
 90
        1
176
     1
 90
        1
176
     1
 40
1.0
176
     1
 90
        0
176
     1
 62
   257
176
     1
 40
1.0
176
     1
 90
        1
176
     1
 90
        6
176
     1
 90
        2
176
     1
 62
     7
176
     1
 90
        3
176
     1
 90
        0
176
     1
 90
        0
176
     1
290
     0
176
     1
 90
        1
176
     1
 40
0.0
176
     1
 90
        0
176
     1
290
     0
176
     1
290
     1
176
     1
290
     1
176
     1
290
     0
176
     1
290
     0
176
     1
290
     0
176
     1
290
     0
176
     1
290
     0
176
     1
290
     0
176
     1
 90
       50
176
     1
 40
0.0
176
     1
 40
1.0
176
     1
 90
        0
176
     1
 62
    18
420
        0
176
     1
 90
       50
176
     1
 90
        3
176
     1
 62
     5
420
      255
176
     1
290
     0
176
     1
 90
       50
176
     1
 90
       50
176
     1
 90
       50
176
     1
290
     0
176
     1
 90
       50
176
     1
 62
   256
176
     0
 40
1.0
176
     0
 90
        2
176
     1
  1
strokes_ogs.tif
176
     1
290
     0
176
     1
 40
1.0
176
     1
 40
1.0
176
     1
  0
VISUALSTYLE
  5
3C
102
{ACAD_REACTORS
330
29
102
}
330
29
100
AcDbVisualStyle
  2
X-Ray
 70
    25
177
     3
291
     0
 70
    58
 90
        2
176
     1
 90
        2
176
     1
 90
        1
176
     1
 90
        1
176
     1
 40
0.5
176
     1
 40
30.0
176
     1
 62
     7
420
 16777215
176
     1
 90
        1
176
     1
 90
        0
176
     1
 62
     7
176
     1
 62
   257
176
     1
 90
        1
176
     1
 90
        1
176
     1
 40
1.0
176
     1
 90
        8
176
     1
 62
     7
176
     1
 40
1.0
176
     1
 90
        1
176
     1
 90
        6
176
     1
 90
        2
176
     1
 62
     7
176
     1
 90
        3
176
     1
 90
        0
176
     1
 90
        0
176
     1
290
     0
176
     1
 90
       13
176
     1
 40
0.0
176
     1
 90
        0
176
     1
290
     0
176
     1
290
     1
176
     1
290
     1
176
     1
290
     0
176
     1
290
     0
176
     1
290
     0
176
     1
290
     0
176
     1
290
     0
176
     1
290
     0
176
     1
 90
       50
176
     1
 40
0.0
176
     1
 40
1.0
176
     1
 90
        0
176
     1
 62
    18
420
        0
176
     1
 90
       50
176
     1
 90
        3
176
     1
 62
     5
420
      255
176
     1
290
     0
176
     1
 90
       50
176
     1
 90
       50
176
     1
 90
       50
176
     1
290
     0
176
     1
 90
       50
176
     1
 62
   256
176
     0
 40
1.0
176
     0
 90
        2
176
     1
  1
strokes_ogs.tif
176
     1
290
     0
176
     1
 40
1.0
176
     1
 40
1.0
176
     1
  0
DICTIONARYVAR
  5
13B
102
{ACAD_REACTORS
330
136
102
}
330
136
100
DictionaryVariables
280
     0
  1
1:1
  0
DICTIONARYVAR
  5
138
102
{ACAD_REACTORS
330
136
102
}
330
136
100
DictionaryVariables
280
     0
  1
STANDARD
  0
DICTIONARYVAR
  5
137
102
{ACAD_REACTORS
330
136
102
}
330
136
100
DictionaryVariables
280
     0
  1
STANDARD
  0
DICTIONARYVAR
  5
139
102
{ACAD_REACTORS
330
136
102
}
330
136
100
DictionaryVariables
280
     0
  1
Imperial24
  0
DICTIONARYVAR
  5
13A
102
{ACAD_REACTORS
330
136
102
}
330
136
100
DictionaryVariables
280
     0
  1
Imperial24
  0
DICTIONARY
  5
1A
330
19
100
AcDbDictionary
280
     1
281
     1
  3
BUMPTILE
360
1C
  3
DIFFUSETILE
360
1B
  3
OPACITYTILE
360
1F
  3
REFLECTIONTILE
360
1E
  3
REFRACTIONTILE
360
20
  3
SPECULARTILE
360
1D
  0
DICTIONARY
  5
12
330
11
100
AcDbDictionary
280
     1
281
     1
  3
BUMPTILE
360
14
  3
DIFFUSETILE
360
13
  3
OPACITYTILE
360
17
  3
REFLECTIONTILE
360
16
  3
REFRACTIONTILE
360
18
  3
SPECULARTILE
360
15
  0
DICTIONARY
  5
22
330
21
100
AcDbDictionary
280
     1
281
     1
  3
BUMPTILE
360
24
  3
DIFFUSETILE
360
23
  3
OPACITYTILE
360
27
  3
REFLECTIONTILE
360
26
  3
REFRACTIONTILE
360
28
  3
SPECULARTILE
360
25
  0
DICTIONARY
  5
13C
330
65
100
AcDbDictionary
280
     1
281
     1
  3
ACAD_ROUNDTRIP_2008_TABLESTYLE_CELLSTYLEMAP
360
13D
  0
XRECORD
  5
1C
102
{ACAD_REACTORS
330
1A
102
}
330
1A
100
AcDbXrecord
280
     1
270
     1
271
     1
  0
XRECORD
  5
1B
102
{ACAD_REACTORS
330
1A
102
}
330
1A
100
AcDbXrecord
280
     1
270
     1
271
     1
  0
XRECORD
  5
1F
102
{ACAD_REACTORS
330
1A
102
}
330
1A
100
AcDbXrecord
280
     1
270
     1
271
     1
  0
XRECORD
  5
1E
102
{ACAD_REACTORS
330
1A
102
}
330
1A
100
AcDbXrecord
280
     1
270
     1
271
     1
  0
XRECORD
  5
20
102
{ACAD_REACTORS
330
1A
102
}
330
1A
100
AcDbXrecord
280
     1
270
     1
271
     1
  0
XRECORD
  5
1D
102
{ACAD_REACTORS
330
1A
102
}
330
1A
100
AcDbXrecord
280
     1
270
     1
271
     1
  0
XRECORD
  5
14
102
{ACAD_REACTORS
330
12
102
}
330
12
100
AcDbXrecord
280
     1
270
     1
271
     1
  0
XRECORD
  5
13
102
{ACAD_REACTORS
330
12
102
}
330
12
100
AcDbXrecord
280
     1
270
     1
271
     1
  0
XRECORD
  5
17
102
{ACAD_REACTORS
330
12
102
}
330
12
100
AcDbXrecord
280
     1
270
     1
271
     1
  0
XRECORD
  5
16
102
{ACAD_REACTORS
330
12
102
}
330
12
100
AcDbXrecord
280
     1
270
     1
271
     1
  0
XRECORD
  5
18
102
{ACAD_REACTORS
330
12
102
}
330
12
100
AcDbXrecord
280
     1
270
     1
271
     1
  0
XRECORD
  5
15
102
{ACAD_REACTORS
330
12
102
}
330
12
100
AcDbXrecord
280
     1
270
     1
271
     1
  0
XRECORD
  5
24
102
{ACAD_REACTORS
330
22
102
}
330
22
100
AcDbXrecord
280
     1
270
     1
271
     1
  0
XRECORD
  5
23
102
{ACAD_REACTORS
330
22
102
}
330
22
100
AcDbXrecord
280
     1
270
     1
271
     1
  0
XRECORD
  5
27
102
{ACAD_REACTORS
330
22
102
}
330
22
100
AcDbXrecord
280
     1
270
     1
271
     1
  0
XRECORD
  5
26
102
{ACAD_REACTORS
330
22
102
}
330
22
100
AcDbXrecord
280
     1
270
     1
271
     1
  0
XRECORD
  5
28
102
{ACAD_REACTORS
330
22
102
}
330
22
100
AcDbXrecord
280
     1
270
     1
271
     1
  0
XRECORD
  5
25
102
{ACAD_REACTORS
330
22
102
}
330
22
100
AcDbXrecord
280
     1
270
     1
271
     1
  0
CELLSTYLEMAP
  5
13D
102
{ACAD_REACTORS
330
13C
102
}
330
13C
100
AcDbCellStyleMap
 90
        3
300
CELLSTYLE
  1
TABLEFORMAT_BEGIN
 90
        5
170
     1
 91
        0
 92
    32768
 62
   257
 93
        1
300
CONTENTFORMAT
  1
CONTENTFORMAT_BEGIN
 90
        0
 91
        0
 92
      512
 93
        0
300

 40
0.0
140
1.0
 94
        5
 62
     0
340
55
144
0.25
309
CONTENTFORMAT_END
171
     0
 94
        0
309
TABLEFORMAT_END
  1
CELLSTYLE_BEGIN
 90
        1
 91
        1
300
_TITLE
309
CELLSTYLE_END
300
CELLSTYLE
  1
TABLEFORMAT_BEGIN
 90
        5
170
     1
 91
        0
 92
        0
 62
   257
 93
        1
300
CONTENTFORMAT
  1
CONTENTFORMAT_BEGIN
 90
        0
 91
        0
 92
      512
 93
        0
300

 40
0.0
140
1.0
 94
        5
 62
     0
340
55
144
0.18
309
CONTENTFORMAT_END
171
     0
 94
        0
309
TABLEFORMAT_END
  1
CELLSTYLE_BEGIN
 90
        2
 91
        1
300
_HEADER
309
CELLSTYLE_END
300
CELLSTYLE
  1
TABLEFORMAT_BEGIN
 90
        5
170
     1
 91
        0
 92
        0
 62
   257
 93
        1
300
CONTENTFORMAT
  1
CONTENTFORMAT_BEGIN
 90
        0
 91
        0
 92
      512
 93
        0
300

 40
0.0
140
1.0
 94
        2
 62
     0
340
55
144
0.18
309
CONTENTFORMAT_END
171
     0
 94
        0
309
TABLEFORMAT_END
  1
CELLSTYLE_BEGIN
 90
        3
 91
        2
300
_DATA
309
CELLSTYLE_END
  0
ENDSEC
  0
EOF
