  0
SECTION
  2
HEADER
  9
$ACADVER
  1
AC1032
  9
$ACADMAINTVER
 90
      228
  9
$DWGCODEPAGE
  3
ANSI_932
  9
$REQUIREDVERSIONS
160
                 0
  9
$INSBASE
 10
0.0
 20
0.0
 30
0.0
  9
$EXTMIN
 10
1.000000000000000E+20
 20
1.000000000000000E+20
 30
1.000000000000000E+20
  9
$EXTMAX
 10
-1.000000000000000E+20
 20
-1.000000000000000E+20
 30
-1.000000000000000E+20
  9
$LIMMIN
 10
0.0
 20
0.0
  9
$LIMMAX
 10
12.0
 20
9.0
  9
$ORTHOMODE
 70
     0
  9
$REGENMODE
 70
     1
  9
$FILLMODE
 70
     1
  9
$QTEXTMODE
 70
     0
  9
$MIRRTEXT
 70
     0
  9
$LTSCALE
 40
1.0
  9
$ATTMODE
 70
     1
  9
$TEXTSIZE
 40
0.2
  9
$TRACEWID
 40
0.05
  9
$TEXTSTYLE
  7
Standard
  9
$CLAYER
  8
0
  9
$CELTYPE
  6
ByLayer
  9
$CECOLOR
 62
   256
  9
$CELTSCALE
 40
1.0
  9
$DISPSILH
 70
     0
  9
$DIMSCALE
 40
1.0
  9
$DIMASZ
 40
0.18
  9
$DIMEXO
 40
0.0625
  9
$DIMDLI
 40
0.38
  9
$DIMRND
 40
0.0
  9
$DIMDLE
 40
0.0
  9
$DIMEXE
 40
0.18
  9
$DIMTP
 40
0.0
  9
$DIMTM
 40
0.0
  9
$DIMTXT
 40
0.18
  9
$DIMCEN
 40
0.09
  9
$DIMTSZ
 40
0.0
  9
$DIMTOL
 70
     0
  9
$DIMLIM
 70
     0
  9
$DIMTIH
 70
     1
  9
$DIMTOH
 70
     1
  9
$DIMSE1
 70
     0
  9
$DIMSE2
 70
     0
  9
$DIMTAD
 70
     0
  9
$DIMZIN
 70
     0
  9
$DIMBLK
  1

  9
$DIMASO
 70
     1
  9
$DIMSHO
 70
     1
  9
$DIMPOST
  1

  9
$DIMAPOST
  1

  9
$DIMALT
 70
     0
  9
$DIMALTD
 70
     2
  9
$DIMALTF
 40
25.4
  9
$DIMLFAC
 40
1.0
  9
$DIMTOFL
 70
     0
  9
$DIMTVP
 40
0.0
  9
$DIMTIX
 70
     0
  9
$DIMSOXD
 70
     0
  9
$DIMSAH
 70
     0
  9
$DIMBLK1
  1

  9
$DIMBLK2
  1

  9
$DIMSTYLE
  2
Standard
  9
$DIMCLRD
 70
     0
  9
$DIMCLRE
 70
     0
  9
$DIMCLRT
 70
     0
  9
$DIMTFAC
 40
1.0
  9
$DIMGAP
 40
0.09
  9
$DIMJUST
 70
     0
  9
$DIMSD1
 70
     0
  9
$DIMSD2
 70
     0
  9
$DIMTOLJ
 70
     1
  9
$DIMTZIN
 70
     0
  9
$DIMALTZ
 70
     0
  9
$DIMALTTZ
 70
     0
  9
$DIMUPT
 70
     0
  9
$DIMDEC
 70
     4
  9
$DIMTDEC
 70
     4
  9
$DIMALTU
 70
     2
  9
$DIMALTTD
 70
     2
  9
$DIMTXSTY
  7
Standard
  9
$DIMAUNIT
 70
     0
  9
$DIMADEC
 70
     0
  9
$DIMALTRND
 40
0.0
  9
$DIMAZIN
 70
     0
  9
$DIMDSEP
 70
    46
  9
$DIMATFIT
 70
     3
  9
$DIMFRAC
 70
     0
  9
$DIMLDRBLK
  1

  9
$DIMLUNIT
 70
     2
  9
$DIMLWD
 70
    -2
  9
$DIMLWE
 70
    -2
  9
$DIMTMOVE
 70
     0
  9
$DIMFXL
 40
1.0
  9
$DIMFXLON
 70
     0
  9
$DIMJOGANG
 40
0.7853981633974483
  9
$DIMTFILL
 70
     0
  9
$DIMTFILLCLR
 70
     0
  9
$DIMARCSYM
 70
     0
  9
$DIMLTYPE
  6

  9
$DIMLTEX1
  6

  9
$DIMLTEX2
  6

  9
$DIMTXTDIRECTION
 70
     0
  9
$LUNITS
 70
     2
  9
$LUPREC
 70
     4
  9
$SKETCHINC
 40
0.1
  9
$FILLETRAD
 40
0.0
  9
$AUNITS
 70
     0
  9
$AUPREC
 70
     0
  9
$MENU
  1
.
  9
$ELEVATION
 40
0.0
  9
$PELEVATION
 40
0.0
  9
$THICKNESS
 40
0.0
  9
$LIMCHECK
 70
     0
  9
$CHAMFERA
 40
0.0
  9
$CHAMFERB
 40
0.0
  9
$CHAMFERC
 40
0.0
  9
$CHAMFERD
 40
0.0
  9
$SKPOLY
 70
     0
  9
$TDCREATE
 40
2460187.869791667
  9
$TDUCREATE
 40
2460187.494791667
  9
$TDUPDATE
 40
2460187.869791667
  9
$TDUUPDATE
 40
2460187.494791667
  9
$TDINDWG
 40
0.0000115741
  9
$TDUSRTIMER
 40
0.0000115741
  9
$USRTIMER
 70
     1
  9
$ANGBASE
 50
0.0
  9
$ANGDIR
 70
     0
  9
$PDMODE
 70
     0
  9
$PDSIZE
 40
0.0
  9
$PLINEWID
 40
0.0
  9
$SPLFRAME
 70
     0
  9
$SPLINETYPE
 70
     6
  9
$SPLINESEGS
 70
     8
  9
$HANDSEED
  5
E4
  9
$SURFTAB1
 70
     6
  9
$SURFTAB2
 70
     6
  9
$SURFTYPE
 70
     6
  9
$SURFU
 70
     6
  9
$SURFV
 70
     6
  9
$UCSBASE
  2

  9
$UCSNAME
  2

  9
$UCSORG
 10
0.0
 20
0.0
 30
0.0
  9
$UCSXDIR
 10
1.0
 20
0.0
 30
0.0
  9
$UCSYDIR
 10
0.0
 20
1.0
 30
0.0
  9
$UCSORTHOREF
  2

  9
$UCSORTHOVIEW
 70
     0
  9
$UCSORGTOP
 10
0.0
 20
0.0
 30
0.0
  9
$UCSORGBOTTOM
 10
0.0
 20
0.0
 30
0.0
  9
$UCSORGLEFT
 10
0.0
 20
0.0
 30
0.0
  9
$UCSORGRIGHT
 10
0.0
 20
0.0
 30
0.0
  9
$UCSORGFRONT
 10
0.0
 20
0.0
 30
0.0
  9
$UCSORGBACK
 10
0.0
 20
0.0
 30
0.0
  9
$PUCSBASE
  2

  9
$PUCSNAME
  2

  9
$PUCSORG
 10
0.0
 20
0.0
 30
0.0
  9
$PUCSXDIR
 10
1.0
 20
0.0
 30
0.0
  9
$PUCSYDIR
 10
0.0
 20
1.0
 30
0.0
  9
$PUCSORTHOREF
  2

  9
$PUCSORTHOVIEW
 70
     0
  9
$PUCSORGTOP
 10
0.0
 20
0.0
 30
0.0
  9
$PUCSORGBOTTOM
 10
0.0
 20
0.0
 30
0.0
  9
$PUCSORGLEFT
 10
0.0
 20
0.0
 30
0.0
  9
$PUCSORGRIGHT
 10
0.0
 20
0.0
 30
0.0
  9
$PUCSORGFRONT
 10
0.0
 20
0.0
 30
0.0
  9
$PUCSORGBACK
 10
0.0
 20
0.0
 30
0.0
  9
$USERI1
 70
     0
  9
$USERI2
 70
     0
  9
$USERI3
 70
     0
  9
$USERI4
 70
     0
  9
$USERI5
 70
     0
  9
$USERR1
 40
0.0
  9
$USERR2
 40
0.0
  9
$USERR3
 40
0.0
  9
$USERR4
 40
0.0
  9
$USERR5
 40
0.0
  9
$WORLDVIEW
 70
     1
  9
$SHADEDGE
 70
     3
  9
$SHADEDIF
 70
    70
  9
$TILEMODE
 70
     1
  9
$MAXACTVP
 70
    64
  9
$PINSBASE
 10
0.0
 20
0.0
 30
0.0
  9
$PLIMCHECK
 70
     0
  9
$PEXTMIN
 10
1.000000000000000E+20
 20
1.000000000000000E+20
 30
1.000000000000000E+20
  9
$PEXTMAX
 10
-1.000000000000000E+20
 20
-1.000000000000000E+20
 30
-1.000000000000000E+20
  9
$PLIMMIN
 10
0.0
 20
0.0
  9
$PLIMMAX
 10
12.0
 20
9.0
  9
$UNITMODE
 70
     0
  9
$VISRETAIN
 70
     1
  9
$PLINEGEN
 70
     0
  9
$PSLTSCALE
 70
     1
  9
$TREEDEPTH
 70
  3020
  9
$CMLSTYLE
  2
Standard
  9
$CMLJUST
 70
     0
  9
$CMLSCALE
 40
1.0
  9
$PROXYGRAPHICS
 70
     1
  9
$MEASUREMENT
 70
     0
  9
$CELWEIGHT
370
    -1
  9
$ENDCAPS
280
     0
  9
$JOINSTYLE
280
     0
  9
$LWDISPLAY
290
     1
  9
$INSUNITS
 70
     4
  9
$HYPERLINKBASE
  1

  9
$STYLESHEET
  1

  9
$XEDIT
290
     1
  9
$CEPSNTYPE
380
     0
  9
$PSTYLEMODE
290
     1
  9
$FINGERPRINTGUID
  2
{666FEB0F-8DE0-584D-B5BC-FF5B94468474}
  9
$VERSIONGUID
  2
{1BFE7425-25EE-1B4A-8342-F1AB871707FD}
  9
$EXTNAMES
290
     1
  9
$PSVPSCALE
 40
0.0
  9
$OLESTARTUP
290
     0
  9
$SORTENTS
280
   127
  9
$INDEXCTL
280
     0
  9
$HIDETEXT
280
     1
  9
$XCLIPFRAME
280
     2
  9
$HALOGAP
280
     0
  9
$OBSCOLOR
 70
   257
  9
$OBSLTYPE
280
     0
  9
$INTERSECTIONDISPLAY
280
     0
  9
$INTERSECTIONCOLOR
 70
   257
  9
$DIMASSOC
280
     2
  9
$PROJECTNAME
  1

  9
$CAMERADISPLAY
290
     0
  9
$LENSLENGTH
 40
50.0
  9
$CAMERAHEIGHT
 40
0.0
  9
$STEPSPERSEC
 40
2.0
  9
$STEPSIZE
 40
6.0
  9
$3DDWFPREC
 40
2.0
  9
$PSOLWIDTH
 40
0.25
  9
$PSOLHEIGHT
 40
4.0
  9
$LOFTANG1
 40
1.570796326794896
  9
$LOFTANG2
 40
1.570796326794896
  9
$LOFTMAG1
 40
0.0
  9
$LOFTMAG2
 40
0.0
  9
$LOFTPARAM
 70
     7
  9
$LOFTNORMALS
280
     1
  9
$LATITUDE
 40
37.795
  9
$LONGITUDE
 40
-122.394
  9
$NORTHDIRECTION
 40
0.0
  9
$TIMEZONE
 70
 -8000
  9
$LIGHTGLYPHDISPLAY
280
     1
  9
$TILEMODELIGHTSYNCH
280
     1
  9
$CMATERIAL
347
11
  9
$SOLIDHIST
280
     0
  9
$SHOWHIST
280
     1
  9
$DWFFRAME
280
     2
  9
$DGNFRAME
280
     0
  9
$REALWORLDSCALE
290
     1
  9
$INTERFERECOLOR
 62
     1
  9
$INTERFEREOBJVS
345
33
  9
$INTERFEREVPVS
346
30
  9
$CSHADOW
280
     0
  9
$SHADOWPLANELOCATION
 40
0.0
  0
ENDSEC
  0
SECTION
  2
CLASSES
  0
CLASS
  1
ACDBDICTIONARYWDFLT
  2
AcDbDictionaryWithDefault
  3
ObjectDBX Classes
 90
        0
 91
        1
280
     0
281
     0
  0
CLASS
  1
MATERIAL
  2
AcDbMaterial
  3
ObjectDBX Classes
 90
     1153
 91
        3
280
     0
281
     0
  0
CLASS
  1
VISUALSTYLE
  2
AcDbVisualStyle
  3
ObjectDBX Classes
 90
     4095
 91
       24
280
     0
281
     0
  0
CLASS
  1
SCALE
  2
AcDbScale
  3
ObjectDBX Classes
 90
     1153
 91
       17
280
     0
281
     0
  0
CLASS
  1
TABLESTYLE
  2
AcDbTableStyle
  3
ObjectDBX Classes
 90
     4095
 91
        1
280
     0
281
     0
  0
CLASS
  1
MLEADERSTYLE
  2
AcDbMLeaderStyle
  3
ACDB_MLEADERSTYLE_CLASS
 90
     4095
 91
        1
280
     0
281
     0
  0
CLASS
  1
ACDBSECTIONVIEWSTYLE
  2
AcDbSectionViewStyle
  3
ObjectDBX Classes
 90
     1025
 91
        1
280
     0
281
     0
  0
CLASS
  1
ACDBDETAILVIEWSTYLE
  2
AcDbDetailViewStyle
  3
ObjectDBX Classes
 90
     1025
 91
        1
280
     0
281
     0
  0
CLASS
  1
DICTIONARYVAR
  2
AcDbDictionaryVar
  3
ObjectDBX Classes
 90
        0
 91
        5
280
     0
281
     0
  0
CLASS
  1
CELLSTYLEMAP
  2
AcDbCellStyleMap
  3
ObjectDBX Classes
 90
     1152
 91
        1
280
     0
281
     0
  0
ENDSEC
  0
SECTION
  2
TABLES
  0
TABLE
  2
VPORT
  5
8
330
0
100
AcDbSymbolTable
 70
     1
  0
VPORT
  5
57
330
8
100
AcDbSymbolTableRecord
100
AcDbViewportTableRecord
  2
*Active
 70
     0
 10
0.0
 20
0.0
 11
1.0
 21
1.0
 12
0.0
 22
0.0
 13
0.0
 23
0.0
 14
1.0
 24
1.0
 15
0.0
 25
0.0
 16
0.0
 26
0.0
 36
1.0
 17
148.5000119155985
 27
-104.9999970067687
 37
0.0
 40
214.1999938938081
 41
1.414285868084602
 42
50.0
 43
0.0
 44
0.0
 50
0.0
 51
0.0
 71
     0
 72
   100
 73
     1
 74
     1
 75
     0
 76
     0
 77
     0
 78
     0
281
     0
 65
     1
110
0.0
120
0.0
130
0.0
111
1.0
121
0.0
131
0.0
112
0.0
122
1.0
132
0.0
 79
     0
146
0.0
 60
     3
 61
     5
292
     1
282
     1
141
0.0
142
0.0
 63
   250
421
  3355443
  0
ENDTAB
  0
TABLE
  2
LTYPE
  5
5
330
0
100
AcDbSymbolTable
 70
     1
  0
LTYPE
  5
5B
330
5
100
AcDbSymbolTableRecord
100
AcDbLinetypeTableRecord
  2
ByBlock
 70
     0
  3

 72
    65
 73
     0
 40
0.0
  0
LTYPE
  5
5C
330
5
100
AcDbSymbolTableRecord
100
AcDbLinetypeTableRecord
  2
ByLayer
 70
     0
  3

 72
    65
 73
     0
 40
0.0
  0
LTYPE
  5
5D
330
5
100
AcDbSymbolTableRecord
100
AcDbLinetypeTableRecord
  2
Continuous
 70
     0
  3
Solid line
 72
    65
 73
     0
 40
0.0
  0
ENDTAB
  0
TABLE
  2
LAYER
  5
2
330
0
100
AcDbSymbolTable
 70
     2
  0
LAYER
  5
54
330
2
100
AcDbSymbolTableRecord
100
AcDbLayerTableRecord
  2
0
 70
     0
 62
     7
  6
Continuous
370
    -3
390
F
347
21
348
0
  0
LAYER
  5
78
330
2
100
AcDbSymbolTableRecord
100
AcDbLayerTableRecord
  2
レイヤー 1
 70
     0
 62
     7
  6
Continuous
370
     0
390
F
347
21
348
0
  0
ENDTAB
  0
TABLE
  2
STYLE
  5
3
330
0
100
AcDbSymbolTable
 70
     2
  0
STYLE
  5
55
330
3
100
AcDbSymbolTableRecord
100
AcDbTextStyleTableRecord
  2
Standard
 70
     0
 40
0.0
 41
1.0
 50
0.0
 71
     0
 42
0.2
  3
txt
  4

  0
STYLE
  5
5A
330
3
100
AcDbSymbolTableRecord
100
AcDbTextStyleTableRecord
  2
Annotative
 70
     0
 40
0.0
 41
1.0
 50
0.0
 71
     0
 42
0.2
  3
txt
  4

1001
AcadAnnotative
1000
AnnotativeData
1002
{
1070
     1
1070
     1
1002
}
  0
ENDTAB
  0
TABLE
  2
VIEW
  5
6
330
0
100
AcDbSymbolTable
 70
     0
  0
ENDTAB
  0
TABLE
  2
UCS
  5
7
330
0
100
AcDbSymbolTable
 70
     0
  0
ENDTAB
  0
TABLE
  2
APPID
  5
9
330
0
100
AcDbSymbolTable
 70
     2
  0
APPID
  5
56
330
9
100
AcDbSymbolTableRecord
100
AcDbRegAppTableRecord
  2
ACAD
 70
     0
  0
APPID
  5
5E
330
9
100
AcDbSymbolTableRecord
100
AcDbRegAppTableRecord
  2
AcadAnnotative
 70
     0
  0
ENDTAB
  0
TABLE
  2
DIMSTYLE
  5
A
330
0
100
AcDbSymbolTable
 70
     2
100
AcDbDimStyleTable
 71
     0
  0
DIMSTYLE
105
58
330
A
100
AcDbSymbolTableRecord
100
AcDbDimStyleTableRecord
  2
Standard
 70
     0
340
55
  0
DIMSTYLE
105
59
330
A
100
AcDbSymbolTableRecord
100
AcDbDimStyleTableRecord
  2
Annotative
 70
     0
340
55
1001
AcadAnnotative
1000
AnnotativeData
1002
{
1070
     1
1070
     1
1002
}
  0
ENDTAB
  0
TABLE
  2
BLOCK_RECORD
  5
1
330
0
100
AcDbSymbolTable
 70
     2
  0
BLOCK_RECORD
  5
70
330
1
100
AcDbSymbolTableRecord
100
AcDbBlockTableRecord
  2
*Model_Space
340
73
 70
     0
280
     1
281
     0
  0
BLOCK_RECORD
  5
6C
330
1
100
AcDbSymbolTableRecord
100
AcDbBlockTableRecord
  2
*Paper_Space
340
6F
 70
     0
280
     1
281
     0
  0
BLOCK_RECORD
  5
74
330
1
100
AcDbSymbolTableRecord
100
AcDbBlockTableRecord
  2
*Paper_Space0
340
77
 70
     0
280
     1
281
     0
  0
BLOCK_RECORD
  5
79
330
1
100
AcDbSymbolTableRecord
100
AcDbBlockTableRecord
  2
Block_0
340
0
102
{BLKREFS
331
7A
102
}
 70
     0
280
     1
281
     0
  0
ENDTAB
  0
ENDSEC
  0
SECTION
  2
BLOCKS
  0
BLOCK
  5
71
330
70
100
AcDbEntity
  8
0
100
AcDbBlockBegin
  2
*Model_Space
 70
     0
 10
0.0
 20
0.0
 30
0.0
  3
*Model_Space
  1

  0
ENDBLK
  5
72
330
70
100
AcDbEntity
  8
0
100
AcDbBlockEnd
  0
BLOCK
  5
6D
330
6C
100
AcDbEntity
 67
     1
  8
0
100
AcDbBlockBegin
  2
*Paper_Space
 70
     0
 10
0.0
 20
0.0
 30
0.0
  3
*Paper_Space
  1

  0
ENDBLK
  5
6E
330
6C
100
AcDbEntity
 67
     1
  8
0
100
AcDbBlockEnd
  0
BLOCK
  5
75
330
74
100
AcDbEntity
 67
     1
  8
0
100
AcDbBlockBegin
  2
*Paper_Space0
 70
     0
 10
0.0
 20
0.0
 30
0.0
  3
*Paper_Space0
  1

  0
ENDBLK
  5
76
330
74
100
AcDbEntity
 67
     1
  8
0
100
AcDbBlockEnd
  0
BLOCK
  5
7B
330
79
100
AcDbEntity
  8
0
100
AcDbBlockBegin
  2
Block_0
 70
     0
 10
0.0
 20
0.0
 30
0.0
  3
Block_0
  1

  0
SPLINE
  5
7D
330
79
100
AcDbEntity
  8
レイヤー 1
 62
   250
420
  2299925
370
    18
100
AcDbSpline
210
0.0
220
0.0
230
1.0
 70
     9
 71
     3
 72
    29
 73
    25
 74
     0
 42
0.0000000001
 43
0.0000000001
 40
0.0
 40
0.0
 40
0.0
 40
0.0
 40
1.0
 40
1.0
 40
1.0
 40
2.0
 40
2.0
 40
2.0
 40
3.0
 40
3.0
 40
3.0
 40
4.0
 40
4.0
 40
4.0
 40
5.0
 40
5.0
 40
5.0
 40
6.0
 40
6.0
 40
6.0
 40
7.0
 40
7.0
 40
7.0
 40
8.0
 40
8.0
 40
8.0
 40
8.0
 10
86.88430489496971
 20
-79.14220650898968
 30
0.0
 10
86.88430489496971
 20
-79.14220650898968
 30
0.0
 10
153.4495252173107
 20
-83.40424040622888
 30
0.0
 10
153.4495252173107
 20
-83.40424040622888
 30
0.0
 10
153.4495252173107
 20
-83.40424040622888
 30
0.0
 10
155.3093218270157
 20
-83.48173193163333
 30
0.0
 10
155.2318303016109
 20
-85.72898616835994
 30
0.0
 10
155.2318303016109
 20
-85.72898616835994
 30
0.0
 10
153.2170506410976
 20
-133.9287149698681
 30
0.0
 10
153.2170506410976
 20
-133.9287149698681
 30
0.0
 10
153.2170506410976
 20
-133.9287149698681
 30
0.0
 10
152.7110657872772
 20
-136.2534607319991
 30
0.0
 10
149.1282277066716
 20
-136.0984776811902
 30
0.0
 10
149.1282277066716
 20
-136.0984776811902
 30
0.0
 10
86.88430489496971
 20
-119.4377997192541
 30
0.0
 10
86.88430489496971
 20
-119.4377997192541
 30
0.0
 10
86.88430489496971
 20
-119.4377997192541
 30
0.0
 10
85.95440659011627
 20
-119.2828166684446
 30
0.0
 10
85.87691506471214
 20
-118.2754268381883
 30
0.0
 10
85.87691506471214
 20
-118.2754268381883
 30
0.0
 10
85.87691506471214
 20
-80.61454549167143
 30
0.0
 10
85.87691506471214
 20
-80.61454549167143
 30
0.0
 10
85.87691506471214
 20
-80.61454549167143
 30
0.0
 10
85.64444048850068
 20
-79.60715566141672
 30
0.0
 10
86.88430489496971
 20
-79.14220650898968
 30
0.0
  0
SPLINE
  5
7E
330
79
100
AcDbEntity
  8
レイヤー 1
 62
   250
420
  2299925
370
    18
100
AcDbSpline
210
0.0
220
0.0
230
1.0
 70
     9
 71
     3
 72
    29
 73
    25
 74
     0
 42
0.0000000001
 43
0.0000000001
 40
0.0
 40
0.0
 40
0.0
 40
0.0
 40
1.0
 40
1.0
 40
1.0
 40
2.0
 40
2.0
 40
2.0
 40
3.0
 40
3.0
 40
3.0
 40
4.0
 40
4.0
 40
4.0
 40
5.0
 40
5.0
 40
5.0
 40
6.0
 40
6.0
 40
6.0
 40
7.0
 40
7.0
 40
7.0
 40
8.0
 40
8.0
 40
8.0
 40
8.0
 10
87.03928794577766
 20
-80.14959633924533
 30
0.0
 10
87.03928794577766
 20
-80.14959633924533
 30
0.0
 10
150.9697964043714
 20
-84.10166413486704
 30
0.0
 10
150.9697964043714
 20
-84.10166413486704
 30
0.0
 10
150.9697964043714
 20
-84.10166413486704
 30
0.0
 10
151.4347455567981
 20
-84.33413871108008
 30
0.0
 10
151.5122370822022
 20
-84.87657938891061
 30
0.0
 10
151.5122370822022
 20
-84.87657938891061
 30
0.0
 10
150.0398980995198
 20
-133.6187488682503
 30
0.0
 10
150.0398980995198
 20
-133.6187488682503
 30
0.0
 10
150.0398980995198
 20
-133.6187488682503
 30
0.0
 10
149.8849150487116
 20
-134.3936641222935
 30
0.0
 10
148.5675591168371
 20
-134.3936641222935
 30
0.0
 10
148.5675591168371
 20
-134.3936641222935
 30
0.0
 10
87.42674557280023
 20
-118.5853929398061
 30
0.0
 10
87.42674557280023
 20
-118.5853929398061
 30
0.0
 10
87.42674557280023
 20
-118.5853929398061
 30
0.0
 10
86.72932184416048
 20
-118.2754268381883
 30
0.0
 10
86.49684726794776
 20
-117.500511584145
 30
0.0
 10
86.49684726794776
 20
-117.500511584145
 30
0.0
 10
86.49684726794776
 20
-81.23447769490672
 30
0.0
 10
86.49684726794776
 20
-81.23447769490672
 30
0.0
 10
86.49684726794776
 20
-81.23447769490672
 30
0.0
 10
86.49891230675278
 20
-80.11619129974214
 30
0.0
 10
87.03928794577766
 20
-80.14959633924533
 30
0.0
  0
CIRCLE
  5
7F
330
79
100
AcDbEntity
  8
レイヤー 1
 62
   250
420
  2299925
370
    18
100
AcDbCircle
 10
90.93323709727632
 20
-82.64869803360427
 30
0.0
 40
1.026762711606409
  0
CIRCLE
  5
80
330
79
100
AcDbEntity
  8
レイヤー 1
 62
   250
420
  2299925
370
    18
100
AcDbCircle
 10
103.0945633654186
 20
-83.59312599952273
 30
0.0
 40
0.9444279658547316
  0
CIRCLE
  5
81
330
79
100
AcDbEntity
  8
レイヤー 1
 62
   250
420
  2299925
370
    18
100
AcDbCircle
 10
114.8115241675427
 20
-84.70827748233892
 30
0.0
 40
1.115151482741221
  0
CIRCLE
  5
82
330
79
100
AcDbEntity
  8
レイヤー 1
 62
   250
420
  2299925
370
    18
100
AcDbCircle
 10
128.0395697150779
 20
-85.62970015164452
 30
0.0
 40
1.09214618612985
  0
CIRCLE
  5
83
330
79
100
AcDbEntity
  8
レイヤー 1
 62
   250
420
  2299925
370
    18
100
AcDbCircle
 10
142.7805162156105
 20
-86.89438606238514
 30
0.0
 40
1.264685910655432
  0
CIRCLE
  5
84
330
79
100
AcDbEntity
  8
レイヤー 1
 62
   250
420
  2299925
370
    18
100
AcDbCircle
 10
148.9356438624263
 20
-100.6654776901428
 30
0.0
 40
1.297983050529458
  0
CIRCLE
  5
85
330
79
100
AcDbEntity
  8
レイヤー 1
 62
   250
420
  2299925
370
    18
100
AcDbCircle
 10
147.9567408696041
 20
-119.1369475737963
 30
0.0
 40
1.171486837146494
  0
ELLIPSE
  5
86
330
79
100
AcDbEntity
  8
レイヤー 1
 62
   250
420
  2299925
370
    18
100
AcDbEllipse
 10
87.6592201490129
 20
-92.58698616664466
 30
0.0
 11
0.0000000000000001
 21
1.123627118363139
 31
0.0
210
0.0
220
0.0
230
1.0
 40
0.5517241379311009
 41
0.0
 42
6.283185307179586
  0
ELLIPSE
  5
87
330
79
100
AcDbEntity
  8
レイヤー 1
 62
   250
420
  2299925
370
    18
100
AcDbEllipse
 10
87.6592201490129
 20
-107.1941387053654
 30
0.0
 11
0.0000000000000001
 21
1.084881355661394
 31
0.0
210
0.0
220
0.0
230
1.0
 40
0.571428571428413
 41
0.0
 42
6.283185307179586
  0
ELLIPSE
  5
88
330
79
100
AcDbEntity
  8
レイヤー 1
 62
   250
420
  2299925
370
    18
100
AcDbEllipse
 10
90.64264387708051
 20
-117.5392573468471
 30
0.0
 11
0.0000000000000001
 21
1.123627118363139
 31
0.0
210
0.0
220
0.0
230
1.0
 40
0.7241379310344853
 41
0.0
 42
6.283185307179586
  0
CIRCLE
  5
89
330
79
100
AcDbEntity
  8
レイヤー 1
 62
   250
420
  2299925
370
    18
100
AcDbCircle
 10
102.4601015011771
 20
-120.6001726003971
 30
0.0
 40
1.084881355666487
  0
CIRCLE
  5
8A
330
79
100
AcDbEntity
  8
レイヤー 1
 62
   250
420
  2299925
370
    18
100
AcDbCircle
 10
114.0644574304767
 20
-123.4479861590126
 30
0.0
 40
1.142999999720549
  0
CIRCLE
  5
8B
330
79
100
AcDbEntity
  8
レイヤー 1
 62
   250
420
  2299925
370
    18
100
AcDbCircle
 10
126.5405930205729
 20
-126.7801217513942
 30
0.0
 40
1.142999999716058
  0
CIRCLE
  5
8C
330
79
100
AcDbEntity
  8
レイヤー 1
 62
   250
420
  2299925
370
    18
100
AcDbCircle
 10
140.7796608136101
 20
-130.3253590386595
 30
0.0
 40
1.356101694578988
  0
SPLINE
  5
8D
330
79
100
AcDbEntity
  8
レイヤー 1
 62
   250
420
  2299925
370
    18
100
AcDbSpline
210
0.0
220
0.0
230
1.0
 70
     9
 71
     3
 72
    59
 73
    55
 74
     0
 42
0.0000000001
 43
0.0000000001
 40
0.0
 40
0.0
 40
0.0
 40
0.0
 40
1.0
 40
1.0
 40
1.0
 40
2.0
 40
2.0
 40
2.0
 40
3.0
 40
3.0
 40
3.0
 40
4.0
 40
4.0
 40
4.0
 40
5.0
 40
5.0
 40
5.0
 40
6.0
 40
6.0
 40
6.0
 40
7.0
 40
7.0
 40
7.0
 40
8.0
 40
8.0
 40
8.0
 40
9.0
 40
9.0
 40
9.0
 40
10.0
 40
10.0
 40
10.0
 40
11.0
 40
11.0
 40
11.0
 40
12.0
 40
12.0
 40
12.0
 40
13.0
 40
13.0
 40
13.0
 40
14.0
 40
14.0
 40
14.0
 40
15.0
 40
15.0
 40
15.0
 40
16.0
 40
16.0
 40
16.0
 40
17.0
 40
17.0
 40
17.0
 40
18.0
 40
18.0
 40
18.0
 40
18.0
 10
92.46369472408302
 20
-85.62970015164443
 30
0.0
 10
92.46369472408302
 20
-85.62970015164443
 30
0.0
 10
142.1357625080977
 20
-89.68105396398067
 30
0.0
 10
142.1357625080977
 20
-89.68105396398067
 30
0.0
 10
142.1357625080977
 20
-89.68105396398067
 30
0.0
 10
146.0103387784934
 20
-90.06851159100358
 30
0.0
 10
146.0878303038975
 20
-92.58698616664466
 30
0.0
 10
146.0878303038975
 20
-92.58698616664466
 30
0.0
 10
146.0878303038975
 20
-100.6654776901429
 30
0.0
 10
146.0878303038975
 20
-100.6654776901429
 30
0.0
 10
146.0878303038975
 20
-100.6654776901429
 30
0.0
 10
148.6625445123808
 20
-103.8357040284834
 30
0.0
 10
148.6625445123808
 20
-103.8357040284834
 30
0.0
 10
148.8395091174656
 20
-104.053599222499
 30
0.0
 10
148.9384927866925
 20
-104.3244330721095
 30
0.0
 10
148.9437370795635
 20
-104.6050881707986
 30
0.0
 10
148.9437370795635
 20
-104.6050881707986
 30
0.0
 10
149.117433842658
 20
-113.9006945354563
 30
0.0
 10
149.117433842658
 20
-113.9006945354563
 30
0.0
 10
149.1243445011257
 20
-114.2705273388348
 30
0.0
 10
148.9839184545157
 20
-114.6279311679486
 30
0.0
 10
148.7271017746984
 20
-114.8941439637018
 30
0.0
 10
148.7271017746984
 20
-114.8941439637018
 30
0.0
 10
145.390406575258
 20
-118.3529183635917
 30
0.0
 10
145.390406575258
 20
-118.3529183635917
 30
0.0
 10
145.390406575258
 20
-118.3529183635917
 30
0.0
 10
145.390406575258
 20
-125.0946810737712
 30
0.0
 10
145.390406575258
 20
-125.0946810737712
 30
0.0
 10
145.390406575258
 20
-125.0946810737712
 30
0.0
 10
144.7704743720231
 20
-127.9618675140463
 30
0.0
 10
141.8257964066576
 20
-127.9231217511876
 30
0.0
 10
141.8257964066576
 20
-127.9231217511876
 30
0.0
 10
91.45630489382639
 20
-115.7956980252483
 30
0.0
 10
91.45630489382639
 20
-115.7956980252483
 30
0.0
 10
91.45630489382639
 20
-115.7956980252483
 30
0.0
 10
89.36403370790872
 20
-115.8731895506531
 30
0.0
 10
88.97657608088708
 20
-113.0834946360959
 30
0.0
 10
88.97657608088708
 20
-113.0834946360959
 30
0.0
 10
88.97657608088708
 20
-106.1092573497047
 30
0.0
 10
88.97657608088708
 20
-106.1092573497047
 30
0.0
 10
88.97657608088708
 20
-106.1092573497047
 30
0.0
 10
87.03928794577798
 20
-103.2420709097428
 30
0.0
 10
87.03928794577798
 20
-103.2420709097428
 30
0.0
 10
87.03928794577798
 20
-103.2420709097428
 30
0.0
 10
87.03928794577798
 20
-96.34532514875473
 30
0.0
 10
87.03928794577798
 20
-96.34532514875473
 30
0.0
 10
87.03928794577798
 20
-96.34532514875473
 30
0.0
 10
89.8289828603348
 20
-93.16817260717597
 30
0.0
 10
89.8289828603348
 20
-93.16817260717597
 30
0.0
 10
89.8289828603348
 20
-93.16817260717597
 30
0.0
 10
89.90647438573892
 20
-86.72184633784809
 30
0.0
 10
89.90647438573892
 20
-86.72184633784809
 30
0.0
 10
89.90647438573892
 20
-86.72184633784809
 30
0.0
 10
90.35209126215692
 20
-85.45747352373762
 30
0.0
 10
92.46369472408302
 20
-85.62970015164443
 30
0.0
  0
SPLINE
  5
8E
330
79
100
AcDbEntity
  8
レイヤー 1
 62
   250
420
  2299925
370
    18
100
AcDbSpline
210
0.0
220
0.0
230
1.0
 70
     9
 71
     3
 72
    65
 73
    61
 74
     0
 42
0.0000000001
 43
0.0000000001
 40
0.0
 40
0.0
 40
0.0
 40
0.0
 40
1.0
 40
1.0
 40
1.0
 40
2.0
 40
2.0
 40
2.0
 40
3.0
 40
3.0
 40
3.0
 40
4.0
 40
4.0
 40
4.0
 40
5.0
 40
5.0
 40
5.0
 40
6.0
 40
6.0
 40
6.0
 40
7.0
 40
7.0
 40
7.0
 40
8.0
 40
8.0
 40
8.0
 40
9.0
 40
9.0
 40
9.0
 40
10.0
 40
10.0
 40
10.0
 40
11.0
 40
11.0
 40
11.0
 40
12.0
 40
12.0
 40
12.0
 40
13.0
 40
13.0
 40
13.0
 40
14.0
 40
14.0
 40
14.0
 40
15.0
 40
15.0
 40
15.0
 40
16.0
 40
16.0
 40
16.0
 40
17.0
 40
17.0
 40
17.0
 40
18.0
 40
18.0
 40
18.0
 40
19.0
 40
19.0
 40
19.0
 40
20.0
 40
20.0
 40
20.0
 40
20.0
 10
147.6376608119843
 20
-113.7095832931279
 30
0.0
 10
147.6376608119843
 20
-113.7095832931279
 30
0.0
 10
147.6376608119843
 20
-105.5301184722705
 30
0.0
 10
147.6376608119843
 20
-105.5301184722705
 30
0.0
 10
147.6376608119843
 20
-105.2525248083855
 30
0.0
 10
147.5453344819691
 20
-104.9828151465322
 30
0.0
 10
147.3752185559335
 20
-104.7634551366439
 30
0.0
 10
147.3752185559335
 20
-104.7634551366439
 30
0.0
 10
145.0123813357183
 20
-101.7166387211027
 30
0.0
 10
145.0123813357183
 20
-101.7166387211027
 30
0.0
 10
144.8057489860561
 20
-101.4501917439061
 30
0.0
 10
144.696982136268
 20
-101.1208154508209
 30
0.0
 10
144.7043104231202
 20
-100.7837142556349
 30
0.0
 10
144.7043104231202
 20
-100.7837142556349
 30
0.0
 10
144.8479658974288
 20
-94.17556243743195
 30
0.0
 10
144.8479658974288
 20
-94.17556243743195
 30
0.0
 10
144.7712879313465
 20
-91.98796247370024
 30
0.0
 10
142.7971862367476
 20
-91.54404883934276
 30
0.0
 10
142.7971862367476
 20
-91.54404883934276
 30
0.0
 10
142.7971862367476
 20
-91.54404883934276
 30
0.0
 10
93.85854218136255
 20
-86.89438606238523
 30
0.0
 10
93.85854218136255
 20
-86.89438606238523
 30
0.0
 10
91.76910778465353
 20
-86.74478639256587
 30
0.0
 10
91.11623709730148
 20
-88.97361888217078
 30
0.0
 10
91.11623709730148
 20
-88.97361888217078
 30
0.0
 10
91.11623709730148
 20
-88.97361888217078
 30
0.0
 10
91.03955913121854
 20
-94.57303340451067
 30
0.0
 10
91.03955913121854
 20
-94.57303340451067
 30
0.0
 10
91.03955913121854
 20
-94.57303340451067
 30
0.0
 10
88.27915235224763
 20
-97.33277489721954
 30
0.0
 10
88.27915235224763
 20
-97.33277489721954
 30
0.0
 10
88.27915235224763
 20
-97.33277489721954
 30
0.0
 10
88.27915235224763
 20
-103.3234332594406
 30
0.0
 10
88.27915235224763
 20
-103.3234332594406
 30
0.0
 10
88.27915235224763
 20
-103.3234332594406
 30
0.0
 10
90.19610150431152
 20
-105.8139316796914
 30
0.0
 10
90.19610150431152
 20
-105.8139316796914
 30
0.0
 10
90.19610150431152
 20
-105.8139316796914
 30
0.0
 10
90.19610150431152
 20
-111.8719008100272
 30
0.0
 10
90.19610150431152
 20
-111.8719008100272
 30
0.0
 10
90.57949133472339
 20
-114.2950884621627
 30
0.0
 10
92.54118624948876
 20
-115.0207827712038
 30
0.0
 10
92.54118624948876
 20
-115.0207827712038
 30
0.0
 10
92.54118624948876
 20
-115.0207827712038
 30
0.0
 10
141.054021621675
 20
-126.6940284989181
 30
0.0
 10
141.054021621675
 20
-126.6940284989181
 30
0.0
 10
142.1381142751432
 20
-126.9548848236095
 30
0.0
 10
143.571754923344
 20
-126.3847090675745
 30
0.0
 10
143.5761628692718
 20
-125.2696828466053
 30
0.0
 10
143.5761628692718
 20
-125.2696828466053
 30
0.0
 10
143.6764002494947
 20
-118.1886579124379
 30
0.0
 10
143.6764002494947
 20
-118.1886579124379
 30
0.0
 10
143.6822351699769
 20
-117.7764642045364
 30
0.0
 10
143.8678386290883
 20
-117.3873860029099
 30
0.0
 10
144.1845263319221
 20
-117.1234795838812
 30
0.0
 10
144.1845263319221
 20
-117.1234795838812
 30
0.0
 10
147.2256758591711
 20
-114.5891883111717
 30
0.0
 10
147.2256758591711
 20
-114.5891883111717
 30
0.0
 10
147.4867248979031
 20
-114.3716474455613
 30
0.0
 10
147.6376608119843
 20
-114.0493929881539
 30
0.0
 10
147.6376608119843
 20
-113.7095832931279
 30
0.0
  0
ELLIPSE
  5
8F
330
79
100
AcDbEntity
  8
レイヤー 1
 62
   250
420
  2299925
370
    18
100
AcDbEllipse
 10
95.29213540134319
 20
-90.37302906988516
 30
0.0
 11
0.0000000000000001
 21
2.213957096759487
 31
0.0
210
0.0
220
0.0
230
1.0
 40
0.8575334974582684
 41
0.0
 42
6.283185307179586
  0
ELLIPSE
  5
90
330
79
100
AcDbEntity
  8
レイヤー 1
 62
   250
420
  2299925
370
    18
100
AcDbEllipse
 10
100.2515930272208
 20
-90.84342684504475
 30
0.0
 11
0.0000000000000001
 21
2.213957096759327
 31
0.0
210
0.0
220
0.0
230
1.0
 40
0.8575334974583306
 41
0.0
 42
6.283185307179586
  0
ELLIPSE
  5
91
330
79
100
AcDbEntity
  8
レイヤー 1
 62
   250
420
  2299925
370
    18
100
AcDbEllipse
 10
92.92864387651039
 20
-95.27134103856381
 30
0.0
 11
0.0000000000000001
 21
2.213957096759568
 31
0.0
210
0.0
220
0.0
230
1.0
 40
0.8575334974582373
 41
0.0
 42
6.283185307179586
  0
ELLIPSE
  5
92
330
79
100
AcDbEntity
  8
レイヤー 1
 62
   250
420
  2299925
370
    18
100
AcDbEllipse
 10
97.19067777374991
 20
-95.92457038176744
 30
0.0
 11
0.0000000000000001
 21
2.213957096759327
 31
0.0
210
0.0
220
0.0
230
1.0
 40
0.8575334974583306
 41
0.0
 42
6.283185307179586
  0
ELLIPSE
  5
93
330
79
100
AcDbEntity
  8
レイヤー 1
 62
   250
420
  2299925
370
    18
100
AcDbEllipse
 10
101.6464404843635
 20
-96.50030819956285
 30
0.0
 11
0.0000000000000001
 21
2.213957096759327
 31
0.0
210
0.0
220
0.0
230
1.0
 40
0.8575334974582579
 41
0.0
 42
6.283185307179586
  0
ELLIPSE
  5
94
330
79
100
AcDbEntity
  8
レイヤー 1
 62
   250
420
  2299925
370
    18
100
AcDbEllipse
 10
105.0245866700586
 20
-91.30837599747197
 30
0.0
 11
0.0000000000000001
 21
2.402237287535829
 31
0.0
210
0.0
220
0.0
230
1.0
 40
0.8034274193702941
 41
0.0
 42
6.283185307179586
  0
ELLIPSE
  5
95
330
79
100
AcDbEntity
  8
レイヤー 1
 62
   250
420
  2299925
370
    18
100
AcDbEllipse
 10
109.8217964146599
 20
-91.94495677068923
 30
0.0
 11
0.0000000000000001
 21
2.341394332113968
 31
0.0
210
0.0
220
0.0
230
1.0
 40
0.7943115707576095
 41
0.0
 42
6.283185307179586
  0
ELLIPSE
  5
96
330
79
100
AcDbEntity
  8
レイヤー 1
 62
   250
420
  2299925
370
    18
100
AcDbEllipse
 10
114.8089841675435
 20
-92.57174616664803
 30
0.0
 11
0.0000000000000001
 21
2.449155984339123
 31
0.0
210
0.0
220
0.0
230
1.0
 40
0.8542825362276094
 41
0.0
 42
6.283185307179586
  0
ELLIPSE
  5
97
330
79
100
AcDbEntity
  8
レイヤー 1
 62
   250
420
  2299925
370
    18
100
AcDbEllipse
 10
120.2831523442474
 20
-93.14879972582607
 30
0.0
 11
0.0000000000000002
 21
2.775770655941217
 31
0.0
210
0.0
220
0.0
230
1.0
 40
0.8375136314504956
 41
0.0
 42
6.283185307179586
  0
ELLIPSE
  5
98
330
79
100
AcDbEntity
  8
レイヤー 1
 62
   250
420
  2299925
370
    18
100
AcDbEllipse
 10
120.2831523442474
 20
-93.38399861340587
 30
0.0
 11
0.0000000000000002
 21
2.540571768361421
 31
0.0
210
0.0
220
0.0
230
1.0
 40
0.9150482545235997
 41
0.0
 42
6.283185307179586
  0
CIRCLE
  5
99
330
79
100
AcDbEntity
  8
レイヤー 1
 62
   250
420
  2299925
370
    18
100
AcDbCircle
 10
131.8209139935534
 20
-94.38503171727422
 30
0.0
 40
2.689198092600268
  0
CIRCLE
  5
9A
330
79
100
AcDbEntity
  8
レイヤー 1
 62
   250
420
  2299925
370
    18
100
AcDbCircle
 10
138.1401320710434
 20
-94.76858056941953
 30
0.0
 40
2.823623798540358
  0
ELLIPSE
  5
9B
330
79
100
AcDbEntity
  8
レイヤー 1
 62
   250
420
  2299925
370
    18
100
AcDbEllipse
 10
125.8625421733616
 20
-93.67186752230356
 30
0.0
 11
0.0000000000000002
 21
2.828440677259123
 31
0.0
210
0.0
220
0.0
230
1.0
 40
0.9041095890410639
 41
0.0
 42
6.283185307179586
  0
ELLIPSE
  5
9C
330
79
100
AcDbEntity
  8
レイヤー 1
 62
   250
420
  2299925
370
    18
100
AcDbEllipse
 10
106.79962692389
 20
-97.26176641798268
 30
0.0
 11
0.0000000000000002
 21
2.493185848563227
 31
0.0
210
0.0
220
0.0
230
1.0
 40
0.8391958373753423
 41
0.0
 42
6.283185307179586
  0
ELLIPSE
  5
9D
330
79
100
AcDbEntity
  8
レイヤー 1
 62
   250
420
  2299925
370
    18
100
AcDbEllipse
 10
117.1986263915757
 20
-98.65342234090231
 30
0.0
 11
0.0000000000000002
 21
2.728851959135195
 31
0.0
210
0.0
220
0.0
230
1.0
 40
0.8747642817493161
 41
0.0
 42
6.283185307179586
  0
ELLIPSE
  5
9E
330
79
100
AcDbEntity
  8
レイヤー 1
 62
   250
420
  2299925
370
    18
100
AcDbEllipse
 10
111.7881438717597
 20
-97.96840936435319
 30
0.0
 11
0.0000000000000002
 21
2.697068325789777
 31
0.0
210
0.0
220
0.0
230
1.0
 40
0.843995510588485
 41
0.0
 42
6.283185307179586
  0
ELLIPSE
  5
9F
330
79
100
AcDbEntity
  8
レイヤー 1
 62
   250
420
  2299925
370
    18
100
AcDbEllipse
 10
122.9722489907492
 20
-99.48373192763057
 30
0.0
 11
0.0000000000000002
 21
2.983423728068031
 31
0.0
210
0.0
220
0.0
230
1.0
 40
0.8129398473865608
 41
0.0
 42
6.283185307179586
  0
ELLIPSE
  5
A0
330
79
100
AcDbEntity
  8
レイヤー 1
 62
   250
420
  2299925
370
    18
100
AcDbEllipse
 10
128.9912625115242
 20
-100.2131729011598
 30
0.0
 11
0.0000000000000002
 21
2.951406483176955
 31
0.0
210
0.0
220
0.0
230
1.0
 40
0.8303395363939298
 41
0.0
 42
6.283185307179586
  0
ELLIPSE
  5
A1
330
79
100
AcDbEntity
  8
レイヤー 1
 62
   250
420
  2299925
370
    18
100
AcDbEllipse
 10
135.372218477292
 20
-100.8045952659677
 30
0.0
 11
0.0000000000000002
 21
3.212390897817074
 31
0.0
210
0.0
220
0.0
230
1.0
 40
0.8616366070618608
 41
0.0
 42
6.283185307179586
  0
ELLIPSE
  5
A2
330
79
100
AcDbEntity
  8
レイヤー 1
 62
   250
420
  2299925
370
    18
100
AcDbEllipse
 10
141.4244145210346
 20
-101.9855579332887
 30
0.0
 11
0.0000000000000002
 21
3.271292636966695
 31
0.0
210
0.0
220
0.0
230
1.0
 40
0.8011474044021658
 41
0.0
 42
6.283185307179586
  0
ELLIPSE
  5
A3
330
79
100
AcDbEntity
  8
レイヤー 1
 62
   250
420
  2299925
370
    18
100
AcDbEllipse
 10
144.1505421687885
 20
-109.5188844674952
 30
0.0
 11
0.0000000000000002
 21
3.409627117791164
 31
0.0
210
0.0
220
0.0
230
1.0
 40
0.7727272727274695
 41
0.0
 42
6.283185307179586
  0
ELLIPSE
  5
A4
330
79
100
AcDbEntity
  8
レイヤー 1
 62
   250
420
  2299925
370
    18
100
AcDbEllipse
 10
137.3155474668677
 20
-108.5114946372376
 30
0.0
 11
0.0000000000000002
 21
3.254644066982898
 31
0.0
210
0.0
220
0.0
230
1.0
 40
0.8619791667406035
 41
0.0
 42
6.283185307179586
  0
ELLIPSE
  5
A5
330
79
100
AcDbEntity
  8
レイヤー 1
 62
   250
420
  2299925
370
    18
100
AcDbEllipse
 10
94.71094896081059
 20
-101.3352042523436
 30
0.0
 11
0.0000000000000002
 21
2.681781911441191
 31
0.0
210
0.0
220
0.0
230
1.0
 40
0.7801794683570314
 41
0.0
 42
6.283185307179586
  0
ELLIPSE
  5
A6
330
79
100
AcDbEntity
  8
レイヤー 1
 62
   250
420
  2299925
370
    18
100
AcDbEllipse
 10
93.16111845272343
 20
-106.5354607394266
 30
0.0
 11
0.0000000000000002
 21
2.518474575641547
 31
0.0
210
0.0
220
0.0
230
1.0
 40
0.8461538461538413
 41
0.0
 42
6.283185307179586
  0
ELLIPSE
  5
A7
330
79
100
AcDbEntity
  8
レイヤー 1
 62
   250
420
  2299925
370
    18
100
AcDbEllipse
 10
100.0191184510084
 20
-102.040952265975
 30
0.0
 11
0.0000000000000002
 21
2.673457626449172
 31
0.0
210
0.0
220
0.0
230
1.0
 40
0.7971014492754415
 41
0.0
 42
6.283185307179586
  0
ELLIPSE
  5
A8
330
79
100
AcDbEntity
  8
レイヤー 1
 62
   250
420
  2299925
370
    18
100
AcDbEllipse
 10
104.9010845514833
 20
-102.9287405492183
 30
0.0
 11
0.0000000000000002
 21
2.71556764805906
 31
0.0
210
0.0
220
0.0
230
1.0
 40
0.7562048489873021
 41
0.0
 42
6.283185307179586
  0
ELLIPSE
  5
A9
330
79
100
AcDbEntity
  8
レイヤー 1
 62
   250
420
  2299925
370
    18
100
AcDbEllipse
 10
109.8750718383575
 20
-103.9353324958852
 30
0.0
 11
0.0000000000000002
 21
2.60012824354157
 31
0.0
210
0.0
220
0.0
230
1.0
 40
0.7357606449427577
 41
0.0
 42
6.283185307179586
  0
ELLIPSE
  5
AA
330
79
100
AcDbEntity
  8
レイヤー 1
 62
   250
420
  2299925
370
    18
100
AcDbEllipse
 10
114.9576696866005
 20
-104.7937560538085
 30
0.0
 11
0.0000000000000002
 21
2.830295313049282
 31
0.0
210
0.0
220
0.0
230
1.0
 40
0.7917748705031431
 41
0.0
 42
6.283185307179586
  0
ELLIPSE
  5
AB
330
79
100
AcDbEntity
  8
レイヤー 1
 62
   250
420
  2299925
370
    18
100
AcDbEllipse
 10
120.3458279663016
 20
-105.3730878583623
 30
0.0
 11
0.0000000000000002
 21
2.905932202664539
 31
0.0
210
0.0
220
0.0
230
1.0
 40
0.7784318360912387
 41
0.0
 42
6.283185307179586
  0
SPLINE
  5
AC
330
79
100
AcDbEntity
  8
レイヤー 1
 62
   250
420
  2299925
370
    18
100
AcDbSpline
210
0.0
220
0.0
230
1.0
 70
     9
 71
     3
 72
    17
 73
    13
 74
     0
 42
0.0000000001
 43
0.0000000001
 40
0.0
 40
0.0
 40
0.0
 40
0.0
 40
1.0
 40
1.0
 40
1.0
 40
2.0
 40
2.0
 40
2.0
 40
3.0
 40
3.0
 40
3.0
 40
4.0
 40
4.0
 40
4.0
 40
4.0
 10
128.4197625117054
 20
-106.4967149767247
 30
0.0
 10
128.4197625117054
 20
-108.3370026486653
 30
0.0
 10
127.0665075722249
 20
-109.8288505691121
 30
0.0
 10
125.8661745885588
 20
-109.8288505691121
 30
0.0
 10
124.6658416048926
 20
-109.8288505691121
 30
0.0
 10
123.3053218350179
 20
-108.3757484113686
 30
0.0
 10
123.3053218350179
 20
-106.5354607394268
 30
0.0
 10
123.3053218350179
 20
-104.6951730674859
 30
0.0
 10
124.6658416048926
 20
-103.1645793843367
 30
0.0
 10
125.8661745885588
 20
-103.1645793843367
 30
0.0
 10
127.0665075722249
 20
-103.1645793843367
 30
0.0
 10
128.4197625117054
 20
-104.6564273047829
 30
0.0
 10
128.4197625117054
 20
-106.4967149767247
 30
0.0
  0
ELLIPSE
  5
AD
330
79
100
AcDbEntity
  8
レイヤー 1
 62
   250
420
  2299925
370
    18
100
AcDbEllipse
 10
131.5726989515758
 20
-107.3103759934702
 30
0.0
 11
0.0000000000000002
 21
3.293389829685767
 31
0.0
210
0.0
220
0.0
230
1.0
 40
0.7838235294174453
 41
0.0
 42
6.283185307179586
  0
ELLIPSE
  5
AE
330
79
100
AcDbEntity
  8
レイヤー 1
 62
   250
420
  2299925
370
    18
100
AcDbEllipse
 10
97.88810150232045
 20
-107.2716302307681
 30
0.0
 11
0.0000000000000002
 21
2.557220338344014
 31
0.0
210
0.0
220
0.0
230
1.0
 40
0.727272727246
 41
0.0
 42
6.283185307179586
  0
ELLIPSE
  5
AF
330
79
100
AcDbEntity
  8
レイヤー 1
 62
   250
420
  2299925
370
    18
100
AcDbEllipse
 10
102.3567794673729
 20
-108.1240370102163
 30
0.0
 11
0.0000000000000002
 21
2.479728812939641
 31
0.0
210
0.0
220
0.0
230
1.0
 40
0.7812499999999717
 41
0.0
 42
6.283185307179586
  0
ELLIPSE
  5
B0
330
79
100
AcDbEntity
  8
レイヤー 1
 62
   250
420
  2299925
370
    18
100
AcDbEllipse
 10
106.958242389933
 20
-109.1314268404731
 30
0.0
 11
0.0000000000000002
 21
2.634711863747427
 31
0.0
210
0.0
220
0.0
230
1.0
 40
0.733915441183804
 41
0.0
 42
6.283185307179586
  0
ELLIPSE
  5
B1
330
79
100
AcDbEntity
  8
レイヤー 1
 62
   250
420
  2299925
370
    18
100
AcDbEllipse
 10
111.9697646344172
 20
-110.2117052049022
 30
0.0
 11
0.0000000000000002
 21
2.587653838044769
 31
0.0
210
0.0
220
0.0
230
1.0
 40
0.8094949816171585
 41
0.0
 42
6.283185307179586
  0
ELLIPSE
  5
B2
330
79
100
AcDbEntity
  8
レイヤー 1
 62
   250
420
  2299925
370
    18
100
AcDbEllipse
 10
117.2716991511045
 20
-111.1978675179221
 30
0.0
 11
0.0000000000000002
 21
2.686372880684745
 31
0.0
210
0.0
220
0.0
230
1.0
 40
0.8613954827872682
 41
0.0
 42
6.283185307179586
  0
ELLIPSE
  5
B3
330
79
100
AcDbEntity
  8
レイヤー 1
 62
   250
420
  2299925
370
    18
100
AcDbEllipse
 10
122.8403726825908
 20
-112.1794268397108
 30
0.0
 11
0.0000000000000002
 21
3.047999999238436
 31
0.0
210
0.0
220
0.0
230
1.0
 40
0.8389830508472416
 41
0.0
 42
6.283185307179586
  0
ELLIPSE
  5
B4
330
79
100
AcDbEntity
  8
レイヤー 1
 62
   250
420
  2299925
370
    18
100
AcDbEllipse
 10
94.60762692693764
 20
-112.373155653222
 30
0.0
 11
0.0000000000000002
 21
2.544305084109324
 31
0.0
210
0.0
220
0.0
230
1.0
 40
0.7817258883248283
 41
0.0
 42
6.283185307179586
  0
ELLIPSE
  5
B5
330
79
100
AcDbEntity
  8
レイヤー 1
 62
   250
420
  2299925
370
    18
100
AcDbEllipse
 10
99.41855912905673
 20
-113.354714975011
 30
0.0
 11
0.0000000000000002
 21
2.75094915185507
 31
0.0
210
0.0
220
0.0
230
1.0
 40
0.8098591549045824
 41
0.0
 42
6.283185307179586
  0
ELLIPSE
  5
B6
330
79
100
AcDbEntity
  8
レイヤー 1
 62
   250
420
  2299925
370
    18
100
AcDbEllipse
 10
104.2036608228432
 20
-114.4783420933737
 30
0.0
 11
0.0000000000000002
 21
2.712203389152201
 31
0.0
210
0.0
220
0.0
230
1.0
 40
0.757142857143
 41
0.0
 42
6.283185307179586
  0
ELLIPSE
  5
B7
330
79
100
AcDbEntity
  8
レイヤー 1
 62
   250
420
  2299925
370
    18
100
AcDbEllipse
 10
109.4343387876378
 20
-115.5180200592158
 30
0.0
 11
0.0000000000000002
 21
3.144864405994405
 31
0.0
210
0.0
220
0.0
230
1.0
 40
0.7145790554414253
 41
0.0
 42
6.283185307179586
  0
ELLIPSE
  5
B8
330
79
100
AcDbEntity
  8
レイヤー 1
 62
   250
420
  2299925
370
    18
100
AcDbEllipse
 10
114.9942060663649
 20
-116.8805793809092
 30
0.0
 11
0.0000000000000002
 21
3.202983050046864
 31
0.0
210
0.0
220
0.0
230
1.0
 40
0.7110537424499614
 41
0.0
 42
6.283185307179586
  0
ELLIPSE
  5
B9
330
79
100
AcDbEntity
  8
レイヤー 1
 62
   250
420
  2299925
370
    18
100
AcDbEllipse
 10
128.6005760709813
 20
-113.587189551223
 30
0.0
 11
0.0000000000000002
 21
2.983423728067309
 31
0.0
210
0.0
220
0.0
230
1.0
 40
0.8398268398269744
 41
0.0
 42
6.283185307179586
  0
ELLIPSE
  5
BA
330
79
100
AcDbEntity
  8
レイヤー 1
 62
   250
420
  2299925
370
    18
100
AcDbEllipse
 10
134.5101120859728
 20
-114.8399692119275
 30
0.0
 11
0.0000000000000002
 21
3.38379660932419
 31
0.0
210
0.0
220
0.0
230
1.0
 40
0.832061068702149
 41
0.0
 42
6.283185307179586
  0
ELLIPSE
  5
BB
330
79
100
AcDbEntity
  8
レイヤー 1
 62
   250
420
  2299925
370
    18
100
AcDbEllipse
 10
140.4567794578474
 20
-115.7311217540775
 30
0.0
 11
0.0000000000000002
 21
3.357966100855451
 31
0.0
210
0.0
220
0.0
230
1.0
 40
0.8215521676937227
 41
0.0
 42
6.283185307179586
  0
ELLIPSE
  5
BC
330
79
100
AcDbEntity
  8
レイヤー 1
 62
   250
420
  2299925
370
    18
100
AcDbEllipse
 10
120.0894235307361
 20
-118.2495963297184
 30
0.0
 11
0.0000000000000002
 21
3.022169490769857
 31
0.0
210
0.0
220
0.0
230
1.0
 40
0.7051282051282011
 41
0.0
 42
6.283185307179586
  0
ELLIPSE
  5
BD
330
79
100
AcDbEntity
  8
レイヤー 1
 62
   250
420
  2299925
370
    18
100
AcDbEllipse
 10
125.7075591225524
 20
-119.2053251430401
 30
0.0
 11
0.0000000000000002
 21
3.099661016174632
 31
0.0
210
0.0
220
0.0
230
1.0
 40
0.7749999999997439
 41
0.0
 42
6.283185307179586
  0
ELLIPSE
  5
BE
330
79
100
AcDbEntity
  8
レイヤー 1
 62
   250
420
  2299925
370
    18
100
AcDbEllipse
 10
131.4177159007666
 20
-120.7034946341896
 30
0.0
 11
0.0000000000000002
 21
3.047999999237955
 31
0.0
210
0.0
220
0.0
230
1.0
 40
0.7960805084807209
 41
0.0
 42
6.283185307179586
  0
ELLIPSE
  5
BF
330
79
100
AcDbEntity
  8
レイヤー 1
 62
   250
420
  2299925
370
    18
100
AcDbEllipse
 10
137.3155474668676
 20
-121.912971554113
 30
0.0
 11
0.0000000000000002
 21
3.25008708890283
 31
0.0
210
0.0
220
0.0
230
1.0
 40
0.9148473885790258
 41
0.0
 42
6.283185307179586
  0
SPLINE
  5
C0
330
79
100
AcDbEntity
  8
レイヤー 1
 62
   250
420
  2299925
370
    18
100
AcDbSpline
210
0.0
220
0.0
230
1.0
 70
     8
 71
     3
 72
    32
 73
    28
 74
     0
 42
0.0000000001
 43
0.0000000001
 40
0.0
 40
0.0
 40
0.0
 40
0.0
 40
1.0
 40
1.0
 40
1.0
 40
2.0
 40
2.0
 40
2.0
 40
3.0
 40
3.0
 40
3.0
 40
4.0
 40
4.0
 40
4.0
 40
5.0
 40
5.0
 40
5.0
 40
6.0
 40
6.0
 40
6.0
 40
7.0
 40
7.0
 40
7.0
 40
8.0
 40
8.0
 40
8.0
 40
9.0
 40
9.0
 40
9.0
 40
9.0
 10
85.87691506471214
 20
-80.61454549167143
 30
0.0
 10
85.87691506471214
 20
-80.61454549167143
 30
0.0
 10
80.52999981181313
 20
-80.61454549167143
 30
0.0
 10
80.52999981181313
 20
-80.61454549167143
 30
0.0
 10
80.52999981181313
 20
-80.61454549167143
 30
0.0
 10
80.37501676100424
 20
-114.4783420933742
 30
0.0
 10
80.37501676100424
 20
-114.4783420933742
 30
0.0
 10
80.37501676100424
 20
-114.4783420933742
 30
0.0
 10
85.8596235673081
 20
-115.795698025247
 30
0.0
 10
85.8596235673081
 20
-115.795698025247
 30
0.0
 10
85.8596235673081
 20
-115.795698025247
 30
0.0
 10
85.8596235673081
 20
-91.10173215821792
 30
0.0
 10
85.8596235673081
 20
-91.10173215821792
 30
0.0
 10
85.8596235673081
 20
-91.10173215821792
 30
0.0
 10
85.8596235673081
 20
-85.36735904980368
 30
0.0
 10
85.8596235673081
 20
-85.36735904980368
 30
0.0
 10
85.8596235673081
 20
-85.36735904980368
 30
0.0
 10
86.00606760705407
 20
-84.8507488804414
 30
0.0
 10
84.97284726832949
 20
-85.10905396512239
 30
0.0
 10
84.97284726832949
 20
-85.10905396512239
 30
0.0
 10
81.45989811666531
 20
-87.12383362563562
 30
0.0
 10
81.45989811666531
 20
-87.12383362563562
 30
0.0
 10
81.45989811666531
 20
-87.12383362563562
 30
0.0
 10
81.14993201504814
 20
-87.84708786274299
 30
0.0
 10
81.92484726909139
 20
-87.84708786274299
 30
0.0
 10
81.92484726909139
 20
-87.84708786274299
 30
0.0
 10
85.64444048850068
 20
-86.14227430384726
 30
0.0
 10
85.64444048850068
 20
-86.14227430384726
 30
0.0
  0
SPLINE
  5
C1
330
79
100
AcDbEntity
  8
レイヤー 1
 62
   250
420
  2299925
370
    18
100
AcDbSpline
210
0.0
220
0.0
230
1.0
 70
     8
 71
     3
 72
    17
 73
    13
 74
     0
 42
0.0000000001
 43
0.0000000001
 40
0.0
 40
0.0
 40
0.0
 40
0.0
 40
1.0
 40
1.0
 40
1.0
 40
2.0
 40
2.0
 40
2.0
 40
3.0
 40
3.0
 40
3.0
 40
4.0
 40
4.0
 40
4.0
 40
4.0
 10
85.8596235673081
 20
-91.10173215821792
 30
0.0
 10
85.45487444288083
 20
-90.53346120041116
 30
0.0
 10
84.8178642175206
 20
-90.84342684504461
 30
0.0
 10
84.8178642175206
 20
-90.84342684504461
 30
0.0
 10
84.8178642175206
 20
-90.84342684504461
 30
0.0
 10
81.6148811674739
 20
-92.5717461666481
 30
0.0
 10
81.6148811674739
 20
-92.5717461666481
 30
0.0
 10
81.3049150658564
 20
-93.52515023420805
 30
0.0
 10
82.2348133707092
 20
-93.38399861340578
 30
0.0
 10
82.2348133707092
 20
-93.38399861340578
 30
0.0
 10
82.2348133707092
 20
-93.38399861340578
 30
0.0
 10
85.8596235673081
 20
-91.46335904828152
 30
0.0
 10
85.8596235673081
 20
-91.46335904828152
 30
0.0
  0
SPLINE
  5
C2
330
79
100
AcDbEntity
  8
レイヤー 1
 62
   250
420
  2299925
370
    18
100
AcDbSpline
210
0.0
220
0.0
230
1.0
 70
     8
 71
     3
 72
    14
 73
    10
 74
     0
 42
0.0000000001
 43
0.0000000001
 40
0.0
 40
0.0
 40
0.0
 40
0.0
 40
1.0
 40
1.0
 40
1.0
 40
2.0
 40
2.0
 40
2.0
 40
3.0
 40
3.0
 40
3.0
 40
3.0
 10
85.8596235673081
 20
-105.6443081972773
 30
0.0
 10
85.8596235673081
 20
-105.6443081972773
 30
0.0
 10
82.28647438764509
 20
-102.4671556556986
 30
0.0
 10
82.28647438764509
 20
-102.4671556556986
 30
0.0
 10
82.28647438764509
 20
-102.4671556556986
 30
0.0
 10
81.02341523887814
 20
-102.2088505710166
 30
0.0
 10
81.55162277938922
 20
-103.2937319266777
 30
0.0
 10
81.55162277938922
 20
-103.2937319266777
 30
0.0
 10
85.8596235673081
 20
-107.013325146086
 30
0.0
 10
85.8596235673081
 20
-107.013325146086
 30
0.0
  0
SPLINE
  5
C3
330
79
100
AcDbEntity
  8
レイヤー 1
 62
   250
420
  2299925
370
    18
100
AcDbSpline
210
0.0
220
0.0
230
1.0
 70
     8
 71
     3
 72
    14
 73
    10
 74
     0
 42
0.0000000001
 43
0.0000000001
 40
0.0
 40
0.0
 40
0.0
 40
0.0
 40
1.0
 40
1.0
 40
1.0
 40
2.0
 40
2.0
 40
2.0
 40
3.0
 40
3.0
 40
3.0
 40
3.0
 10
85.8596235673081
 20
-110.9395624332414
 30
0.0
 10
85.8596235673081
 20
-110.9395624332414
 30
0.0
 10
82.1831523537727
 20
-107.6240513668578
 30
0.0
 10
82.1831523537727
 20
-107.6240513668578
 30
0.0
 10
82.1831523537727
 20
-107.6240513668578
 30
0.0
 10
81.02347692175809
 20
-107.6849183662582
 30
0.0
 10
81.42250107848855
 20
-108.5114946372373
 30
0.0
 10
81.42250107848855
 20
-108.5114946372373
 30
0.0
 10
85.87691506471214
 20
-112.3731556532224
 30
0.0
 10
85.87691506471214
 20
-112.3731556532224
 30
0.0
  0
SPLINE
  5
C4
330
79
100
AcDbEntity
  8
レイヤー 1
 62
   250
420
  2299925
370
    18
100
AcDbSpline
210
0.0
220
0.0
230
1.0
 70
     8
 71
     3
 72
    50
 73
    46
 74
     0
 42
0.0000000001
 43
0.0000000001
 40
0.0
 40
0.0
 40
0.0
 40
0.0
 40
1.0
 40
1.0
 40
1.0
 40
2.0
 40
2.0
 40
2.0
 40
3.0
 40
3.0
 40
3.0
 40
4.0
 40
4.0
 40
4.0
 40
5.0
 40
5.0
 40
5.0
 40
6.0
 40
6.0
 40
6.0
 40
7.0
 40
7.0
 40
7.0
 40
8.0
 40
8.0
 40
8.0
 40
9.0
 40
9.0
 40
9.0
 40
10.0
 40
10.0
 40
10.0
 40
11.0
 40
11.0
 40
11.0
 40
12.0
 40
12.0
 40
12.0
 40
13.0
 40
13.0
 40
13.0
 40
14.0
 40
14.0
 40
14.0
 40
15.0
 40
15.0
 40
15.0
 40
15.0
 10
153.264566086699
 20
-132.7919993097188
 30
0.0
 10
153.264566086699
 20
-132.7919993097188
 30
0.0
 10
169.8002370776303
 20
-136.8733929352303
 30
0.0
 10
169.8002370776303
 20
-136.8733929352303
 30
0.0
 10
169.8002370776303
 20
-136.8733929352303
 30
0.0
 10
170.9884404671637
 20
-137.2866810707192
 30
0.0
 10
172.279965890569
 20
-136.8733929352303
 30
0.0
 10
172.279965890569
 20
-136.8733929352303
 30
0.0
 10
176.6194913132133
 20
-129.8474946319025
 30
0.0
 10
182.8704743624977
 20
-131.2423420891808
 30
0.0
 10
182.8704743624977
 20
-131.2423420891808
 30
0.0
 10
185.970135378672
 20
-132.7405115803308
 30
0.0
 10
188.5015252085479
 20
-130.1057997165832
 30
0.0
 10
188.5015252085479
 20
-130.1057997165832
 30
0.0
 10
192.1177963940848
 20
-127.7810539544528
 30
0.0
 10
191.5495252077857
 20
-119.1536641261013
 30
0.0
 10
191.5495252077857
 20
-119.1536641261013
 30
0.0
 10
221.0996268953128
 20
-107.8915624340017
 30
0.0
 10
221.0996268953128
 20
-107.8915624340017
 30
0.0
 10
221.0996268953128
 20
-107.8915624340017
 30
0.0
 10
222.1845082509732
 20
-93.94308786121795
 30
0.0
 10
222.1845082509732
 20
-93.94308786121795
 30
0.0
 10
222.1845082509732
 20
-93.94308786121795
 30
0.0
 10
193.4093218174894
 20
-91.5150200652145
 30
0.0
 10
193.4093218174894
 20
-91.5150200652145
 30
0.0
 10
193.4093218174894
 20
-91.5150200652145
 30
0.0
 10
193.5643048682989
 20
-84.90240989737568
 30
0.0
 10
190.1546777505074
 20
-85.00573193124806
 30
0.0
 10
190.1546777505074
 20
-85.00573193124806
 30
0.0
 10
188.4498641916114
 20
-85.00453361669169
 30
0.0
 10
188.4498641916114
 20
-85.00453361669169
 30
0.0
 10
188.4498641916114
 20
-85.00453361669169
 30
0.0
 10
187.0033557173966
 20
-85.10905396512045
 30
0.0
 10
180.9590167358575
 20
-89.34525735389204
 30
0.0
 10
180.9590167358575
 20
-89.34525735389204
 30
0.0
 10
179.305864193898
 20
-89.65522345550953
 30
0.0
 10
177.5493896180654
 20
-89.29359633695584
 30
0.0
 10
175.7929150422341
 20
-88.93196921840214
 30
0.0
 10
175.1213218220632
 20
-87.48546074418738
 30
0.0
 10
174.8113557204454
 20
-87.48546074418738
 30
0.0
 10
174.8113557204454
 20
-87.48546074418738
 30
0.0
 10
172.486609958315
 20
-87.27881667644259
 30
0.0
 10
172.486609958315
 20
-87.27881667644259
 30
0.0
 10
172.486609958315
 20
-87.27881667644259
 30
0.0
 10
155.2318303016109
 20
-85.72898616835994
 30
0.0
 10
155.2318303016109
 20
-85.72898616835994
 30
0.0
  0
SPLINE
  5
C5
330
79
100
AcDbEntity
  8
レイヤー 1
 62
   250
420
  2299925
370
    18
100
AcDbSpline
210
0.0
220
0.0
230
1.0
 70
     9
 71
     3
 72
    29
 73
    25
 74
     0
 42
0.0000000001
 43
0.0000000001
 40
0.0
 40
0.0
 40
0.0
 40
0.0
 40
1.0
 40
1.0
 40
1.0
 40
2.0
 40
2.0
 40
2.0
 40
3.0
 40
3.0
 40
3.0
 40
4.0
 40
4.0
 40
4.0
 40
5.0
 40
5.0
 40
5.0
 40
6.0
 40
6.0
 40
6.0
 40
7.0
 40
7.0
 40
7.0
 40
8.0
 40
8.0
 40
8.0
 40
8.0
 10
155.696779454037
 20
-95.44125735236795
 30
0.0
 10
155.696779454037
 20
-95.44125735236795
 30
0.0
 10
162.1027455541304
 20
-93.01318955636514
 30
0.0
 10
162.1027455541304
 20
-93.01318955636514
 30
0.0
 10
162.1027455541304
 20
-93.01318955636514
 30
0.0
 10
162.6710167404288
 20
-92.65156243781111
 30
0.0
 10
163.8075591130264
 20
-93.01318955636514
 30
0.0
 10
163.8075591130264
 20
-93.01318955636514
 30
0.0
 10
170.0068811453744
 20
-97.09440989432749
 30
0.0
 10
170.0068811453744
 20
-97.09440989432749
 30
0.0
 10
170.0068811453744
 20
-97.09440989432749
 30
0.0
 10
170.7817963994177
 20
-98.48925735160605
 30
0.0
 10
169.3352879252029
 20
-97.92098616530727
 30
0.0
 10
169.3352879252029
 20
-97.92098616530727
 30
0.0
 10
163.2392879267273
 20
-93.94308786121731
 30
0.0
 10
163.2392879267273
 20
-93.94308786121731
 30
0.0
 10
163.2392879267273
 20
-93.94308786121731
 30
0.0
 10
163.0326438589813
 20
-93.52979972572709
 30
0.0
 10
162.6193557234917
 20
-93.89142684428078
 30
0.0
 10
162.6193557234917
 20
-93.89142684428078
 30
0.0
 10
156.1100675895265
 20
-96.31949464028423
 30
0.0
 10
156.1100675895265
 20
-96.31949464028423
 30
0.0
 10
156.1100675895265
 20
-96.31949464028423
 30
0.0
 10
155.2318303016109
 20
-96.47447769109282
 30
0.0
 10
155.696779454037
 20
-95.44125735236795
 30
0.0
  0
SPLINE
  5
C6
330
79
100
AcDbEntity
  8
レイヤー 1
 62
   250
420
  2299925
370
    18
100
AcDbSpline
210
0.0
220
0.0
230
1.0
 70
     9
 71
     3
 72
    29
 73
    25
 74
     0
 42
0.0000000001
 43
0.0000000001
 40
0.0
 40
0.0
 40
0.0
 40
0.0
 40
1.0
 40
1.0
 40
1.0
 40
2.0
 40
2.0
 40
2.0
 40
3.0
 40
3.0
 40
3.0
 40
4.0
 40
4.0
 40
4.0
 40
5.0
 40
5.0
 40
5.0
 40
6.0
 40
6.0
 40
6.0
 40
7.0
 40
7.0
 40
7.0
 40
8.0
 40
8.0
 40
8.0
 40
8.0
 10
155.5609911672276
 20
-102.8804437911865
 30
0.0
 10
155.5609911672276
 20
-102.8804437911865
 30
0.0
 10
161.4828133508947
 20
-100.6654776901429
 30
0.0
 10
161.4828133508947
 20
-100.6654776901429
 30
0.0
 10
161.4828133508947
 20
-100.6654776901429
 30
0.0
 10
162.2060675880034
 20
-100.1553251479948
 30
0.0
 10
163.5492540283451
 20
-100.6654776901429
 30
0.0
 10
163.5492540283451
 20
-100.6654776901429
 30
0.0
 10
169.4386099590759
 20
-104.6369183670184
 30
0.0
 10
169.4386099590759
 20
-104.6369183670184
 30
0.0
 10
169.4386099590759
 20
-104.6369183670184
 30
0.0
 10
170.3685082639275
 20
-105.9801048073602
 30
0.0
 10
168.7153557219673
 20
-105.6701387057424
 30
0.0
 10
168.7153557219673
 20
-105.6701387057424
 30
0.0
 10
162.8875960446243
 20
-101.6405793847159
 30
0.0
 10
162.8875960446243
 20
-101.6405793847159
 30
0.0
 10
162.8875960446243
 20
-101.6405793847159
 30
0.0
 10
162.5160336896199
 20
-101.485596333908
 30
0.0
 10
161.999423520258
 20
-101.5889183677797
 30
0.0
 10
161.999423520258
 20
-101.5889183677797
 30
0.0
 10
156.05840657259
 20
-103.8620031129739
 30
0.0
 10
156.05840657259
 20
-103.8620031129739
 30
0.0
 10
156.05840657259
 20
-103.8620031129739
 30
0.0
 10
154.7536096602462
 20
-103.8620031129739
 30
0.0
 10
155.5609911672276
 20
-102.8804437911865
 30
0.0
  0
SPLINE
  5
C7
330
79
100
AcDbEntity
  8
レイヤー 1
 62
   250
420
  2299925
370
    18
100
AcDbSpline
210
0.0
220
0.0
230
1.0
 70
     9
 71
     3
 72
    29
 73
    25
 74
     0
 42
0.0000000001
 43
0.0000000001
 40
0.0
 40
0.0
 40
0.0
 40
0.0
 40
1.0
 40
1.0
 40
1.0
 40
2.0
 40
2.0
 40
2.0
 40
3.0
 40
3.0
 40
3.0
 40
4.0
 40
4.0
 40
4.0
 40
5.0
 40
5.0
 40
5.0
 40
6.0
 40
6.0
 40
6.0
 40
7.0
 40
7.0
 40
7.0
 40
8.0
 40
8.0
 40
8.0
 40
8.0
 10
155.696779454037
 20
-115.8990200591168
 30
0.0
 10
155.696779454037
 20
-115.8990200591168
 30
0.0
 10
161.1211862323417
 20
-120.031901414017
 30
0.0
 10
161.1211862323417
 20
-120.031901414017
 30
0.0
 10
161.1211862323417
 20
-120.031901414017
 30
0.0
 10
161.7056607625731
 20
-120.6001726003155
 30
0.0
 10
162.4983048531185
 20
-120.031901414017
 30
0.0
 10
162.4983048531185
 20
-120.031901414017
 30
0.0
 10
167.8887794509881
 20
-118.5337319228657
 30
0.0
 10
167.8887794509881
 20
-118.5337319228657
 30
0.0
 10
167.8887794509881
 20
-118.5337319228657
 30
0.0
 10
168.9736608066499
 20
-118.5853929398003
 30
0.0
 10
168.1987455526059
 20
-119.6702742954627
 30
0.0
 10
168.1987455526059
 20
-119.6702742954627
 30
0.0
 10
162.4983048531185
 20
-121.4267488712946
 30
0.0
 10
162.4983048531185
 20
-121.4267488712946
 30
0.0
 10
162.4983048531185
 20
-121.4267488712946
 30
0.0
 10
161.5861353847671
 20
-121.89169802372
 30
0.0
 10
160.7078980968508
 20
-121.4267488712946
 30
0.0
 10
160.7078980968508
 20
-121.4267488712946
 30
0.0
 10
155.0251862338648
 20
-117.0355624317144
 30
0.0
 10
155.0251862338648
 20
-117.0355624317144
 30
0.0
 10
155.0251862338648
 20
-117.0355624317144
 30
0.0
 10
154.456915047567
 20
-116.0540031099257
 30
0.0
 10
155.696779454037
 20
-115.8990200591168
 30
0.0
  0
SPLINE
  5
C8
330
79
100
AcDbEntity
  8
レイヤー 1
 62
   250
420
  2299925
370
    18
100
AcDbSpline
210
0.0
220
0.0
230
1.0
 70
     9
 71
     3
 72
    29
 73
    25
 74
     0
 42
0.0000000001
 43
0.0000000001
 40
0.0
 40
0.0
 40
0.0
 40
0.0
 40
1.0
 40
1.0
 40
1.0
 40
2.0
 40
2.0
 40
2.0
 40
3.0
 40
3.0
 40
3.0
 40
4.0
 40
4.0
 40
4.0
 40
5.0
 40
5.0
 40
5.0
 40
6.0
 40
6.0
 40
6.0
 40
7.0
 40
7.0
 40
7.0
 40
8.0
 40
8.0
 40
8.0
 40
8.0
 10
155.5934574201639
 20
-123.1832234471265
 30
0.0
 10
155.5934574201639
 20
-123.1832234471265
 30
0.0
 10
160.5012540291067
 20
-127.2644437850889
 30
0.0
 10
160.5012540291067
 20
-127.2644437850889
 30
0.0
 10
160.5012540291067
 20
-127.2644437850889
 30
0.0
 10
161.0119538680065
 20
-127.936037005261
 30
0.0
 10
161.6865022534084
 20
-127.4710878528343
 30
0.0
 10
161.6865022534084
 20
-127.4710878528343
 30
0.0
 10
167.1138641969455
 20
-126.0762403955561
 30
0.0
 10
167.1138641969455
 20
-126.0762403955561
 30
0.0
 10
167.1138641969455
 20
-126.0762403955561
 30
0.0
 10
168.9219997897133
 20
-126.1458667947095
 30
0.0
 10
167.7337964001799
 20
-127.635053594752
 30
0.0
 10
167.7337964001799
 20
-127.635053594752
 30
0.0
 10
161.8658509117198
 20
-129.0209183609208
 30
0.0
 10
161.8658509117198
 20
-129.0209183609208
 30
0.0
 10
161.8658509117198
 20
-129.0209183609208
 30
0.0
 10
160.8628811476604
 20
-129.2275624286669
 30
0.0
 10
160.0879658936165
 20
-128.7626132762402
 30
0.0
 10
160.0879658936165
 20
-128.7626132762402
 30
0.0
 10
154.89520359957
 20
-124.37142683666
 30
0.0
 10
154.89520359957
 20
-124.37142683666
 30
0.0
 10
154.89520359957
 20
-124.37142683666
 30
0.0
 10
154.0436269120761
 20
-122.9249183624446
 30
0.0
 10
155.5934574201639
 20
-123.1832234471265
 30
0.0
  0
LWPOLYLINE
  5
C9
330
79
100
AcDbEntity
  8
レイヤー 1
 62
   250
420
  2299925
370
    18
100
AcDbPolyline
 90
        4
 70
     0
 43
0.0
 10
169.6060779372533
 20
-136.8254698797758
 10
172.486609958315
 20
-87.27881667644259
 10
174.8113557204454
 20
-87.48546074418738
 10
173.7264743647824
 20
-105.308511587188
  0
LINE
  5
CA
330
79
100
AcDbEntity
  8
レイヤー 1
 62
   250
420
  2299925
370
    18
100
AcDbLine
 10
173.1065421615481
 20
-120.65183361725
 30
0.0
 11
172.279965890569
 21
-136.8733929352303
 31
0.0
  0
SPLINE
  5
CB
330
79
100
AcDbEntity
  8
レイヤー 1
 62
   250
420
  2299925
370
    18
100
AcDbSpline
210
0.0
220
0.0
230
1.0
 70
     8
 71
     3
 72
    20
 73
    16
 74
     0
 42
0.0000000001
 43
0.0000000001
 40
0.0
 40
0.0
 40
0.0
 40
0.0
 40
1.0
 40
1.0
 40
1.0
 40
2.0
 40
2.0
 40
2.0
 40
3.0
 40
3.0
 40
3.0
 40
4.0
 40
4.0
 40
4.0
 40
5.0
 40
5.0
 40
5.0
 40
5.0
 10
190.9656418116417
 20
-97.47103164510214
 30
0.0
 10
190.9656418116417
 20
-97.47103164510214
 30
0.0
 10
190.4412121860423
 20
-92.67420716346437
 30
0.0
 10
186.7027573837978
 20
-91.2405512211399
 30
0.0
 10
185.4832547981628
 20
-90.77288550868443
 30
0.0
 10
184.1647320380227
 20
-90.90616269827878
 30
0.0
 10
182.9161078001075
 20
-91.28935362649203
 30
0.0
 10
180.4553218207294
 20
-92.04454548881443
 30
0.0
 10
173.5956584620738
 20
-96.85802826883158
 30
0.0
 10
172.6674235175909
 20
-112.6960370090746
 30
0.0
 10
172.6674235175909
 20
-112.6960370090746
 30
0.0
 10
171.1563387722065
 20
-128.6898374000212
 30
0.0
 10
180.8556947019845
 20
-128.7626132762402
 30
0.0
 10
180.8556947019845
 20
-128.7626132762402
 30
0.0
 10
186.6546438530767
 20
-128.7908612764927
 30
0.0
 10
187.1066777512696
 20
-120.1352234478952
 30
0.0
  0
SPLINE
  5
CC
330
79
100
AcDbEntity
  8
レイヤー 1
 62
   250
420
  2299925
370
    18
100
AcDbSpline
210
0.0
220
0.0
230
1.0
 70
     8
 71
     3
 72
    20
 73
    16
 74
     0
 42
0.0000000001
 43
0.0000000001
 40
0.0
 40
0.0
 40
0.0
 40
0.0
 40
1.0
 40
1.0
 40
1.0
 40
2.0
 40
2.0
 40
2.0
 40
3.0
 40
3.0
 40
3.0
 40
4.0
 40
4.0
 40
4.0
 40
5.0
 40
5.0
 40
5.0
 40
5.0
 10
191.4591184281471
 20
-99.17376582601619
 30
0.0
 10
191.4591184281471
 20
-99.17376582601619
 30
0.0
 10
191.0805503553757
 20
-95.63145028794588
 30
0.0
 10
187.9288973192311
 20
-94.6234674962986
 30
0.0
 10
186.6117656279402
 20
-94.20221361335855
 30
0.0
 10
185.1818673821689
 20
-94.39770118975731
 30
0.0
 10
183.9679924963017
 20
-95.06011985461862
 30
0.0
 10
181.4865913518558
 20
-96.41423505399062
 30
0.0
 10
177.1866120190967
 20
-100.2935941889765
 30
0.0
 10
176.5678302962767
 20
-111.0308050838474
 30
0.0
 10
175.6903883863736
 20
-126.2563337108117
 30
0.0
 10
181.8691944134575
 20
-126.1905382736112
 30
0.0
 10
182.8704743624977
 20
-126.1095063608085
 30
0.0
 10
184.079177290825
 20
-126.0116880529637
 30
0.0
 10
185.8445880488658
 20
-125.4539585614089
 30
0.0
 10
186.7081074762808
 20
-122.7558452419484
 30
0.0
  0
SPLINE
  5
CD
330
79
100
AcDbEntity
  8
レイヤー 1
 62
   250
420
  2299925
370
    18
100
AcDbSpline
210
0.0
220
0.0
230
1.0
 70
     8
 71
     3
 72
    20
 73
    16
 74
     0
 42
0.0000000001
 43
0.0000000001
 40
0.0
 40
0.0
 40
0.0
 40
0.0
 40
1.0
 40
1.0
 40
1.0
 40
2.0
 40
2.0
 40
2.0
 40
3.0
 40
3.0
 40
3.0
 40
4.0
 40
4.0
 40
4.0
 40
5.0
 40
5.0
 40
5.0
 40
5.0
 10
190.5670285819512
 20
-95.76931214814747
 30
0.0
 10
190.5670285819512
 20
-95.76931214814747
 30
0.0
 10
189.4160706974302
 20
-93.86503742313044
 30
0.0
 10
187.7553418589639
 20
-92.52939299820146
 30
0.0
 10
186.306446616938
 20
-91.3641161586033
 30
0.0
 10
184.2980542672765
 20
-91.18406363004373
 30
0.0
 10
182.6671921127013
 20
-92.0770676434957
 30
0.0
 10
179.8228055896826
 20
-93.63455585532159
 30
0.0
 10
175.0888216434934
 20
-98.08740685519452
 30
0.0
 10
173.6808757519344
 20
-110.6648756992983
 30
0.0
 10
173.3200612494316
 20
-113.8881055058751
 30
0.0
 10
173.394335453812
 20
-117.1520472067319
 30
0.0
 10
174.0266713122407
 20
-120.3331710416949
 30
0.0
 10
174.7562853904802
 20
-124.0036773140809
 30
0.0
 10
176.5902307190309
 20
-128.2964314517722
 30
0.0
 10
179.7625955365985
 20
-128.6898374000212
 30
0.0
  0
SPLINE
  5
CE
330
79
100
AcDbEntity
  8
レイヤー 1
 62
   250
420
  2299925
370
    18
100
AcDbSpline
210
0.0
220
0.0
230
1.0
 70
     8
 71
     3
 72
    11
 73
     7
 74
     0
 42
0.0000000001
 43
0.0000000001
 40
0.0
 40
0.0
 40
0.0
 40
0.0
 40
1.0
 40
1.0
 40
1.0
 40
2.0
 40
2.0
 40
2.0
 40
2.0
 10
188.1208277670214
 20
-94.80484165358381
 30
0.0
 10
188.1208277670214
 20
-94.80484165358381
 30
0.0
 10
179.7708133463241
 20
-95.85021777391606
 30
0.0
 10
178.5309489398547
 20
-110.2399748476315
 30
0.0
 10
178.5309489398547
 20
-110.2399748476315
 30
0.0
 10
177.1964546278318
 20
-124.441210824662
 30
0.0
 10
182.2268161192455
 20
-126.1050682570452
 30
0.0
  0
SPLINE
  5
CF
330
79
100
AcDbEntity
  8
レイヤー 1
 62
   250
420
  2299925
370
    18
100
AcDbSpline
210
0.0
220
0.0
230
1.0
 70
     8
 71
     3
 72
    17
 73
    13
 74
     0
 42
0.0000000001
 43
0.0000000001
 40
0.0
 40
0.0
 40
0.0
 40
0.0
 40
1.0
 40
1.0
 40
1.0
 40
2.0
 40
2.0
 40
2.0
 40
3.0
 40
3.0
 40
3.0
 40
4.0
 40
4.0
 40
4.0
 40
4.0
 10
222.1845082509732
 20
-93.94308786121795
 30
0.0
 10
222.1845082509732
 20
-93.94308786121795
 30
0.0
 10
187.0033557173979
 20
-100.9173251476146
 30
0.0
 10
187.0033557173979
 20
-100.9173251476146
 30
0.0
 10
187.0033557173979
 20
-100.9173251476146
 30
0.0
 10
182.2976333218828
 20
-103.8620031129797
 30
0.0
 10
182.0157826558921
 20
-112.6960370090765
 30
0.0
 10
182.0157826558921
 20
-112.6960370090765
 30
0.0
 10
181.8889150407097
 20
-120.60017260032
 30
0.0
 10
184.9110845314799
 20
-121.065121752746
 30
0.0
 10
184.9110845314799
 20
-121.065121752746
 30
0.0
 10
186.3500082336635
 20
-121.4972710515151
 30
0.0
 10
187.0835124839024
 20
-120.506281148087
 30
0.0
  0
SPLINE
  5
D0
330
79
100
AcDbEntity
  8
レイヤー 1
 62
   250
420
  2299925
370
    18
100
AcDbSpline
210
0.0
220
0.0
230
1.0
 70
     8
 71
     3
 72
    23
 73
    19
 74
     0
 42
0.0000000001
 43
0.0000000001
 40
0.0
 40
0.0
 40
0.0
 40
0.0
 40
1.0
 40
1.0
 40
1.0
 40
2.0
 40
2.0
 40
2.0
 40
3.0
 40
3.0
 40
3.0
 40
4.0
 40
4.0
 40
4.0
 40
5.0
 40
5.0
 40
5.0
 40
6.0
 40
6.0
 40
6.0
 40
6.0
 10
221.5046779177717
 20
-93.8857233627251
 30
0.0
 10
221.5046779177717
 20
-93.8857233627251
 30
0.0
 10
186.7363238580997
 20
-100.3161457854125
 30
0.0
 10
186.7363238580997
 20
-100.3161457854125
 30
0.0
 10
186.1880975846976
 20
-100.4175404765482
 30
0.0
 10
185.6669368075261
 20
-100.6318132971112
 30
0.0
 10
185.2121666333709
 20
-100.9543299927047
 30
0.0
 10
183.8098711463042
 20
-101.9488184891712
 30
0.0
 10
181.1398112658256
 20
-104.5437687312201
 30
0.0
 10
180.6490506342397
 20
-110.1015186962868
 30
0.0
 10
180.6490506342397
 20
-110.1015186962868
 30
0.0
 10
180.0058411611175
 20
-114.8428266467475
 30
0.0
 10
181.4967496634019
 20
-118.4609316886021
 30
0.0
 10
181.9086112732698
 20
-119.4604286831718
 30
0.0
 10
182.6983594576256
 20
-120.2691241920715
 30
0.0
 10
183.7140179877514
 20
-120.6393430165749
 30
0.0
 10
183.7255233744695
 20
-120.6435368579299
 30
0.0
 10
184.1756885878907
 20
-120.7777655583446
 30
0.0
 10
184.1873123167008
 20
-120.7818984396995
 30
0.0
  0
SPLINE
  5
D1
330
79
100
AcDbEntity
  8
レイヤー 1
 62
   250
420
  2299925
370
    18
100
AcDbSpline
210
0.0
220
0.0
230
1.0
 70
     9
 71
     3
 72
    17
 73
    13
 74
     0
 42
0.0000000001
 43
0.0000000001
 40
0.0
 40
0.0
 40
0.0
 40
0.0
 40
1.0
 40
1.0
 40
1.0
 40
2.0
 40
2.0
 40
2.0
 40
3.0
 40
3.0
 40
3.0
 40
4.0
 40
4.0
 40
4.0
 40
4.0
 10
194.0163387664912
 20
-111.6434437889997
 30
0.0
 10
193.9582201224381
 20
-112.689579381958
 30
0.0
 10
193.5160599617519
 20
-114.0521387036527
 30
0.0
 10
193.002491309117
 20
-114.0521387036527
 30
0.0
 10
192.4889226564822
 20
-114.0521387036527
 30
0.0
 10
191.9757285975097
 20
-113.2126471784366
 30
0.0
 10
192.0661353771489
 20
-111.4561726026053
 30
0.0
 10
192.1291990236171
 20
-110.23093604266
 30
0.0
 10
192.6116175717069
 20
-109.1314268404755
 30
0.0
 10
193.1251862243411
 20
-109.1314268404755
 30
0.0
 10
193.638754876976
 20
-109.1314268404755
 30
0.0
 10
194.0843926286738
 20
-110.4184742697155
 30
0.0
 10
194.0163387664912
 20
-111.6434437889997
 30
0.0
  0
SPLINE
  5
D2
330
79
100
AcDbEntity
  8
レイヤー 1
 62
   250
420
  2299925
370
    18
100
AcDbSpline
210
0.0
220
0.0
230
1.0
 70
     9
 71
     3
 72
    17
 73
    13
 74
     0
 42
0.0000000001
 43
0.0000000001
 40
0.0
 40
0.0
 40
0.0
 40
0.0
 40
1.0
 40
1.0
 40
1.0
 40
2.0
 40
2.0
 40
2.0
 40
3.0
 40
3.0
 40
3.0
 40
4.0
 40
4.0
 40
4.0
 40
4.0
 10
194.5975252070235
 20
-111.4614324293576
 30
0.0
 10
194.5975252070235
 20
-113.7410548523001
 30
0.0
 10
193.8458188905204
 20
-115.5890539575048
 30
0.0
 10
192.9185421565963
 20
-115.5890539575048
 30
0.0
 10
191.9912654226728
 20
-115.5890539575048
 30
0.0
 10
191.1491523265299
 20
-114.1619984152718
 30
0.0
 10
191.1491523265299
 20
-111.8823759923306
 30
0.0
 10
191.1491523265299
 20
-109.6027535693887
 30
0.0
 10
192.2754010158211
 20
-107.5509978620559
 30
0.0
 10
193.2026777497452
 20
-107.5509978620559
 30
0.0
 10
194.1299544836687
 20
-107.5509978620559
 30
0.0
 10
194.5975252070235
 20
-109.1818100064171
 30
0.0
 10
194.5975252070235
 20
-111.4614324293576
 30
0.0
  0
SPLINE
  5
D3
330
79
100
AcDbEntity
  8
レイヤー 1
 62
   250
420
  2299925
370
    18
100
AcDbSpline
210
0.0
220
0.0
230
1.0
 70
     8
 71
     3
 72
    11
 73
     7
 74
     0
 42
0.0000000001
 43
0.0000000001
 40
0.0
 40
0.0
 40
0.0
 40
0.0
 40
1.0
 40
1.0
 40
1.0
 40
2.0
 40
2.0
 40
2.0
 40
2.0
 10
193.2026777497452
 20
-107.5509978620559
 30
0.0
 10
193.2026777497452
 20
-107.5509978620559
 30
0.0
 10
187.339152327482
 20
-107.5509978620559
 30
0.0
 10
187.339152327482
 20
-107.5509978620559
 30
0.0
 10
187.339152327482
 20
-107.5509978620559
 30
0.0
 10
185.8668133447997
 20
-108.5402207222223
 30
0.0
 10
185.8151523278631
 20
-110.1015186962868
 30
0.0
  0
ELLIPSE
  5
D4
330
79
100
AcDbEntity
  8
レイヤー 1
 62
   250
420
  2299925
370
    18
100
AcDbEllipse
 10
186.9904404631631
 20
-112.1475566396106
 30
0.0
 11
0.0000000000000001
 21
1.116751555762548
 31
0.0
210
0.0
220
0.0
230
1.0
 40
0.5204259063121652
 41
0.0
 42
6.283185307179585
  0
ELLIPSE
  5
D5
330
79
100
AcDbEntity
  8
レイヤー 1
 62
   250
420
  2299925
370
    18
100
AcDbEllipse
 10
186.8483726665882
 20
-112.1995236151929
 30
0.0
 11
0.0000000000000001
 21
2.098004918905424
 31
0.0
210
0.0
220
0.0
230
1.0
 40
0.4924775578048177
 41
0.0
 42
6.283185307179585
  0
LINE
  5
D6
330
79
100
AcDbEntity
  8
レイヤー 1
 62
   250
420
  2299925
370
    18
100
AcDbLine
 10
183.8520336842871
 20
-114.2975285340983
 30
0.0
 11
186.7192201242471
 21
-114.2975285340983
 31
0.0
  0
SPLINE
  5
D7
330
79
100
AcDbEntity
  8
レイヤー 1
 62
   250
420
  2299925
370
    18
100
AcDbSpline
210
0.0
220
0.0
230
1.0
 70
     8
 71
     3
 72
    14
 73
    10
 74
     0
 42
0.0000000001
 43
0.0000000001
 40
0.0
 40
0.0
 40
0.0
 40
0.0
 40
1.0
 40
1.0
 40
1.0
 40
2.0
 40
2.0
 40
2.0
 40
3.0
 40
3.0
 40
3.0
 40
3.0
 10
186.7192201242471
 20
-110.1015186962868
 30
0.0
 10
186.7192201242471
 20
-110.1015186962868
 30
0.0
 10
184.4428205530989
 20
-110.1015186962868
 30
0.0
 10
184.4428205530989
 20
-110.1015186962868
 30
0.0
 10
184.2401003129576
 20
-110.1015186962868
 30
0.0
 10
184.0502887465285
 20
-110.1986390559182
 30
0.0
 10
183.9337786722389
 20
-110.3645332943702
 30
0.0
 10
183.4796564778546
 20
-111.0111405174793
 30
0.0
 10
182.4797511037023
 20
-112.7393166693146
 30
0.0
 10
183.9230675825733
 20
-114.2975285340983
 30
0.0
  0
SPLINE
  5
D8
330
79
100
AcDbEntity
  8
レイヤー 1
 62
   250
420
  2299925
370
    18
100
AcDbSpline
210
0.0
220
0.0
230
1.0
 70
     8
 71
     3
 72
    11
 73
     7
 74
     0
 42
0.0000000001
 43
0.0000000001
 40
0.0
 40
0.0
 40
0.0
 40
0.0
 40
1.0
 40
1.0
 40
1.0
 40
2.0
 40
2.0
 40
2.0
 40
2.0
 10
192.9185421565963
 20
-115.5890539575048
 30
0.0
 10
192.7908461212513
 20
-115.5789658674208
 30
0.0
 10
187.209999785142
 20
-115.5890539575048
 30
0.0
 10
187.209999785142
 20
-115.5890539575048
 30
0.0
 10
187.209999785142
 20
-115.5890539575048
 30
0.0
 10
186.7450506327153
 20
-115.4599014151642
 30
0.0
 10
186.2026099548851
 20
-114.2975285340983
 30
0.0
  0
LWPOLYLINE
  5
D9
330
79
100
AcDbEntity
  8
レイヤー 1
 62
   250
420
  2299925
370
    18
100
AcDbPolyline
 90
        6
 70
     0
 43
0.0
 10
193.4093218174894
 20
-91.5150200652145
 10
193.4157794446079
 20
-94.98922345417984
 10
194.1325760545974
 20
-94.98922345417984
 10
194.1325760545974
 20
-96.61654548767145
 10
193.7709489360431
 20
-98.78630819899328
 10
193.6585806054302
 20
-99.03587134598303
  0
SPLINE
  5
DA
330
79
100
AcDbEntity
  8
レイヤー 1
 62
   250
420
  2299925
370
    18
100
AcDbSpline
210
0.0
220
0.0
230
1.0
 70
     8
 71
     3
 72
    14
 73
    10
 74
     0
 42
0.0000000001
 43
0.0000000001
 40
0.0
 40
0.0
 40
0.0
 40
0.0
 40
1.0
 40
1.0
 40
1.0
 40
2.0
 40
2.0
 40
2.0
 40
3.0
 40
3.0
 40
3.0
 40
3.0
 10
175.2907381553491
 20
-125.9726119179974
 30
0.0
 10
175.2907381553491
 20
-125.9726119179974
 30
0.0
 10
173.4645367298331
 20
-127.6615878527908
 30
0.0
 10
173.4645367298331
 20
-127.6615878527908
 30
0.0
 10
173.4645367298331
 20
-127.6615878527908
 30
0.0
 10
172.9386438565054
 20
-128.7755285304791
 30
0.0
 10
174.2559997883795
 20
-128.4849353102123
 30
0.0
 10
174.2559997883795
 20
-128.4849353102123
 30
0.0
 10
175.9898726693008
 20
-126.8769861580721
 30
0.0
 10
175.9898726693008
 20
-126.8769861580721
 30
0.0
  0
ENDBLK
  5
7C
330
79
100
AcDbEntity
  8
0
100
AcDbBlockEnd
  0
ENDSEC
  0
SECTION
  2
ENTITIES
  0
INSERT
  5
7A
330
70
100
AcDbEntity
  8
レイヤー 1
100
AcDbBlockReference
  2
Block_0
 10
0.0
 20
0.0
 30
0.0
  0
ENDSEC
  0
SECTION
  2
OBJECTS
  0
DICTIONARY
  5
C
330
0
100
AcDbDictionary
281
     1
  3
ACAD_COLOR
350
63
  3
ACAD_DETAILVIEWSTYLE
350
6A
  3
ACAD_GROUP
350
D
  3
ACAD_LAYOUT
350
62
  3
ACAD_MATERIAL
350
10
  3
ACAD_MLEADERSTYLE
350
66
  3
ACAD_MLINESTYLE
350
5F
  3
ACAD_PLOTSETTINGS
350
61
  3
ACAD_PLOTSTYLENAME
350
E
  3
ACAD_SCALELIST
350
42
  3
ACAD_SECTIONVIEWSTYLE
350
68
  3
ACAD_TABLESTYLE
350
64
  3
ACAD_VISUALSTYLE
350
29
  3
ACDB_RECOMPOSE_DATA
350
E3
  3
AcDbVariableDictionary
350
DB
  0
DICTIONARY
  5
63
102
{ACAD_REACTORS
330
C
102
}
330
C
100
AcDbDictionary
281
     1
  0
DICTIONARY
  5
6A
102
{ACAD_REACTORS
330
C
102
}
330
C
100
AcDbDictionary
281
     1
  3
Imperial24
350
6B
  0
DICTIONARY
  5
D
102
{ACAD_REACTORS
330
C
102
}
330
C
100
AcDbDictionary
281
     1
  0
DICTIONARY
  5
62
102
{ACAD_REACTORS
330
C
102
}
330
C
100
AcDbDictionary
281
     1
  3
Layout1
350
6F
  3
Layout2
350
77
  3
Model
350
73
  0
DICTIONARY
  5
10
102
{ACAD_REACTORS
330
C
102
}
330
C
100
AcDbDictionary
281
     1
  3
ByBlock
350
19
  3
ByLayer
350
11
  3
Global
350
21
  0
DICTIONARY
  5
66
102
{ACAD_REACTORS
330
C
102
}
330
C
100
AcDbDictionary
281
     1
  3
Standard
350
67
  0
DICTIONARY
  5
5F
102
{ACAD_REACTORS
330
C
102
}
330
C
100
AcDbDictionary
281
     1
  3
Standard
350
60
  0
DICTIONARY
  5
61
102
{ACAD_REACTORS
330
C
102
}
330
C
100
AcDbDictionary
281
     1
  0
ACDBDICTIONARYWDFLT
  5
E
102
{ACAD_REACTORS
330
C
102
}
330
C
100
AcDbDictionary
281
     1
  3
Normal
350
F
100
AcDbDictionaryWithDefault
340
F
  0
DICTIONARY
  5
42
102
{ACAD_REACTORS
330
C
102
}
330
C
100
AcDbDictionary
281
     1
  3
A0
350
43
  3
A1
350
44
  3
A2
350
45
  3
A3
350
46
  3
A4
350
47
  3
A5
350
48
  3
A6
350
49
  3
A7
350
4A
  3
A8
350
4B
  3
A9
350
4C
  3
B0
350
4D
  3
B1
350
4E
  3
B2
350
4F
  3
B3
350
50
  3
B4
350
51
  3
B5
350
52
  3
B6
350
53
  0
DICTIONARY
  5
68
102
{ACAD_REACTORS
330
C
102
}
330
C
100
AcDbDictionary
281
     1
  3
Imperial24
350
69
  0
DICTIONARY
  5
64
102
{ACAD_REACTORS
330
C
102
}
330
C
100
AcDbDictionary
281
     1
  3
Standard
350
65
  0
DICTIONARY
  5
29
102
{ACAD_REACTORS
330
C
102
}
330
C
100
AcDbDictionary
281
     1
  3
2dWireframe
350
2F
  3
Basic
350
2E
  3
Brighten
350
35
  3
ColorChange
350
39
  3
Conceptual
350
32
  3
Dim
350
34
  3
EdgeColorOff
350
41
  3
Facepattern
350
38
  3
Flat
350
2A
  3
FlatWithEdges
350
2B
  3
Gouraud
350
2C
  3
GouraudWithEdges
350
2D
  3
Hidden
350
31
  3
JitterOff
350
3F
  3
Linepattern
350
37
  3
OverhangOff
350
40
  3
Realistic
350
33
  3
Shaded
350
3E
  3
Shaded with edges
350
3D
  3
Shades of Gray
350
3A
  3
Sketchy
350
3B
  3
Thicken
350
36
  3
Wireframe
350
30
  3
X-Ray
350
3C
  0
XRECORD
  5
E3
102
{ACAD_REACTORS
330
C
102
}
330
C
100
AcDbXrecord
280
     1
 90
        1
330
65
  0
DICTIONARY
  5
DB
102
{ACAD_REACTORS
330
C
102
}
330
C
100
AcDbDictionary
281
     1
  3
CANNOSCALE
350
E0
  3
CMLEADERSTYLE
350
DD
  3
CTABLESTYLE
350
DC
  3
CVIEWDETAILSTYLE
350
DE
  3
CVIEWSECTIONSTYLE
350
DF
  0
ACDBDETAILVIEWSTYLE
  5
6B
102
{ACAD_REACTORS
330
6A
102
}
330
6A
100
AcDbModelDocViewStyle
 70
     0
  3
Imperial24
290
     1
300
Imperial24
 90
        0
100
AcDbDetailViewStyle
 70
     0
 71
     0
 90
        3
 71
     1
340
55
 62
   256
 40
0.24
340
0
 62
   256
 40
0.24
300

 40
0.36
280
     3
 71
     2
340
5D
 90
       25
 62
   256
 71
     3
340
55
 62
   256
 40
0.24
 90
        1
 40
0.75
 90
        1
300
%<\AcVar ViewType \f "%tc1">% %<\AcVar ViewDetailId>%\PSCALE %<\AcVar ViewScale \f "%sn">%
 71
     4
340
5D
 90
       25
 62
   256
340
5D
 90
       25
 62
   256
280
     0
  0
LAYOUT
  5
6F
102
{ACAD_REACTORS
330
62
102
}
330
62
100
AcDbPlotSettings
  1

  2

  4

  6

 40
0.0
 41
0.0
 42
0.0
 43
0.0
 44
0.0
 45
0.0
 46
0.0
 47
0.0
 48
0.0
 49
0.0
140
0.0
141
0.0
142
1.0
143
1.0
 70
   688
 72
     0
 73
     0
 74
     5
  7

 75
    16
147
1.0
 76
     0
 77
     2
 78
   300
148
0.0
149
0.0
100
AcDbLayout
  1
Layout1
 70
     1
 71
     1
 10
0.0
 20
0.0
 11
12.0
 21
9.0
 12
0.0
 22
0.0
 32
0.0
 14
0.0
 24
0.0
 34
0.0
 15
0.0
 25
0.0
 35
0.0
146
0.0
 13
0.0
 23
0.0
 33
0.0
 16
1.0
 26
0.0
 36
0.0
 17
0.0
 27
1.0
 37
0.0
 76
     0
330
6C
  0
LAYOUT
  5
77
102
{ACAD_REACTORS
330
62
102
}
330
62
100
AcDbPlotSettings
  1

  2

  4

  6

 40
0.0
 41
0.0
 42
0.0
 43
0.0
 44
0.0
 45
0.0
 46
0.0
 47
0.0
 48
0.0
 49
0.0
140
0.0
141
0.0
142
1.0
143
1.0
 70
   688
 72
     0
 73
     0
 74
     5
  7

 75
    16
147
1.0
 76
     0
 77
     2
 78
   300
148
0.0
149
0.0
100
AcDbLayout
  1
Layout2
 70
     1
 71
     2
 10
0.0
 20
0.0
 11
12.0
 21
9.0
 12
0.0
 22
0.0
 32
0.0
 14
0.0
 24
0.0
 34
0.0
 15
0.0
 25
0.0
 35
0.0
146
0.0
 13
0.0
 23
0.0
 33
0.0
 16
1.0
 26
0.0
 36
0.0
 17
0.0
 27
1.0
 37
0.0
 76
     0
330
74
  0
LAYOUT
  5
73
102
{ACAD_REACTORS
330
62
102
}
330
62
100
AcDbPlotSettings
  1

  2

  4

  6

 40
0.0
 41
0.0
 42
0.0
 43
0.0
 44
0.0
 45
0.0
 46
0.0
 47
0.0
 48
0.0
 49
0.0
140
0.0
141
0.0
142
1.0
143
1.0
 70
  1712
 72
     0
 73
     0
 74
     0
  7

 75
     0
147
1.0
 76
     0
 77
     2
 78
   300
148
0.0
149
0.0
100
AcDbLayout
  1
Model
 70
     1
 71
     0
 10
0.0
 20
0.0
 11
12.0
 21
9.0
 12
0.0
 22
0.0
 32
0.0
 14
0.0
 24
0.0
 34
0.0
 15
0.0
 25
0.0
 35
0.0
146
0.0
 13
0.0
 23
0.0
 33
0.0
 16
1.0
 26
0.0
 36
0.0
 17
0.0
 27
1.0
 37
0.0
 76
     0
330
70
  0
MATERIAL
  5
19
102
{ACAD_XDICTIONARY
360
1A
102
}
102
{ACAD_REACTORS
330
10
102
}
330
10
100
AcDbMaterial
  1
ByBlock
 72
     0
 43
0.0208333333333333
 43
0.0
 43
0.0
 43
0.0
 43
0.0
 43
0.0208333333333333
 43
0.0
 43
0.0
 43
0.0
 43
0.0
 43
1.0
 43
0.0
 43
0.0
 43
0.0
 43
0.0
 43
1.0
 77
     0
 47
0.0208333333333333
 47
0.0
 47
0.0
 47
0.0
 47
0.0
 47
0.0208333333333333
 47
0.0
 47
0.0
 47
0.0
 47
0.0
 47
1.0
 47
0.0
 47
0.0
 47
0.0
 47
0.0
 47
1.0
171
     0
 49
0.0208333333333333
 49
0.0
 49
0.0
 49
0.0
 49
0.0
 49
0.0208333333333333
 49
0.0
 49
0.0
 49
0.0
 49
0.0
 49
1.0
 49
0.0
 49
0.0
 49
0.0
 49
0.0
 49
1.0
175
     0
142
0.0208333333333333
142
0.0
142
0.0
142
0.0
142
0.0
142
0.0208333333333333
142
0.0
142
0.0
142
0.0
142
0.0
142
1.0
142
0.0
142
0.0
142
0.0
142
0.0
142
1.0
179
     0
144
0.0208333333333333
144
0.0
144
0.0
144
0.0
144
0.0
144
0.0208333333333333
144
0.0
144
0.0
144
0.0
144
0.0
144
1.0
144
0.0
144
0.0
144
0.0
144
0.0
144
1.0
147
0.0208333333333333
147
0.0
147
0.0
147
0.0
147
0.0
147
0.0208333333333333
147
0.0
147
0.0
147
0.0
147
0.0
147
1.0
147
0.0
147
0.0
147
0.0
147
0.0
147
1.0
  0
MATERIAL
  5
11
102
{ACAD_XDICTIONARY
360
12
102
}
102
{ACAD_REACTORS
330
10
102
}
330
10
100
AcDbMaterial
  1
ByLayer
 72
     0
 43
0.0208333333333333
 43
0.0
 43
0.0
 43
0.0
 43
0.0
 43
0.0208333333333333
 43
0.0
 43
0.0
 43
0.0
 43
0.0
 43
1.0
 43
0.0
 43
0.0
 43
0.0
 43
0.0
 43
1.0
 77
     0
 47
0.0208333333333333
 47
0.0
 47
0.0
 47
0.0
 47
0.0
 47
0.0208333333333333
 47
0.0
 47
0.0
 47
0.0
 47
0.0
 47
1.0
 47
0.0
 47
0.0
 47
0.0
 47
0.0
 47
1.0
171
     0
 49
0.0208333333333333
 49
0.0
 49
0.0
 49
0.0
 49
0.0
 49
0.0208333333333333
 49
0.0
 49
0.0
 49
0.0
 49
0.0
 49
1.0
 49
0.0
 49
0.0
 49
0.0
 49
0.0
 49
1.0
175
     0
142
0.0208333333333333
142
0.0
142
0.0
142
0.0
142
0.0
142
0.0208333333333333
142
0.0
142
0.0
142
0.0
142
0.0
142
1.0
142
0.0
142
0.0
142
0.0
142
0.0
142
1.0
179
     0
144
0.0208333333333333
144
0.0
144
0.0
144
0.0
144
0.0
144
0.0208333333333333
144
0.0
144
0.0
144
0.0
144
0.0
144
1.0
144
0.0
144
0.0
144
0.0
144
0.0
144
1.0
147
0.0208333333333333
147
0.0
147
0.0
147
0.0
147
0.0
147
0.0208333333333333
147
0.0
147
0.0
147
0.0
147
0.0
147
1.0
147
0.0
147
0.0
147
0.0
147
0.0
147
1.0
  0
MATERIAL
  5
21
102
{ACAD_XDICTIONARY
360
22
102
}
102
{ACAD_REACTORS
330
10
102
}
330
10
100
AcDbMaterial
  1
Global
 72
     0
 43
0.0208333333333333
 43
0.0
 43
0.0
 43
0.0
 43
0.0
 43
0.0208333333333333
 43
0.0
 43
0.0
 43
0.0
 43
0.0
 43
1.0
 43
0.0
 43
0.0
 43
0.0
 43
0.0
 43
1.0
 77
     0
 47
0.0208333333333333
 47
0.0
 47
0.0
 47
0.0
 47
0.0
 47
0.0208333333333333
 47
0.0
 47
0.0
 47
0.0
 47
0.0
 47
1.0
 47
0.0
 47
0.0
 47
0.0
 47
0.0
 47
1.0
171
     0
 49
0.0208333333333333
 49
0.0
 49
0.0
 49
0.0
 49
0.0
 49
0.0208333333333333
 49
0.0
 49
0.0
 49
0.0
 49
0.0
 49
1.0
 49
0.0
 49
0.0
 49
0.0
 49
0.0
 49
1.0
175
     0
142
0.0208333333333333
142
0.0
142
0.0
142
0.0
142
0.0
142
0.0208333333333333
142
0.0
142
0.0
142
0.0
142
0.0
142
1.0
142
0.0
142
0.0
142
0.0
142
0.0
142
1.0
179
     0
144
0.0208333333333333
144
0.0
144
0.0
144
0.0
144
0.0
144
0.0208333333333333
144
0.0
144
0.0
144
0.0
144
0.0
144
1.0
144
0.0
144
0.0
144
0.0
144
0.0
144
1.0
147
0.0208333333333333
147
0.0
147
0.0
147
0.0
147
0.0
147
0.0208333333333333
147
0.0
147
0.0
147
0.0
147
0.0
147
1.0
147
0.0
147
0.0
147
0.0
147
0.0
147
1.0
  0
MLEADERSTYLE
  5
67
102
{ACAD_REACTORS
330
66
102
}
330
66
100
AcDbMLeaderStyle
179
     2
170
     2
171
     1
172
     0
 90
        2
 40
0.0
 41
0.0
173
     1
 91
-1056964608
340
5B
 92
       -2
290
     1
 42
0.09
291
     1
 43
0.36
  3
Standard
 44
0.18
300

342
55
174
     1
178
     6
175
     1
176
     0
 93
-1056964608
 45
0.18
292
     0
297
     0
 46
0.18
 94
-1056964608
 47
1.0
 49
1.0
140
1.0
293
     1
141
0.0
294
     1
177
     0
142
1.0
295
     1
296
     0
143
0.125
271
     0
272
     9
273
     9
298
     1
  0
MLINESTYLE
  5
60
102
{ACAD_REACTORS
330
5F
102
}
330
5F
100
AcDbMlineStyle
  2
STANDARD
 70
     0
  3

 62
   256
 51
90.0
 52
90.0
 71
     2
 49
0.5
 62
   256
  6
BYLAYER
 49
-0.5
 62
   256
  6
BYLAYER
  0
ACDBPLACEHOLDER
  5
F
102
{ACAD_REACTORS
330
E
102
}
330
E
  0
SCALE
  5
43
102
{ACAD_REACTORS
330
42
102
}
330
42
100
AcDbScale
 70
     0
300
1:1
140
1.0
141
1.0
290
     1
  0
SCALE
  5
44
102
{ACAD_REACTORS
330
42
102
}
330
42
100
AcDbScale
 70
     0
300
1/128" = 1'-0"
140
0.0078125
141
12.0
290
     0
  0
SCALE
  5
45
102
{ACAD_REACTORS
330
42
102
}
330
42
100
AcDbScale
 70
     0
300
1/64" = 1'-0"
140
0.015625
141
12.0
290
     0
  0
SCALE
  5
46
102
{ACAD_REACTORS
330
42
102
}
330
42
100
AcDbScale
 70
     0
300
1/32" = 1'-0"
140
0.03125
141
12.0
290
     0
  0
SCALE
  5
47
102
{ACAD_REACTORS
330
42
102
}
330
42
100
AcDbScale
 70
     0
300
1/16" = 1'-0"
140
0.0625
141
12.0
290
     0
  0
SCALE
  5
48
102
{ACAD_REACTORS
330
42
102
}
330
42
100
AcDbScale
 70
     0
300
3/32" = 1'-0"
140
0.09375
141
12.0
290
     0
  0
SCALE
  5
49
102
{ACAD_REACTORS
330
42
102
}
330
42
100
AcDbScale
 70
     0
300
1/8" = 1'-0"
140
0.125
141
12.0
290
     0
  0
SCALE
  5
4A
102
{ACAD_REACTORS
330
42
102
}
330
42
100
AcDbScale
 70
     0
300
3/16" = 1'-0"
140
0.1875
141
12.0
290
     0
  0
SCALE
  5
4B
102
{ACAD_REACTORS
330
42
102
}
330
42
100
AcDbScale
 70
     0
300
1/4" = 1'-0"
140
0.25
141
12.0
290
     0
  0
SCALE
  5
4C
102
{ACAD_REACTORS
330
42
102
}
330
42
100
AcDbScale
 70
     0
300
3/8" = 1'-0"
140
0.375
141
12.0
290
     0
  0
SCALE
  5
4D
102
{ACAD_REACTORS
330
42
102
}
330
42
100
AcDbScale
 70
     0
300
1/2" = 1'-0"
140
0.5
141
12.0
290
     0
  0
SCALE
  5
4E
102
{ACAD_REACTORS
330
42
102
}
330
42
100
AcDbScale
 70
     0
300
3/4" = 1'-0"
140
0.75
141
12.0
290
     0
  0
SCALE
  5
4F
102
{ACAD_REACTORS
330
42
102
}
330
42
100
AcDbScale
 70
     0
300
1" = 1'-0"
140
1.0
141
12.0
290
     0
  0
SCALE
  5
50
102
{ACAD_REACTORS
330
42
102
}
330
42
100
AcDbScale
 70
     0
300
1-1/2" = 1'-0"
140
1.5
141
12.0
290
     0
  0
SCALE
  5
51
102
{ACAD_REACTORS
330
42
102
}
330
42
100
AcDbScale
 70
     0
300
3" = 1'-0"
140
3.0
141
12.0
290
     0
  0
SCALE
  5
52
102
{ACAD_REACTORS
330
42
102
}
330
42
100
AcDbScale
 70
     0
300
6" = 1'-0"
140
6.0
141
12.0
290
     0
  0
SCALE
  5
53
102
{ACAD_REACTORS
330
42
102
}
330
42
100
AcDbScale
 70
     0
300
1'-0" = 1'-0"
140
12.0
141
12.0
290
     0
  0
ACDBSECTIONVIEWSTYLE
  5
69
102
{ACAD_REACTORS
330
68
102
}
330
68
100
AcDbModelDocViewStyle
 70
     0
  3
Imperial24
290
     1
300
Imperial24
 90
        0
100
AcDbSectionViewStyle
 70
     0
 71
     0
 90
       78
 71
     1
340
55
 62
   256
 40
0.24
340
0
340
0
 62
   256
 40
0.24
300
I, O, Q, S, X, Z
 40
0.48
 90
        3
 40
0.18
 90
        1
 71
     2
340
5D
 90
       25
 62
   256
340
5D
 90
       50
 62
   256
 40
0.24
 40
0.0
 40
0.24
 71
     3
340
55
 62
   256
 40
0.24
 90
        1
 40
0.75
 90
        1
300
%<\AcVar ViewType \f "%tc1">% %<\AcVar ViewSectionStartId>%-%<\AcVar ViewSectionEndId>%\PSCALE %<\AcVar ViewScale \f "%sn">%
 71
     4
 62
   256
 62
   257
300
ANSI31
 40
1.0
 90
        0
290
     0
290
     0
 90
        6
 40
0.0
 40
1.570796326794896
 40
0.2617993877991494
 40
1.308996938995747
 40
-0.2617993877991494
 40
1.832595714594046
  0
TABLESTYLE
  5
65
102
{ACAD_XDICTIONARY
360
E1
102
}
102
{ACAD_REACTORS
330
64
102
}
330
64
100
AcDbTableStyle
280
     0
  3
Standard
 70
     0
 71
     0
 40
0.06
 41
0.06
280
     0
281
     0
  7
Standard
140
0.18
170
     2
 62
     0
 63
     7
283
     0
 90
      512
 91
        0
  1

274
    -2
284
     1
 64
     0
275
    -2
285
     1
 65
     0
276
    -2
286
     1
 66
     0
277
    -2
287
     1
 67
     0
278
    -2
288
     1
 68
     0
279
    -2
289
     1
 69
     0
  7
Standard
140
0.25
170
     5
 62
     0
 63
     7
283
     0
 90
      512
 91
        0
  1

274
    -2
284
     1
 64
     0
275
    -2
285
     1
 65
     0
276
    -2
286
     1
 66
     0
277
    -2
287
     1
 67
     0
278
    -2
288
     1
 68
     0
279
    -2
289
     1
 69
     0
  7
Standard
140
0.18
170
     5
 62
     0
 63
     7
283
     0
 90
      512
 91
        0
  1

274
    -2
284
     1
 64
     0
275
    -2
285
     1
 65
     0
276
    -2
286
     1
 66
     0
277
    -2
287
     1
 67
     0
278
    -2
288
     1
 68
     0
279
    -2
289
     1
 69
     0
  0
VISUALSTYLE
  5
2F
102
{ACAD_REACTORS
330
29
102
}
330
29
100
AcDbVisualStyle
  2
2dWireframe
 70
     4
177
     3
291
     0
 70
    58
 90
        0
176
     1
 90
        2
176
     1
 90
        0
176
     1
 90
        0
176
     1
 40
0.6
176
     1
 40
30.0
176
     1
 62
     7
420
 16777215
176
     1
 90
        1
176
     1
 90
        4
176
     1
 62
     7
176
     1
 62
   257
176
     1
 90
        1
176
     1
 90
        1
176
     1
 40
1.0
176
     1
 90
        0
176
     1
 62
   257
176
     1
 40
1.0
176
     1
 90
        1
176
     1
 90
        6
176
     1
 90
        2
176
     1
 62
     7
176
     1
 90
        5
176
     1
 90
        0
176
     1
 90
        0
176
     1
290
     0
176
     1
 90
        1
176
     1
 40
0.0
176
     1
 90
        0
176
     1
290
     1
176
     1
290
     1
176
     1
290
     0
176
     1
290
     0
176
     1
290
     0
176
     1
290
     0
176
     1
290
     0
176
     1
290
     0
176
     1
290
     0
176
     1
 90
       50
176
     1
 40
0.0
176
     1
 40
1.0
176
     1
 90
        0
176
     1
 62
    18
420
        0
176
     1
 90
       50
176
     1
 90
        3
176
     1
 62
     5
420
      255
176
     1
290
     0
176
     1
 90
       50
176
     1
 90
       50
176
     1
 90
       50
176
     1
290
     0
176
     1
 90
       50
176
     1
 62
   256
176
     0
 40
1.0
176
     0
 90
        2
176
     1
  1
strokes_ogs.tif
176
     1
290
     0
176
     1
 40
1.0
176
     1
 40
1.0
176
     1
  0
VISUALSTYLE
  5
2E
102
{ACAD_REACTORS
330
29
102
}
330
29
100
AcDbVisualStyle
  2
Basic
 70
     7
177
     3
291
     1
 70
    58
 90
        1
176
     1
 90
        0
176
     1
 90
        1
176
     1
 90
        0
176
     1
 40
0.6
176
     1
 40
30.0
176
     1
 62
     7
420
 16777215
176
     1
 90
        0
176
     1
 90
        4
176
     1
 62
     7
176
     1
 62
   257
176
     1
 90
        1
176
     1
 90
        1
176
     1
 40
1.0
176
     1
 90
        8
176
     1
 62
     7
176
     1
 40
1.0
176
     1
 90
        1
176
     1
 90
        6
176
     1
 90
        2
176
     1
 62
     7
176
     1
 90
        5
176
     1
 90
        0
176
     1
 90
        0
176
     1
290
     0
176
     1
 90
        1
176
     1
 40
0.0
176
     1
 90
        0
176
     1
290
     0
176
     1
290
     1
176
     1
290
     1
176
     1
290
     0
176
     1
290
     0
176
     1
290
     0
176
     1
290
     0
176
     1
290
     0
176
     1
290
     0
176
     1
 90
       50
176
     1
 40
0.0
176
     1
 40
1.0
176
     1
 90
        0
176
     1
 62
    18
420
        0
176
     1
 90
       50
176
     1
 90
        3
176
     1
 62
     5
420
      255
176
     1
290
     0
176
     1
 90
       50
176
     1
 90
       50
176
     1
 90
       50
176
     1
290
     0
176
     1
 90
       50
176
     1
 62
   256
176
     0
 40
1.0
176
     0
 90
        2
176
     1
  1
strokes_ogs.tif
176
     1
290
     0
176
     1
 40
1.0
176
     1
 40
1.0
176
     1
  0
VISUALSTYLE
  5
35
102
{ACAD_REACTORS
330
29
102
}
330
29
100
AcDbVisualStyle
  2
Brighten
 70
    12
177
     3
291
     1
 70
    58
 90
        2
176
     1
 90
        2
176
     1
 90
        0
176
     1
 90
        0
176
     1
 40
0.6
176
     1
 40
30.0
176
     1
 62
     7
420
 16777215
176
     1
 90
        1
176
     1
 90
        4
176
     1
 62
     7
176
     1
 62
   257
176
     1
 90
        1
176
     1
 90
        1
176
     1
 40
1.0
176
     1
 90
        8
176
     1
 62
     7
176
     1
 40
1.0
176
     1
 90
        1
176
     1
 90
        6
176
     1
 90
        2
176
     1
 62
     7
176
     1
 90
        5
176
     1
 90
        0
176
     1
 90
        0
176
     1
290
     0
176
     1
 90
        1
176
     1
 40
50.0
176
     1
 90
        0
176
     1
290
     0
176
     1
290
     1
176
     1
290
     1
176
     1
290
     0
176
     1
290
     0
176
     1
290
     0
176
     1
290
     0
176
     1
290
     0
176
     1
290
     0
176
     1
 90
       50
176
     1
 40
0.0
176
     1
 40
1.0
176
     1
 90
        0
176
     1
 62
    18
420
        0
176
     1
 90
       50
176
     1
 90
        3
176
     1
 62
     5
420
      255
176
     1
290
     0
176
     1
 90
       50
176
     1
 90
       50
176
     1
 90
       50
176
     1
290
     0
176
     1
 90
       50
176
     1
 62
   256
176
     0
 40
1.0
176
     0
 90
        2
176
     1
  1
strokes_ogs.tif
176
     1
290
     0
176
     1
 40
1.0
176
     1
 40
1.0
176
     1
  0
VISUALSTYLE
  5
39
102
{ACAD_REACTORS
330
29
102
}
330
29
100
AcDbVisualStyle
  2
ColorChange
 70
    16
177
     3
291
     1
 70
    58
 90
        2
176
     1
 90
        2
176
     1
 90
        3
176
     1
 90
        0
176
     1
 40
0.6
176
     1
 40
30.0
176
     1
 62
     8
420
  8421504
176
     1
 90
        1
176
     1
 90
        4
176
     1
 62
     7
176
     1
 62
   257
176
     1
 90
        1
176
     1
 90
        1
176
     1
 40
1.0
176
     1
 90
        8
176
     1
 62
     8
420
  8421504
176
     1
 40
1.0
176
     1
 90
        1
176
     1
 90
        6
176
     1
 90
        2
176
     1
 62
     7
176
     1
 90
        5
176
     1
 90
        0
176
     1
 90
        0
176
     1
290
     0
176
     1
 90
        1
176
     1
 40
0.0
176
     1
 90
        0
176
     1
290
     0
176
     1
290
     1
176
     1
290
     1
176
     1
290
     0
176
     1
290
     0
176
     1
290
     0
176
     1
290
     0
176
     1
290
     0
176
     1
290
     0
176
     1
 90
       50
176
     1
 40
0.0
176
     1
 40
1.0
176
     1
 90
        0
176
     1
 62
    18
420
        0
176
     1
 90
       50
176
     1
 90
        3
176
     1
 62
     5
420
      255
176
     1
290
     0
176
     1
 90
       50
176
     1
 90
       50
176
     1
 90
       50
176
     1
290
     0
176
     1
 90
       50
176
     1
 62
   256
176
     0
 40
1.0
176
     0
 90
        2
176
     1
  1
strokes_ogs.tif
176
     1
290
     0
176
     1
 40
1.0
176
     1
 40
1.0
176
     1
  0
VISUALSTYLE
  5
32
102
{ACAD_REACTORS
330
29
102
}
330
29
100
AcDbVisualStyle
  2
Conceptual
 70
     9
177
     3
291
     0
 70
    58
 90
        3
176
     1
 90
        2
176
     1
 90
        0
176
     1
 90
        0
176
     1
 40
0.6
176
     1
 40
30.0
176
     1
 62
     7
420
 16777215
176
     1
 90
        2
176
     1
 90
        2
176
     1
 62
     7
176
     1
 62
   257
176
     1
 90
        1
176
     1
 90
        1
176
     1
 40
179.0
176
     1
 90
        8
176
     1
 62
     7
176
     1
 40
1.0
176
     1
 90
        1
176
     1
 90
        6
176
     1
 90
        2
176
     1
 62
     7
176
     1
 90
        3
176
     1
 90
        0
176
     1
 90
        0
176
     1
290
     0
176
     1
 90
        1
176
     1
 40
0.0
176
     1
 90
        0
176
     1
290
     0
176
     1
290
     1
176
     1
290
     1
176
     1
290
     0
176
     1
290
     0
176
     1
290
     0
176
     1
290
     0
176
     1
290
     0
176
     1
290
     0
176
     1
 90
       50
176
     1
 40
0.0
176
     1
 40
1.0
176
     1
 90
        0
176
     1
 62
    18
420
        0
176
     1
 90
       50
176
     1
 90
        3
176
     1
 62
     5
420
      255
176
     1
290
     0
176
     1
 90
       50
176
     1
 90
       50
176
     1
 90
       50
176
     1
290
     0
176
     1
 90
       50
176
     1
 62
   256
176
     0
 40
1.0
176
     0
 90
        2
176
     1
  1
strokes_ogs.tif
176
     1
290
     0
176
     1
 40
1.0
176
     1
 40
1.0
176
     1
  0
VISUALSTYLE
  5
34
102
{ACAD_REACTORS
330
29
102
}
330
29
100
AcDbVisualStyle
  2
Dim
 70
    11
177
     3
291
     1
 70
    58
 90
        2
176
     1
 90
        2
176
     1
 90
        0
176
     1
 90
        0
176
     1
 40
0.6
176
     1
 40
30.0
176
     1
 62
     7
420
 16777215
176
     1
 90
        1
176
     1
 90
        4
176
     1
 62
     7
176
     1
 62
   257
176
     1
 90
        1
176
     1
 90
        1
176
     1
 40
1.0
176
     1
 90
        8
176
     1
 62
     7
176
     1
 40
1.0
176
     1
 90
        1
176
     1
 90
        6
176
     1
 90
        2
176
     1
 62
     7
176
     1
 90
        5
176
     1
 90
        0
176
     1
 90
        0
176
     1
290
     0
176
     1
 90
        1
176
     1
 40
-50.0
176
     1
 90
        0
176
     1
290
     0
176
     1
290
     1
176
     1
290
     1
176
     1
290
     0
176
     1
290
     0
176
     1
290
     0
176
     1
290
     0
176
     1
290
     0
176
     1
290
     0
176
     1
 90
       50
176
     1
 40
0.0
176
     1
 40
1.0
176
     1
 90
        0
176
     1
 62
    18
420
        0
176
     1
 90
       50
176
     1
 90
        3
176
     1
 62
     5
420
      255
176
     1
290
     0
176
     1
 90
       50
176
     1
 90
       50
176
     1
 90
       50
176
     1
290
     0
176
     1
 90
       50
176
     1
 62
   256
176
     0
 40
1.0
176
     0
 90
        2
176
     1
  1
strokes_ogs.tif
176
     1
290
     0
176
     1
 40
1.0
176
     1
 40
1.0
176
     1
  0
VISUALSTYLE
  5
41
102
{ACAD_REACTORS
330
29
102
}
330
29
100
AcDbVisualStyle
  2
EdgeColorOff
 70
    22
177
     3
291
     1
 70
    58
 90
        2
176
     0
 90
        2
176
     0
 90
        0
176
     0
 90
        0
176
     0
 40
0.6
176
     0
 40
30.0
176
     0
 62
     7
420
 16777215
176
     0
 90
        1
176
     0
 90
        4
176
     0
 62
     7
176
     0
 62
   257
176
     0
 90
        1
176
     0
 90
        1
176
     0
 40
1.0
176
     0
 90
        8
176
     2
 62
     7
176
     0
 40
1.0
176
     0
 90
        1
176
     0
 90
        6
176
     0
 90
        2
176
     0
 62
     7
176
     0
 90
        5
176
     0
 90
        0
176
     0
 90
        0
176
     0
290
     0
176
     0
 90
        1
176
     0
 40
0.0
176
     0
 90
        0
176
     0
290
     0
176
     0
290
     1
176
     0
290
     1
176
     0
290
     0
176
     0
290
     0
176
     0
290
     0
176
     0
290
     0
176
     0
290
     0
176
     0
290
     0
176
     0
 90
       50
176
     0
 40
0.0
176
     0
 40
1.0
176
     0
 90
        0
176
     0
 62
    18
420
        0
176
     0
 90
       50
176
     0
 90
        3
176
     0
 62
     5
420
      255
176
     0
290
     0
176
     0
 90
       50
176
     0
 90
       50
176
     0
 90
       50
176
     0
290
     0
176
     0
 90
       50
176
     0
 62
   256
176
     0
 40
1.0
176
     0
 90
        2
176
     0
  1
strokes_ogs.tif
176
     0
290
     0
176
     0
 40
1.0
176
     0
 40
1.0
176
     0
  0
VISUALSTYLE
  5
38
102
{ACAD_REACTORS
330
29
102
}
330
29
100
AcDbVisualStyle
  2
Facepattern
 70
    15
177
     3
291
     1
 70
    58
 90
        2
176
     1
 90
        2
176
     1
 90
        0
176
     1
 90
        0
176
     1
 40
0.6
176
     1
 40
30.0
176
     1
 62
     7
420
 16777215
176
     1
 90
        1
176
     1
 90
        4
176
     1
 62
     7
176
     1
 62
   257
176
     1
 90
        1
176
     1
 90
        1
176
     1
 40
1.0
176
     1
 90
        8
176
     1
 62
     7
176
     1
 40
1.0
176
     1
 90
        1
176
     1
 90
        6
176
     1
 90
        2
176
     1
 62
     7
176
     1
 90
        5
176
     1
 90
        0
176
     1
 90
        0
176
     1
290
     0
176
     1
 90
        1
176
     1
 40
0.0
176
     1
 90
        0
176
     1
290
     0
176
     1
290
     1
176
     1
290
     1
176
     1
290
     0
176
     1
290
     0
176
     1
290
     0
176
     1
290
     0
176
     1
290
     0
176
     1
290
     0
176
     1
 90
       50
176
     1
 40
0.0
176
     1
 40
1.0
176
     1
 90
        0
176
     1
 62
    18
420
        0
176
     1
 90
       50
176
     1
 90
        3
176
     1
 62
     5
420
      255
176
     1
290
     0
176
     1
 90
       50
176
     1
 90
       50
176
     1
 90
       50
176
     1
290
     0
176
     1
 90
       50
176
     1
 62
   256
176
     0
 40
1.0
176
     0
 90
        2
176
     1
  1
strokes_ogs.tif
176
     1
290
     0
176
     1
 40
1.0
176
     1
 40
1.0
176
     1
  0
VISUALSTYLE
  5
2A
102
{ACAD_REACTORS
330
29
102
}
330
29
100
AcDbVisualStyle
  2
Flat
 70
     0
177
     3
291
     1
 70
    58
 90
        2
176
     1
 90
        1
176
     1
 90
        1
176
     1
 90
        2
176
     1
 40
0.6
176
     1
 40
30.0
176
     1
 62
     7
420
 16777215
176
     1
 90
        0
176
     1
 90
        0
176
     1
 62
     7
176
     1
 62
   257
176
     1
 90
        1
176
     1
 90
        1
176
     1
 40
1.0
176
     1
 90
        8
176
     1
 62
     7
176
     1
 40
1.0
176
     1
 90
        1
176
     1
 90
        6
176
     1
 90
        2
176
     1
 62
     7
176
     1
 90
        5
176
     1
 90
        0
176
     1
 90
        0
176
     1
290
     0
176
     1
 90
       13
176
     1
 40
0.0
176
     1
 90
        0
176
     1
290
     0
176
     1
290
     1
176
     1
290
     1
176
     1
290
     0
176
     1
290
     0
176
     1
290
     0
176
     1
290
     0
176
     1
290
     0
176
     1
290
     0
176
     1
 90
       50
176
     1
 40
0.0
176
     1
 40
1.0
176
     1
 90
        0
176
     1
 62
    18
420
        0
176
     1
 90
       50
176
     1
 90
        3
176
     1
 62
     5
420
      255
176
     1
290
     0
176
     1
 90
       50
176
     1
 90
       50
176
     1
 90
       50
176
     1
290
     0
176
     1
 90
       50
176
     1
 62
   256
176
     0
 40
1.0
176
     0
 90
        2
176
     1
  1
strokes_ogs.tif
176
     1
290
     0
176
     1
 40
1.0
176
     1
 40
1.0
176
     1
  0
VISUALSTYLE
  5
2B
102
{ACAD_REACTORS
330
29
102
}
330
29
100
AcDbVisualStyle
  2
FlatWithEdges
 70
     1
177
     3
291
     1
 70
    58
 90
        2
176
     1
 90
        1
176
     1
 90
        1
176
     1
 90
        2
176
     1
 40
0.6
176
     1
 40
30.0
176
     1
 62
     7
420
 16777215
176
     1
 90
        1
176
     1
 90
        0
176
     1
 62
     7
176
     1
 62
   257
176
     1
 90
        1
176
     1
 90
        1
176
     1
 40
1.0
176
     1
 90
        0
176
     1
 62
   257
176
     1
 40
1.0
176
     1
 90
        1
176
     1
 90
        6
176
     1
 90
        2
176
     1
 62
     7
176
     1
 90
        5
176
     1
 90
        0
176
     1
 90
        0
176
     1
290
     0
176
     1
 90
       13
176
     1
 40
0.0
176
     1
 90
        0
176
     1
290
     0
176
     1
290
     1
176
     1
290
     1
176
     1
290
     0
176
     1
290
     0
176
     1
290
     0
176
     1
290
     0
176
     1
290
     0
176
     1
290
     0
176
     1
 90
       50
176
     1
 40
0.0
176
     1
 40
1.0
176
     1
 90
        0
176
     1
 62
    18
420
        0
176
     1
 90
       50
176
     1
 90
        3
176
     1
 62
     5
420
      255
176
     1
290
     0
176
     1
 90
       50
176
     1
 90
       50
176
     1
 90
       50
176
     1
290
     0
176
     1
 90
       50
176
     1
 62
   256
176
     0
 40
1.0
176
     0
 90
        2
176
     1
  1
strokes_ogs.tif
176
     1
290
     0
176
     1
 40
1.0
176
     1
 40
1.0
176
     1
  0
VISUALSTYLE
  5
2C
102
{ACAD_REACTORS
330
29
102
}
330
29
100
AcDbVisualStyle
  2
Gouraud
 70
     2
177
     3
291
     1
 70
    58
 90
        2
176
     1
 90
        2
176
     1
 90
        1
176
     1
 90
        2
176
     1
 40
0.6
176
     1
 40
30.0
176
     1
 62
     7
420
 16777215
176
     1
 90
        0
176
     1
 90
        0
176
     1
 62
     7
176
     1
 62
   257
176
     1
 90
        1
176
     1
 90
        1
176
     1
 40
1.0
176
     1
 90
        0
176
     1
 62
     7
176
     1
 40
1.0
176
     1
 90
        1
176
     1
 90
        6
176
     1
 90
        2
176
     1
 62
     7
176
     1
 90
        5
176
     1
 90
        0
176
     1
 90
        0
176
     1
290
     0
176
     1
 90
       13
176
     1
 40
0.0
176
     1
 90
        0
176
     1
290
     0
176
     1
290
     1
176
     1
290
     1
176
     1
290
     0
176
     1
290
     0
176
     1
290
     0
176
     1
290
     0
176
     1
290
     0
176
     1
290
     0
176
     1
 90
       50
176
     1
 40
0.0
176
     1
 40
1.0
176
     1
 90
        0
176
     1
 62
    18
420
        0
176
     1
 90
       50
176
     1
 90
        3
176
     1
 62
     5
420
      255
176
     1
290
     0
176
     1
 90
       50
176
     1
 90
       50
176
     1
 90
       50
176
     1
290
     0
176
     1
 90
       50
176
     1
 62
   256
176
     0
 40
1.0
176
     0
 90
        2
176
     1
  1
strokes_ogs.tif
176
     1
290
     0
176
     1
 40
1.0
176
     1
 40
1.0
176
     1
  0
VISUALSTYLE
  5
2D
102
{ACAD_REACTORS
330
29
102
}
330
29
100
AcDbVisualStyle
  2
GouraudWithEdges
 70
     3
177
     3
291
     1
 70
    58
 90
        2
176
     1
 90
        2
176
     1
 90
        1
176
     1
 90
        2
176
     1
 40
0.6
176
     1
 40
30.0
176
     1
 62
     7
420
 16777215
176
     1
 90
        1
176
     1
 90
        0
176
     1
 62
     7
176
     1
 62
   257
176
     1
 90
        1
176
     1
 90
        1
176
     1
 40
1.0
176
     1
 90
        0
176
     1
 62
   257
176
     1
 40
1.0
176
     1
 90
        1
176
     1
 90
        6
176
     1
 90
        2
176
     1
 62
     7
176
     1
 90
        5
176
     1
 90
        0
176
     1
 90
        0
176
     1
290
     0
176
     1
 90
       13
176
     1
 40
0.0
176
     1
 90
        0
176
     1
290
     0
176
     1
290
     1
176
     1
290
     1
176
     1
290
     0
176
     1
290
     0
176
     1
290
     0
176
     1
290
     0
176
     1
290
     0
176
     1
290
     0
176
     1
 90
       50
176
     1
 40
0.0
176
     1
 40
1.0
176
     1
 90
        0
176
     1
 62
    18
420
        0
176
     1
 90
       50
176
     1
 90
        3
176
     1
 62
     5
420
      255
176
     1
290
     0
176
     1
 90
       50
176
     1
 90
       50
176
     1
 90
       50
176
     1
290
     0
176
     1
 90
       50
176
     1
 62
   256
176
     0
 40
1.0
176
     0
 90
        2
176
     1
  1
strokes_ogs.tif
176
     1
290
     0
176
     1
 40
1.0
176
     1
 40
1.0
176
     1
  0
VISUALSTYLE
  5
31
102
{ACAD_REACTORS
330
29
102
}
330
29
100
AcDbVisualStyle
  2
Hidden
 70
     6
177
     3
291
     0
 70
    58
 90
        1
176
     1
 90
        2
176
     1
 90
        2
176
     1
 90
        0
176
     1
 40
0.6
176
     1
 40
30.0
176
     1
 62
     7
420
 16777215
176
     1
 90
        2
176
     1
 90
        2
176
     1
 62
     7
176
     1
 62
   257
176
     1
 90
        2
176
     1
 90
        1
176
     1
 40
40.0
176
     1
 90
        0
176
     1
 62
   257
176
     1
 40
1.0
176
     1
 90
        1
176
     1
 90
        6
176
     1
 90
        2
176
     1
 62
     7
176
     1
 90
        3
176
     1
 90
        0
176
     1
 90
        0
176
     1
290
     0
176
     1
 90
        1
176
     1
 40
0.0
176
     1
 90
        0
176
     1
290
     0
176
     1
290
     1
176
     1
290
     1
176
     1
290
     0
176
     1
290
     0
176
     1
290
     0
176
     1
290
     0
176
     1
290
     0
176
     1
290
     0
176
     1
 90
       50
176
     1
 40
0.0
176
     1
 40
1.0
176
     1
 90
        0
176
     1
 62
    18
420
        0
176
     1
 90
       50
176
     1
 90
        3
176
     1
 62
     5
420
      255
176
     1
290
     0
176
     1
 90
       50
176
     1
 90
       50
176
     1
 90
       50
176
     1
290
     0
176
     1
 90
       50
176
     1
 62
   256
176
     0
 40
1.0
176
     0
 90
        2
176
     1
  1
strokes_ogs.tif
176
     1
290
     0
176
     1
 40
1.0
176
     1
 40
1.0
176
     1
  0
VISUALSTYLE
  5
3F
102
{ACAD_REACTORS
330
29
102
}
330
29
100
AcDbVisualStyle
  2
JitterOff
 70
    20
177
     3
291
     1
 70
    58
 90
        2
176
     0
 90
        2
176
     0
 90
        0
176
     0
 90
        0
176
     0
 40
0.6
176
     0
 40
30.0
176
     0
 62
     7
420
 16777215
176
     0
 90
        1
176
     0
 90
        4
176
     0
 62
     7
176
     0
 62
   257
176
     0
 90
        1
176
     0
 90
        1
176
     0
 40
1.0
176
     0
 90
       10
176
     2
 62
     7
176
     0
 40
1.0
176
     0
 90
        1
176
     0
 90
        6
176
     0
 90
        2
176
     0
 62
     7
176
     0
 90
        5
176
     0
 90
        0
176
     0
 90
        0
176
     0
290
     0
176
     0
 90
        1
176
     0
 40
0.0
176
     0
 90
        0
176
     0
290
     0
176
     0
290
     1
176
     0
290
     1
176
     0
290
     0
176
     0
290
     0
176
     0
290
     0
176
     0
290
     0
176
     0
290
     0
176
     0
290
     0
176
     0
 90
       50
176
     0
 40
0.0
176
     0
 40
1.0
176
     0
 90
        0
176
     0
 62
    18
420
        0
176
     0
 90
       50
176
     0
 90
        3
176
     0
 62
     5
420
      255
176
     0
290
     0
176
     0
 90
       50
176
     0
 90
       50
176
     0
 90
       50
176
     0
290
     0
176
     0
 90
       50
176
     0
 62
   256
176
     0
 40
1.0
176
     0
 90
        2
176
     0
  1
strokes_ogs.tif
176
     0
290
     0
176
     0
 40
1.0
176
     0
 40
1.0
176
     0
  0
VISUALSTYLE
  5
37
102
{ACAD_REACTORS
330
29
102
}
330
29
100
AcDbVisualStyle
  2
Linepattern
 70
    14
177
     3
291
     1
 70
    58
 90
        2
176
     1
 90
        2
176
     1
 90
        0
176
     1
 90
        0
176
     1
 40
0.6
176
     1
 40
30.0
176
     1
 62
     7
420
 16777215
176
     1
 90
        1
176
     1
 90
        4
176
     1
 62
     7
176
     1
 62
   257
176
     1
 90
        7
176
     1
 90
        7
176
     1
 40
1.0
176
     1
 90
        8
176
     1
 62
     7
176
     1
 40
1.0
176
     1
 90
        1
176
     1
 90
        6
176
     1
 90
        2
176
     1
 62
     7
176
     1
 90
        5
176
     1
 90
        0
176
     1
 90
        0
176
     1
290
     0
176
     1
 90
        1
176
     1
 40
0.0
176
     1
 90
        0
176
     1
290
     0
176
     1
290
     1
176
     1
290
     1
176
     1
290
     0
176
     1
290
     0
176
     1
290
     0
176
     1
290
     0
176
     1
290
     0
176
     1
290
     0
176
     1
 90
       50
176
     1
 40
0.0
176
     1
 40
1.0
176
     1
 90
        0
176
     1
 62
    18
420
        0
176
     1
 90
       50
176
     1
 90
        3
176
     1
 62
     5
420
      255
176
     1
290
     0
176
     1
 90
       50
176
     1
 90
       50
176
     1
 90
       50
176
     1
290
     0
176
     1
 90
       50
176
     1
 62
   256
176
     0
 40
1.0
176
     0
 90
        2
176
     1
  1
strokes_ogs.tif
176
     1
290
     0
176
     1
 40
1.0
176
     1
 40
1.0
176
     1
  0
VISUALSTYLE
  5
40
102
{ACAD_REACTORS
330
29
102
}
330
29
100
AcDbVisualStyle
  2
OverhangOff
 70
    21
177
     3
291
     1
 70
    58
 90
        2
176
     0
 90
        2
176
     0
 90
        0
176
     0
 90
        0
176
     0
 40
0.6
176
     0
 40
30.0
176
     0
 62
     7
420
 16777215
176
     0
 90
        1
176
     0
 90
        4
176
     0
 62
     7
176
     0
 62
   257
176
     0
 90
        1
176
     0
 90
        1
176
     0
 40
1.0
176
     0
 90
        9
176
     2
 62
     7
176
     0
 40
1.0
176
     0
 90
        1
176
     0
 90
        6
176
     0
 90
        2
176
     0
 62
     7
176
     0
 90
        5
176
     0
 90
        0
176
     0
 90
        0
176
     0
290
     0
176
     0
 90
        1
176
     0
 40
0.0
176
     0
 90
        0
176
     0
290
     0
176
     0
290
     1
176
     0
290
     1
176
     0
290
     0
176
     0
290
     0
176
     0
290
     0
176
     0
290
     0
176
     0
290
     0
176
     0
290
     0
176
     0
 90
       50
176
     0
 40
0.0
176
     0
 40
1.0
176
     0
 90
        0
176
     0
 62
    18
420
        0
176
     0
 90
       50
176
     0
 90
        3
176
     0
 62
     5
420
      255
176
     0
290
     0
176
     0
 90
       50
176
     0
 90
       50
176
     0
 90
       50
176
     0
290
     0
176
     0
 90
       50
176
     0
 62
   256
176
     0
 40
1.0
176
     0
 90
        2
176
     0
  1
strokes_ogs.tif
176
     0
290
     0
176
     0
 40
1.0
176
     0
 40
1.0
176
     0
  0
VISUALSTYLE
  5
33
102
{ACAD_REACTORS
330
29
102
}
330
29
100
AcDbVisualStyle
  2
Realistic
 70
     8
177
     3
291
     0
 70
    58
 90
        2
176
     1
 90
        3
176
     1
 90
        0
176
     1
 90
        2
176
     1
 40
0.6
176
     1
 40
30.0
176
     1
 62
     7
420
 16777215
176
     1
 90
        0
176
     1
 90
        0
176
     1
 62
     7
176
     1
 62
   257
176
     1
 90
        1
176
     1
 90
        1
176
     1
 40
1.0
176
     1
 90
        8
176
     1
 62
   257
176
     1
 40
1.0
176
     1
 90
        1
176
     1
 90
        6
176
     1
 90
        2
176
     1
 62
     7
176
     1
 90
        3
176
     1
 90
        0
176
     1
 90
        0
176
     1
290
     0
176
     1
 90
       13
176
     1
 40
0.0
176
     1
 90
        0
176
     1
290
     0
176
     1
290
     1
176
     1
290
     1
176
     1
290
     0
176
     1
290
     0
176
     1
290
     0
176
     1
290
     0
176
     1
290
     0
176
     1
290
     0
176
     1
 90
       50
176
     1
 40
0.0
176
     1
 40
1.0
176
     1
 90
        0
176
     1
 62
    18
420
        0
176
     1
 90
       50
176
     1
 90
        3
176
     1
 62
     5
420
      255
176
     1
290
     0
176
     1
 90
       50
176
     1
 90
       50
176
     1
 90
       50
176
     1
290
     0
176
     1
 90
       50
176
     1
 62
   256
176
     0
 40
1.0
176
     0
 90
        2
176
     1
  1
strokes_ogs.tif
176
     1
290
     0
176
     1
 40
1.0
176
     1
 40
1.0
176
     1
  0
VISUALSTYLE
  5
3E
102
{ACAD_REACTORS
330
29
102
}
330
29
100
AcDbVisualStyle
  2
Shaded
 70
    27
177
     3
291
     0
 70
    58
 90
        2
176
     1
 90
        2
176
     1
 90
        1
176
     1
 90
        2
176
     1
 40
0.6
176
     1
 40
30.0
176
     1
 62
     7
420
 16777215
176
     1
 90
        0
176
     1
 90
        4
176
     1
 62
     7
176
     1
 62
   257
176
     1
 90
        1
176
     1
 90
        1
176
     1
 40
1.0
176
     1
 90
        8
176
     1
 62
   257
176
     1
 40
1.0
176
     1
 90
        1
176
     1
 90
        6
176
     1
 90
        2
176
     1
 62
     8
420
  7895160
176
     1
 90
        3
176
     1
 90
        0
176
     1
 90
        0
176
     1
290
     0
176
     1
 90
        5
176
     1
 40
0.0
176
     1
 90
        0
176
     1
290
     0
176
     1
290
     1
176
     1
290
     1
176
     1
290
     0
176
     1
290
     0
176
     1
290
     0
176
     1
290
     0
176
     1
290
     0
176
     1
290
     0
176
     1
 90
       50
176
     1
 40
0.0
176
     1
 40
1.0
176
     1
 90
        0
176
     1
 62
    18
420
        0
176
     1
 90
       50
176
     1
 90
        3
176
     1
 62
     5
420
      255
176
     1
290
     0
176
     1
 90
       50
176
     1
 90
       50
176
     1
 90
       50
176
     1
290
     0
176
     1
 90
       50
176
     1
 62
   256
176
     0
 40
1.0
176
     0
 90
        2
176
     1
  1
strokes_ogs.tif
176
     1
290
     0
176
     1
 40
1.0
176
     1
 40
1.0
176
     1
  0
VISUALSTYLE
  5
3D
102
{ACAD_REACTORS
330
29
102
}
330
29
100
AcDbVisualStyle
  2
Shaded with edges
 70
    26
177
     3
291
     0
 70
    58
 90
        2
176
     1
 90
        2
176
     1
 90
        1
176
     1
 90
        2
176
     1
 40
0.6
176
     1
 40
30.0
176
     1
 62
     7
420
 16777215
176
     1
 90
        1
176
     1
 90
        2
176
     1
 62
     7
176
     1
 62
   257
176
     1
 90
        2
176
     1
 90
        1
176
     1
 40
1.0
176
     1
 90
        8
176
     1
 62
   257
176
     1
 40
1.0
176
     1
 90
        1
176
     1
 90
        6
176
     1
 90
        2
176
     1
 62
     7
176
     1
 90
        3
176
     1
 90
        0
176
     1
 90
        0
176
     1
290
     0
176
     1
 90
        5
176
     1
 40
0.0
176
     1
 90
        0
176
     1
290
     0
176
     1
290
     1
176
     1
290
     1
176
     1
290
     0
176
     1
290
     0
176
     1
290
     0
176
     1
290
     0
176
     1
290
     0
176
     1
290
     0
176
     1
 90
       50
176
     1
 40
0.0
176
     1
 40
1.0
176
     1
 90
        0
176
     1
 62
    18
420
        0
176
     1
 90
       50
176
     1
 90
        3
176
     1
 62
     5
420
      255
176
     1
290
     0
176
     1
 90
       50
176
     1
 90
       50
176
     1
 90
       50
176
     1
290
     0
176
     1
 90
       50
176
     1
 62
   256
176
     0
 40
1.0
176
     0
 90
        2
176
     1
  1
strokes_ogs.tif
176
     1
290
     0
176
     1
 40
1.0
176
     1
 40
1.0
176
     1
  0
VISUALSTYLE
  5
3A
102
{ACAD_REACTORS
330
29
102
}
330
29
100
AcDbVisualStyle
  2
Shades of Gray
 70
    23
177
     3
291
     0
 70
    58
 90
        2
176
     1
 90
        2
176
     1
 90
        3
176
     1
 90
        0
176
     1
 40
0.6
176
     1
 40
30.0
176
     1
 62
     7
420
 16777215
176
     1
 90
        2
176
     1
 90
        2
176
     1
 62
     7
176
     1
 62
     7
176
     1
 90
        1
176
     1
 90
        1
176
     1
 40
40.0
176
     1
 90
        8
176
     1
 62
     7
176
     1
 40
1.0
176
     1
 90
        1
176
     1
 90
        6
176
     1
 90
        2
176
     1
 62
     7
176
     1
 90
        3
176
     1
 90
        0
176
     1
 90
        0
176
     1
290
     0
176
     1
 90
        1
176
     1
 40
0.0
176
     1
 90
        0
176
     1
290
     0
176
     1
290
     1
176
     1
290
     1
176
     1
290
     0
176
     1
290
     0
176
     1
290
     0
176
     1
290
     0
176
     1
290
     0
176
     1
290
     0
176
     1
 90
       50
176
     1
 40
0.0
176
     1
 40
1.0
176
     1
 90
        0
176
     1
 62
    18
420
        0
176
     1
 90
       50
176
     1
 90
        3
176
     1
 62
     5
420
      255
176
     1
290
     0
176
     1
 90
       50
176
     1
 90
       50
176
     1
 90
       50
176
     1
290
     0
176
     1
 90
       50
176
     1
 62
   256
176
     0
 40
1.0
176
     0
 90
        2
176
     1
  1
strokes_ogs.tif
176
     1
290
     0
176
     1
 40
1.0
176
     1
 40
1.0
176
     1
  0
VISUALSTYLE
  5
3B
102
{ACAD_REACTORS
330
29
102
}
330
29
100
AcDbVisualStyle
  2
Sketchy
 70
    24
177
     3
291
     0
 70
    58
 90
        1
176
     1
 90
        2
176
     1
 90
        2
176
     1
 90
        0
176
     1
 40
0.6
176
     1
 40
30.0
176
     1
 62
     7
420
 16777215
176
     1
 90
        2
176
     1
 90
        2
176
     1
 62
     7
176
     1
 62
     7
176
     1
 90
        1
176
     1
 90
        1
176
     1
 40
40.0
176
     1
 90
       11
176
     1
 62
     7
176
     1
 40
1.0
176
     1
 90
        1
176
     1
 90
        6
176
     1
 90
        2
176
     1
 62
     7
176
     1
 90
        6
176
     1
 90
        0
176
     1
 90
        0
176
     1
290
     0
176
     1
 90
        1
176
     1
 40
0.0
176
     1
 90
        0
176
     1
290
     0
176
     1
290
     1
176
     1
290
     1
176
     1
290
     0
176
     1
290
     0
176
     1
290
     0
176
     1
290
     0
176
     1
290
     0
176
     1
290
     0
176
     1
 90
       50
176
     1
 40
0.0
176
     1
 40
1.0
176
     1
 90
        0
176
     1
 62
    18
420
        0
176
     1
 90
       50
176
     1
 90
        3
176
     1
 62
     5
420
      255
176
     1
290
     0
176
     1
 90
       50
176
     1
 90
       50
176
     1
 90
       50
176
     1
290
     0
176
     1
 90
       50
176
     1
 62
   256
176
     0
 40
1.0
176
     0
 90
        2
176
     1
  1
strokes_ogs.tif
176
     1
290
     0
176
     1
 40
1.0
176
     1
 40
1.0
176
     1
  0
VISUALSTYLE
  5
36
102
{ACAD_REACTORS
330
29
102
}
330
29
100
AcDbVisualStyle
  2
Thicken
 70
    13
177
     3
291
     1
 70
    58
 90
        2
176
     1
 90
        2
176
     1
 90
        0
176
     1
 90
        0
176
     1
 40
0.6
176
     1
 40
30.0
176
     1
 62
     7
420
 16777215
176
     1
 90
        1
176
     1
 90
        4
176
     1
 62
     7
176
     1
 62
   257
176
     1
 90
        1
176
     1
 90
        1
176
     1
 40
1.0
176
     1
 90
       12
176
     1
 62
     7
176
     1
 40
1.0
176
     1
 90
        1
176
     1
 90
        6
176
     1
 90
        2
176
     1
 62
     7
176
     1
 90
        5
176
     1
 90
        0
176
     1
 90
        0
176
     1
290
     0
176
     1
 90
        1
176
     1
 40
0.0
176
     1
 90
        0
176
     1
290
     0
176
     1
290
     1
176
     1
290
     1
176
     1
290
     0
176
     1
290
     0
176
     1
290
     0
176
     1
290
     0
176
     1
290
     0
176
     1
290
     0
176
     1
 90
       50
176
     1
 40
0.0
176
     1
 40
1.0
176
     1
 90
        0
176
     1
 62
    18
420
        0
176
     1
 90
       50
176
     1
 90
        3
176
     1
 62
     5
420
      255
176
     1
290
     0
176
     1
 90
       50
176
     1
 90
       50
176
     1
 90
       50
176
     1
290
     0
176
     1
 90
       50
176
     1
 62
   256
176
     0
 40
1.0
176
     0
 90
        2
176
     1
  1
strokes_ogs.tif
176
     1
290
     0
176
     1
 40
1.0
176
     1
 40
1.0
176
     1
  0
VISUALSTYLE
  5
30
102
{ACAD_REACTORS
330
29
102
}
330
29
100
AcDbVisualStyle
  2
Wireframe
 70
     5
177
     3
291
     0
 70
    58
 90
        0
176
     1
 90
        2
176
     1
 90
        0
176
     1
 90
        0
176
     1
 40
0.6
176
     1
 40
30.0
176
     1
 62
     7
420
 16777215
176
     1
 90
        1
176
     1
 90
        4
176
     1
 62
     7
176
     1
 62
   257
176
     1
 90
        1
176
     1
 90
        1
176
     1
 40
1.0
176
     1
 90
        0
176
     1
 62
   257
176
     1
 40
1.0
176
     1
 90
        1
176
     1
 90
        6
176
     1
 90
        2
176
     1
 62
     7
176
     1
 90
        3
176
     1
 90
        0
176
     1
 90
        0
176
     1
290
     0
176
     1
 90
        1
176
     1
 40
0.0
176
     1
 90
        0
176
     1
290
     0
176
     1
290
     1
176
     1
290
     1
176
     1
290
     0
176
     1
290
     0
176
     1
290
     0
176
     1
290
     0
176
     1
290
     0
176
     1
290
     0
176
     1
 90
       50
176
     1
 40
0.0
176
     1
 40
1.0
176
     1
 90
        0
176
     1
 62
    18
420
        0
176
     1
 90
       50
176
     1
 90
        3
176
     1
 62
     5
420
      255
176
     1
290
     0
176
     1
 90
       50
176
     1
 90
       50
176
     1
 90
       50
176
     1
290
     0
176
     1
 90
       50
176
     1
 62
   256
176
     0
 40
1.0
176
     0
 90
        2
176
     1
  1
strokes_ogs.tif
176
     1
290
     0
176
     1
 40
1.0
176
     1
 40
1.0
176
     1
  0
VISUALSTYLE
  5
3C
102
{ACAD_REACTORS
330
29
102
}
330
29
100
AcDbVisualStyle
  2
X-Ray
 70
    25
177
     3
291
     0
 70
    58
 90
        2
176
     1
 90
        2
176
     1
 90
        1
176
     1
 90
        1
176
     1
 40
0.5
176
     1
 40
30.0
176
     1
 62
     7
420
 16777215
176
     1
 90
        1
176
     1
 90
        0
176
     1
 62
     7
176
     1
 62
   257
176
     1
 90
        1
176
     1
 90
        1
176
     1
 40
1.0
176
     1
 90
        8
176
     1
 62
     7
176
     1
 40
1.0
176
     1
 90
        1
176
     1
 90
        6
176
     1
 90
        2
176
     1
 62
     7
176
     1
 90
        3
176
     1
 90
        0
176
     1
 90
        0
176
     1
290
     0
176
     1
 90
       13
176
     1
 40
0.0
176
     1
 90
        0
176
     1
290
     0
176
     1
290
     1
176
     1
290
     1
176
     1
290
     0
176
     1
290
     0
176
     1
290
     0
176
     1
290
     0
176
     1
290
     0
176
     1
290
     0
176
     1
 90
       50
176
     1
 40
0.0
176
     1
 40
1.0
176
     1
 90
        0
176
     1
 62
    18
420
        0
176
     1
 90
       50
176
     1
 90
        3
176
     1
 62
     5
420
      255
176
     1
290
     0
176
     1
 90
       50
176
     1
 90
       50
176
     1
 90
       50
176
     1
290
     0
176
     1
 90
       50
176
     1
 62
   256
176
     0
 40
1.0
176
     0
 90
        2
176
     1
  1
strokes_ogs.tif
176
     1
290
     0
176
     1
 40
1.0
176
     1
 40
1.0
176
     1
  0
DICTIONARYVAR
  5
E0
102
{ACAD_REACTORS
330
DB
102
}
330
DB
100
DictionaryVariables
280
     0
  1
1:1
  0
DICTIONARYVAR
  5
DD
102
{ACAD_REACTORS
330
DB
102
}
330
DB
100
DictionaryVariables
280
     0
  1
STANDARD
  0
DICTIONARYVAR
  5
DC
102
{ACAD_REACTORS
330
DB
102
}
330
DB
100
DictionaryVariables
280
     0
  1
STANDARD
  0
DICTIONARYVAR
  5
DE
102
{ACAD_REACTORS
330
DB
102
}
330
DB
100
DictionaryVariables
280
     0
  1
Imperial24
  0
DICTIONARYVAR
  5
DF
102
{ACAD_REACTORS
330
DB
102
}
330
DB
100
DictionaryVariables
280
     0
  1
Imperial24
  0
DICTIONARY
  5
1A
330
19
100
AcDbDictionary
280
     1
281
     1
  3
BUMPTILE
360
1C
  3
DIFFUSETILE
360
1B
  3
OPACITYTILE
360
1F
  3
REFLECTIONTILE
360
1E
  3
REFRACTIONTILE
360
20
  3
SPECULARTILE
360
1D
  0
DICTIONARY
  5
12
330
11
100
AcDbDictionary
280
     1
281
     1
  3
BUMPTILE
360
14
  3
DIFFUSETILE
360
13
  3
OPACITYTILE
360
17
  3
REFLECTIONTILE
360
16
  3
REFRACTIONTILE
360
18
  3
SPECULARTILE
360
15
  0
DICTIONARY
  5
22
330
21
100
AcDbDictionary
280
     1
281
     1
  3
BUMPTILE
360
24
  3
DIFFUSETILE
360
23
  3
OPACITYTILE
360
27
  3
REFLECTIONTILE
360
26
  3
REFRACTIONTILE
360
28
  3
SPECULARTILE
360
25
  0
DICTIONARY
  5
E1
330
65
100
AcDbDictionary
280
     1
281
     1
  3
ACAD_ROUNDTRIP_2008_TABLESTYLE_CELLSTYLEMAP
360
E2
  0
XRECORD
  5
1C
102
{ACAD_REACTORS
330
1A
102
}
330
1A
100
AcDbXrecord
280
     1
270
     1
271
     1
  0
XRECORD
  5
1B
102
{ACAD_REACTORS
330
1A
102
}
330
1A
100
AcDbXrecord
280
     1
270
     1
271
     1
  0
XRECORD
  5
1F
102
{ACAD_REACTORS
330
1A
102
}
330
1A
100
AcDbXrecord
280
     1
270
     1
271
     1
  0
XRECORD
  5
1E
102
{ACAD_REACTORS
330
1A
102
}
330
1A
100
AcDbXrecord
280
     1
270
     1
271
     1
  0
XRECORD
  5
20
102
{ACAD_REACTORS
330
1A
102
}
330
1A
100
AcDbXrecord
280
     1
270
     1
271
     1
  0
XRECORD
  5
1D
102
{ACAD_REACTORS
330
1A
102
}
330
1A
100
AcDbXrecord
280
     1
270
     1
271
     1
  0
XRECORD
  5
14
102
{ACAD_REACTORS
330
12
102
}
330
12
100
AcDbXrecord
280
     1
270
     1
271
     1
  0
XRECORD
  5
13
102
{ACAD_REACTORS
330
12
102
}
330
12
100
AcDbXrecord
280
     1
270
     1
271
     1
  0
XRECORD
  5
17
102
{ACAD_REACTORS
330
12
102
}
330
12
100
AcDbXrecord
280
     1
270
     1
271
     1
  0
XRECORD
  5
16
102
{ACAD_REACTORS
330
12
102
}
330
12
100
AcDbXrecord
280
     1
270
     1
271
     1
  0
XRECORD
  5
18
102
{ACAD_REACTORS
330
12
102
}
330
12
100
AcDbXrecord
280
     1
270
     1
271
     1
  0
XRECORD
  5
15
102
{ACAD_REACTORS
330
12
102
}
330
12
100
AcDbXrecord
280
     1
270
     1
271
     1
  0
XRECORD
  5
24
102
{ACAD_REACTORS
330
22
102
}
330
22
100
AcDbXrecord
280
     1
270
     1
271
     1
  0
XRECORD
  5
23
102
{ACAD_REACTORS
330
22
102
}
330
22
100
AcDbXrecord
280
     1
270
     1
271
     1
  0
XRECORD
  5
27
102
{ACAD_REACTORS
330
22
102
}
330
22
100
AcDbXrecord
280
     1
270
     1
271
     1
  0
XRECORD
  5
26
102
{ACAD_REACTORS
330
22
102
}
330
22
100
AcDbXrecord
280
     1
270
     1
271
     1
  0
XRECORD
  5
28
102
{ACAD_REACTORS
330
22
102
}
330
22
100
AcDbXrecord
280
     1
270
     1
271
     1
  0
XRECORD
  5
25
102
{ACAD_REACTORS
330
22
102
}
330
22
100
AcDbXrecord
280
     1
270
     1
271
     1
  0
CELLSTYLEMAP
  5
E2
102
{ACAD_REACTORS
330
E1
102
}
330
E1
100
AcDbCellStyleMap
 90
        3
300
CELLSTYLE
  1
TABLEFORMAT_BEGIN
 90
        5
170
     1
 91
        0
 92
    32768
 62
   257
 93
        1
300
CONTENTFORMAT
  1
CONTENTFORMAT_BEGIN
 90
        0
 91
        0
 92
      512
 93
        0
300

 40
0.0
140
1.0
 94
        5
 62
     0
340
55
144
0.25
309
CONTENTFORMAT_END
171
     0
 94
        0
309
TABLEFORMAT_END
  1
CELLSTYLE_BEGIN
 90
        1
 91
        1
300
_TITLE
309
CELLSTYLE_END
300
CELLSTYLE
  1
TABLEFORMAT_BEGIN
 90
        5
170
     1
 91
        0
 92
        0
 62
   257
 93
        1
300
CONTENTFORMAT
  1
CONTENTFORMAT_BEGIN
 90
        0
 91
        0
 92
      512
 93
        0
300

 40
0.0
140
1.0
 94
        5
 62
     0
340
55
144
0.18
309
CONTENTFORMAT_END
171
     0
 94
        0
309
TABLEFORMAT_END
  1
CELLSTYLE_BEGIN
 90
        2
 91
        1
300
_HEADER
309
CELLSTYLE_END
300
CELLSTYLE
  1
TABLEFORMAT_BEGIN
 90
        5
170
     1
 91
        0
 92
        0
 62
   257
 93
        1
300
CONTENTFORMAT
  1
CONTENTFORMAT_BEGIN
 90
        0
 91
        0
 92
      512
 93
        0
300

 40
0.0
140
1.0
 94
        2
 62
     0
340
55
144
0.18
309
CONTENTFORMAT_END
171
     0
 94
        0
309
TABLEFORMAT_END
  1
CELLSTYLE_BEGIN
 90
        3
 91
        2
300
_DATA
309
CELLSTYLE_END
  0
ENDSEC
  0
EOF
