  0
SECTION
  2
HEADER
  9
$ACADVER
  1
AC1032
  9
$ACADMAINTVER
 90
      228
  9
$DWGCODEPAGE
  3
ANSI_932
  9
$REQUIREDVERSIONS
160
                 0
  9
$INSBASE
 10
0.0
 20
0.0
 30
0.0
  9
$EXTMIN
 10
1.000000000000000E+20
 20
1.000000000000000E+20
 30
1.000000000000000E+20
  9
$EXTMAX
 10
-1.000000000000000E+20
 20
-1.000000000000000E+20
 30
-1.000000000000000E+20
  9
$LIMMIN
 10
0.0
 20
0.0
  9
$LIMMAX
 10
12.0
 20
9.0
  9
$ORTHOMODE
 70
     0
  9
$REGENMODE
 70
     1
  9
$FILLMODE
 70
     1
  9
$QTEXTMODE
 70
     0
  9
$MIRRTEXT
 70
     0
  9
$LTSCALE
 40
1.0
  9
$ATTMODE
 70
     1
  9
$TEXTSIZE
 40
0.2
  9
$TRACEWID
 40
0.05
  9
$TEXTSTYLE
  7
Standard
  9
$CLAYER
  8
0
  9
$CELTYPE
  6
ByLayer
  9
$CECOLOR
 62
   256
  9
$CELTSCALE
 40
1.0
  9
$DISPSILH
 70
     0
  9
$DIMSCALE
 40
1.0
  9
$DIMASZ
 40
0.18
  9
$DIMEXO
 40
0.0625
  9
$DIMDLI
 40
0.38
  9
$DIMRND
 40
0.0
  9
$DIMDLE
 40
0.0
  9
$DIMEXE
 40
0.18
  9
$DIMTP
 40
0.0
  9
$DIMTM
 40
0.0
  9
$DIMTXT
 40
0.18
  9
$DIMCEN
 40
0.09
  9
$DIMTSZ
 40
0.0
  9
$DIMTOL
 70
     0
  9
$DIMLIM
 70
     0
  9
$DIMTIH
 70
     1
  9
$DIMTOH
 70
     1
  9
$DIMSE1
 70
     0
  9
$DIMSE2
 70
     0
  9
$DIMTAD
 70
     0
  9
$DIMZIN
 70
     0
  9
$DIMBLK
  1

  9
$DIMASO
 70
     1
  9
$DIMSHO
 70
     1
  9
$DIMPOST
  1

  9
$DIMAPOST
  1

  9
$DIMALT
 70
     0
  9
$DIMALTD
 70
     2
  9
$DIMALTF
 40
25.4
  9
$DIMLFAC
 40
1.0
  9
$DIMTOFL
 70
     0
  9
$DIMTVP
 40
0.0
  9
$DIMTIX
 70
     0
  9
$DIMSOXD
 70
     0
  9
$DIMSAH
 70
     0
  9
$DIMBLK1
  1

  9
$DIMBLK2
  1

  9
$DIMSTYLE
  2
Standard
  9
$DIMCLRD
 70
     0
  9
$DIMCLRE
 70
     0
  9
$DIMCLRT
 70
     0
  9
$DIMTFAC
 40
1.0
  9
$DIMGAP
 40
0.09
  9
$DIMJUST
 70
     0
  9
$DIMSD1
 70
     0
  9
$DIMSD2
 70
     0
  9
$DIMTOLJ
 70
     1
  9
$DIMTZIN
 70
     0
  9
$DIMALTZ
 70
     0
  9
$DIMALTTZ
 70
     0
  9
$DIMUPT
 70
     0
  9
$DIMDEC
 70
     4
  9
$DIMTDEC
 70
     4
  9
$DIMALTU
 70
     2
  9
$DIMALTTD
 70
     2
  9
$DIMTXSTY
  7
Standard
  9
$DIMAUNIT
 70
     0
  9
$DIMADEC
 70
     0
  9
$DIMALTRND
 40
0.0
  9
$DIMAZIN
 70
     0
  9
$DIMDSEP
 70
    46
  9
$DIMATFIT
 70
     3
  9
$DIMFRAC
 70
     0
  9
$DIMLDRBLK
  1

  9
$DIMLUNIT
 70
     2
  9
$DIMLWD
 70
    -2
  9
$DIMLWE
 70
    -2
  9
$DIMTMOVE
 70
     0
  9
$DIMFXL
 40
1.0
  9
$DIMFXLON
 70
     0
  9
$DIMJOGANG
 40
0.7853981633974483
  9
$DIMTFILL
 70
     0
  9
$DIMTFILLCLR
 70
     0
  9
$DIMARCSYM
 70
     0
  9
$DIMLTYPE
  6

  9
$DIMLTEX1
  6

  9
$DIMLTEX2
  6

  9
$DIMTXTDIRECTION
 70
     0
  9
$LUNITS
 70
     2
  9
$LUPREC
 70
     4
  9
$SKETCHINC
 40
0.1
  9
$FILLETRAD
 40
0.0
  9
$AUNITS
 70
     0
  9
$AUPREC
 70
     0
  9
$MENU
  1
.
  9
$ELEVATION
 40
0.0
  9
$PELEVATION
 40
0.0
  9
$THICKNESS
 40
0.0
  9
$LIMCHECK
 70
     0
  9
$CHAMFERA
 40
0.0
  9
$CHAMFERB
 40
0.0
  9
$CHAMFERC
 40
0.0
  9
$CHAMFERD
 40
0.0
  9
$SKPOLY
 70
     0
  9
$TDCREATE
 40
2460191.800798611
  9
$TDUCREATE
 40
2460191.425798611
  9
$TDUPDATE
 40
2460191.800798611
  9
$TDUUPDATE
 40
2460191.425798611
  9
$TDINDWG
 40
0.0000115741
  9
$TDUSRTIMER
 40
0.0000115741
  9
$USRTIMER
 70
     1
  9
$ANGBASE
 50
0.0
  9
$ANGDIR
 70
     0
  9
$PDMODE
 70
     0
  9
$PDSIZE
 40
0.0
  9
$PLINEWID
 40
0.0
  9
$SPLFRAME
 70
     0
  9
$SPLINETYPE
 70
     6
  9
$SPLINESEGS
 70
     8
  9
$HANDSEED
  5
269
  9
$SURFTAB1
 70
     6
  9
$SURFTAB2
 70
     6
  9
$SURFTYPE
 70
     6
  9
$SURFU
 70
     6
  9
$SURFV
 70
     6
  9
$UCSBASE
  2

  9
$UCSNAME
  2

  9
$UCSORG
 10
0.0
 20
0.0
 30
0.0
  9
$UCSXDIR
 10
1.0
 20
0.0
 30
0.0
  9
$UCSYDIR
 10
0.0
 20
1.0
 30
0.0
  9
$UCSORTHOREF
  2

  9
$UCSORTHOVIEW
 70
     0
  9
$UCSORGTOP
 10
0.0
 20
0.0
 30
0.0
  9
$UCSORGBOTTOM
 10
0.0
 20
0.0
 30
0.0
  9
$UCSORGLEFT
 10
0.0
 20
0.0
 30
0.0
  9
$UCSORGRIGHT
 10
0.0
 20
0.0
 30
0.0
  9
$UCSORGFRONT
 10
0.0
 20
0.0
 30
0.0
  9
$UCSORGBACK
 10
0.0
 20
0.0
 30
0.0
  9
$PUCSBASE
  2

  9
$PUCSNAME
  2

  9
$PUCSORG
 10
0.0
 20
0.0
 30
0.0
  9
$PUCSXDIR
 10
1.0
 20
0.0
 30
0.0
  9
$PUCSYDIR
 10
0.0
 20
1.0
 30
0.0
  9
$PUCSORTHOREF
  2

  9
$PUCSORTHOVIEW
 70
     0
  9
$PUCSORGTOP
 10
0.0
 20
0.0
 30
0.0
  9
$PUCSORGBOTTOM
 10
0.0
 20
0.0
 30
0.0
  9
$PUCSORGLEFT
 10
0.0
 20
0.0
 30
0.0
  9
$PUCSORGRIGHT
 10
0.0
 20
0.0
 30
0.0
  9
$PUCSORGFRONT
 10
0.0
 20
0.0
 30
0.0
  9
$PUCSORGBACK
 10
0.0
 20
0.0
 30
0.0
  9
$USERI1
 70
     0
  9
$USERI2
 70
     0
  9
$USERI3
 70
     0
  9
$USERI4
 70
     0
  9
$USERI5
 70
     0
  9
$USERR1
 40
0.0
  9
$USERR2
 40
0.0
  9
$USERR3
 40
0.0
  9
$USERR4
 40
0.0
  9
$USERR5
 40
0.0
  9
$WORLDVIEW
 70
     1
  9
$SHADEDGE
 70
     3
  9
$SHADEDIF
 70
    70
  9
$TILEMODE
 70
     1
  9
$MAXACTVP
 70
    64
  9
$PINSBASE
 10
0.0
 20
0.0
 30
0.0
  9
$PLIMCHECK
 70
     0
  9
$PEXTMIN
 10
1.000000000000000E+20
 20
1.000000000000000E+20
 30
1.000000000000000E+20
  9
$PEXTMAX
 10
-1.000000000000000E+20
 20
-1.000000000000000E+20
 30
-1.000000000000000E+20
  9
$PLIMMIN
 10
0.0
 20
0.0
  9
$PLIMMAX
 10
12.0
 20
9.0
  9
$UNITMODE
 70
     0
  9
$VISRETAIN
 70
     1
  9
$PLINEGEN
 70
     0
  9
$PSLTSCALE
 70
     1
  9
$TREEDEPTH
 70
  3020
  9
$CMLSTYLE
  2
Standard
  9
$CMLJUST
 70
     0
  9
$CMLSCALE
 40
1.0
  9
$PROXYGRAPHICS
 70
     1
  9
$MEASUREMENT
 70
     0
  9
$CELWEIGHT
370
    -1
  9
$ENDCAPS
280
     0
  9
$JOINSTYLE
280
     0
  9
$LWDISPLAY
290
     1
  9
$INSUNITS
 70
     4
  9
$HYPERLINKBASE
  1

  9
$STYLESHEET
  1

  9
$XEDIT
290
     1
  9
$CEPSNTYPE
380
     0
  9
$PSTYLEMODE
290
     1
  9
$FINGERPRINTGUID
  2
{6A235048-7C23-AF46-84A8-63756CF5F2DD}
  9
$VERSIONGUID
  2
{76A383A0-561D-5E47-82DC-3A4271106A51}
  9
$EXTNAMES
290
     1
  9
$PSVPSCALE
 40
0.0
  9
$OLESTARTUP
290
     0
  9
$SORTENTS
280
   127
  9
$INDEXCTL
280
     0
  9
$HIDETEXT
280
     1
  9
$XCLIPFRAME
280
     2
  9
$HALOGAP
280
     0
  9
$OBSCOLOR
 70
   257
  9
$OBSLTYPE
280
     0
  9
$INTERSECTIONDISPLAY
280
     0
  9
$INTERSECTIONCOLOR
 70
   257
  9
$DIMASSOC
280
     2
  9
$PROJECTNAME
  1

  9
$CAMERADISPLAY
290
     0
  9
$LENSLENGTH
 40
50.0
  9
$CAMERAHEIGHT
 40
0.0
  9
$STEPSPERSEC
 40
2.0
  9
$STEPSIZE
 40
6.0
  9
$3DDWFPREC
 40
2.0
  9
$PSOLWIDTH
 40
0.25
  9
$PSOLHEIGHT
 40
4.0
  9
$LOFTANG1
 40
1.570796326794896
  9
$LOFTANG2
 40
1.570796326794896
  9
$LOFTMAG1
 40
0.0
  9
$LOFTMAG2
 40
0.0
  9
$LOFTPARAM
 70
     7
  9
$LOFTNORMALS
280
     1
  9
$LATITUDE
 40
37.795
  9
$LONGITUDE
 40
-122.394
  9
$NORTHDIRECTION
 40
0.0
  9
$TIMEZONE
 70
 -8000
  9
$LIGHTGLYPHDISPLAY
280
     1
  9
$TILEMODELIGHTSYNCH
280
     1
  9
$CMATERIAL
347
11
  9
$SOLIDHIST
280
     0
  9
$SHOWHIST
280
     1
  9
$DWFFRAME
280
     2
  9
$DGNFRAME
280
     0
  9
$REALWORLDSCALE
290
     1
  9
$INTERFERECOLOR
 62
     1
  9
$INTERFEREOBJVS
345
33
  9
$INTERFEREVPVS
346
30
  9
$CSHADOW
280
     0
  9
$SHADOWPLANELOCATION
 40
0.0
  0
ENDSEC
  0
SECTION
  2
CLASSES
  0
CLASS
  1
ACDBDICTIONARYWDFLT
  2
AcDbDictionaryWithDefault
  3
ObjectDBX Classes
 90
        0
 91
        1
280
     0
281
     0
  0
CLASS
  1
MATERIAL
  2
AcDbMaterial
  3
ObjectDBX Classes
 90
     1153
 91
        3
280
     0
281
     0
  0
CLASS
  1
VISUALSTYLE
  2
AcDbVisualStyle
  3
ObjectDBX Classes
 90
     4095
 91
       24
280
     0
281
     0
  0
CLASS
  1
SCALE
  2
AcDbScale
  3
ObjectDBX Classes
 90
     1153
 91
       17
280
     0
281
     0
  0
CLASS
  1
TABLESTYLE
  2
AcDbTableStyle
  3
ObjectDBX Classes
 90
     4095
 91
        1
280
     0
281
     0
  0
CLASS
  1
MLEADERSTYLE
  2
AcDbMLeaderStyle
  3
ACDB_MLEADERSTYLE_CLASS
 90
     4095
 91
        1
280
     0
281
     0
  0
CLASS
  1
ACDBSECTIONVIEWSTYLE
  2
AcDbSectionViewStyle
  3
ObjectDBX Classes
 90
     1025
 91
        1
280
     0
281
     0
  0
CLASS
  1
ACDBDETAILVIEWSTYLE
  2
AcDbDetailViewStyle
  3
ObjectDBX Classes
 90
     1025
 91
        1
280
     0
281
     0
  0
CLASS
  1
DICTIONARYVAR
  2
AcDbDictionaryVar
  3
ObjectDBX Classes
 90
        0
 91
        5
280
     0
281
     0
  0
CLASS
  1
CELLSTYLEMAP
  2
AcDbCellStyleMap
  3
ObjectDBX Classes
 90
     1152
 91
        1
280
     0
281
     0
  0
ENDSEC
  0
SECTION
  2
TABLES
  0
TABLE
  2
VPORT
  5
8
330
0
100
AcDbSymbolTable
 70
     1
  0
VPORT
  5
57
330
8
100
AcDbSymbolTableRecord
100
AcDbViewportTableRecord
  2
*Active
 70
     0
 10
0.0
 20
0.0
 11
1.0
 21
1.0
 12
0.0
 22
0.0
 13
0.0
 23
0.0
 14
1.0
 24
1.0
 15
0.0
 25
0.0
 16
0.0
 26
0.0
 36
1.0
 17
148.5000119155985
 27
-104.9999970067687
 37
0.0
 40
214.1999938938081
 41
1.414285868084602
 42
50.0
 43
0.0
 44
0.0
 50
0.0
 51
0.0
 71
     0
 72
   100
 73
     1
 74
     1
 75
     0
 76
     0
 77
     0
 78
     0
281
     0
 65
     1
110
0.0
120
0.0
130
0.0
111
1.0
121
0.0
131
0.0
112
0.0
122
1.0
132
0.0
 79
     0
146
0.0
 60
     3
 61
     5
292
     1
282
     1
141
0.0
142
0.0
 63
   250
421
  3355443
  0
ENDTAB
  0
TABLE
  2
LTYPE
  5
5
330
0
100
AcDbSymbolTable
 70
     1
  0
LTYPE
  5
5B
330
5
100
AcDbSymbolTableRecord
100
AcDbLinetypeTableRecord
  2
ByBlock
 70
     0
  3

 72
    65
 73
     0
 40
0.0
  0
LTYPE
  5
5C
330
5
100
AcDbSymbolTableRecord
100
AcDbLinetypeTableRecord
  2
ByLayer
 70
     0
  3

 72
    65
 73
     0
 40
0.0
  0
LTYPE
  5
5D
330
5
100
AcDbSymbolTableRecord
100
AcDbLinetypeTableRecord
  2
Continuous
 70
     0
  3
Solid line
 72
    65
 73
     0
 40
0.0
  0
ENDTAB
  0
TABLE
  2
LAYER
  5
2
330
0
100
AcDbSymbolTable
 70
     2
  0
LAYER
  5
54
330
2
100
AcDbSymbolTableRecord
100
AcDbLayerTableRecord
  2
0
 70
     0
 62
     7
  6
Continuous
370
    -3
390
F
347
21
348
0
  0
LAYER
  5
78
330
2
100
AcDbSymbolTableRecord
100
AcDbLayerTableRecord
  2
レイヤー 1
 70
     0
 62
     7
  6
Continuous
370
     0
390
F
347
21
348
0
  0
ENDTAB
  0
TABLE
  2
STYLE
  5
3
330
0
100
AcDbSymbolTable
 70
     2
  0
STYLE
  5
55
330
3
100
AcDbSymbolTableRecord
100
AcDbTextStyleTableRecord
  2
Standard
 70
     0
 40
0.0
 41
1.0
 50
0.0
 71
     0
 42
0.2
  3
txt
  4

  0
STYLE
  5
5A
330
3
100
AcDbSymbolTableRecord
100
AcDbTextStyleTableRecord
  2
Annotative
 70
     0
 40
0.0
 41
1.0
 50
0.0
 71
     0
 42
0.2
  3
txt
  4

1001
AcadAnnotative
1000
AnnotativeData
1002
{
1070
     1
1070
     1
1002
}
  0
ENDTAB
  0
TABLE
  2
VIEW
  5
6
330
0
100
AcDbSymbolTable
 70
     0
  0
ENDTAB
  0
TABLE
  2
UCS
  5
7
330
0
100
AcDbSymbolTable
 70
     0
  0
ENDTAB
  0
TABLE
  2
APPID
  5
9
330
0
100
AcDbSymbolTable
 70
     2
  0
APPID
  5
56
330
9
100
AcDbSymbolTableRecord
100
AcDbRegAppTableRecord
  2
ACAD
 70
     0
  0
APPID
  5
5E
330
9
100
AcDbSymbolTableRecord
100
AcDbRegAppTableRecord
  2
AcadAnnotative
 70
     0
  0
ENDTAB
  0
TABLE
  2
DIMSTYLE
  5
A
330
0
100
AcDbSymbolTable
 70
     2
100
AcDbDimStyleTable
 71
     0
  0
DIMSTYLE
105
58
330
A
100
AcDbSymbolTableRecord
100
AcDbDimStyleTableRecord
  2
Standard
 70
     0
340
55
  0
DIMSTYLE
105
59
330
A
100
AcDbSymbolTableRecord
100
AcDbDimStyleTableRecord
  2
Annotative
 70
     0
340
55
1001
AcadAnnotative
1000
AnnotativeData
1002
{
1070
     1
1070
     1
1002
}
  0
ENDTAB
  0
TABLE
  2
BLOCK_RECORD
  5
1
330
0
100
AcDbSymbolTable
 70
     2
  0
BLOCK_RECORD
  5
70
330
1
100
AcDbSymbolTableRecord
100
AcDbBlockTableRecord
  2
*Model_Space
340
73
 70
     0
280
     1
281
     0
  0
BLOCK_RECORD
  5
6C
330
1
100
AcDbSymbolTableRecord
100
AcDbBlockTableRecord
  2
*Paper_Space
340
6F
 70
     0
280
     1
281
     0
  0
BLOCK_RECORD
  5
74
330
1
100
AcDbSymbolTableRecord
100
AcDbBlockTableRecord
  2
*Paper_Space0
340
77
 70
     0
280
     1
281
     0
  0
BLOCK_RECORD
  5
79
330
1
100
AcDbSymbolTableRecord
100
AcDbBlockTableRecord
  2
Block_0
340
0
102
{BLKREFS
331
7A
102
}
 70
     0
280
     1
281
     0
  0
ENDTAB
  0
ENDSEC
  0
SECTION
  2
BLOCKS
  0
BLOCK
  5
71
330
70
100
AcDbEntity
  8
0
100
AcDbBlockBegin
  2
*Model_Space
 70
     0
 10
0.0
 20
0.0
 30
0.0
  3
*Model_Space
  1

  0
ENDBLK
  5
72
330
70
100
AcDbEntity
  8
0
100
AcDbBlockEnd
  0
BLOCK
  5
6D
330
6C
100
AcDbEntity
 67
     1
  8
0
100
AcDbBlockBegin
  2
*Paper_Space
 70
     0
 10
0.0
 20
0.0
 30
0.0
  3
*Paper_Space
  1

  0
ENDBLK
  5
6E
330
6C
100
AcDbEntity
 67
     1
  8
0
100
AcDbBlockEnd
  0
BLOCK
  5
75
330
74
100
AcDbEntity
 67
     1
  8
0
100
AcDbBlockBegin
  2
*Paper_Space0
 70
     0
 10
0.0
 20
0.0
 30
0.0
  3
*Paper_Space0
  1

  0
ENDBLK
  5
76
330
74
100
AcDbEntity
 67
     1
  8
0
100
AcDbBlockEnd
  0
BLOCK
  5
7B
330
79
100
AcDbEntity
  8
0
100
AcDbBlockBegin
  2
Block_0
 70
     0
 10
0.0
 20
0.0
 30
0.0
  3
Block_0
  1

  0
SPLINE
  5
7D
330
79
100
AcDbEntity
  8
レイヤー 1
 62
   250
420
  2299925
370
    25
100
AcDbSpline
210
0.0
220
0.0
230
1.0
 70
    11
 71
     3
 72
    29
 73
    25
 74
     0
 42
0.0000000001
 43
0.0000000001
 40
0.0
 40
0.0
 40
0.0
 40
0.0
 40
1.0
 40
1.0
 40
1.0
 40
2.0
 40
2.0
 40
2.0
 40
3.0
 40
3.0
 40
3.0
 40
4.0
 40
4.0
 40
4.0
 40
5.0
 40
5.0
 40
5.0
 40
6.0
 40
6.0
 40
6.0
 40
7.0
 40
7.0
 40
7.0
 40
8.0
 40
8.0
 40
8.0
 40
8.0
 10
94.38868468564692
 20
-48.84806523093901
 30
0.0
 10
94.38868468564692
 20
-48.84806523093901
 30
0.0
 10
94.30150671956727
 20
-47.6566330278479
 30
0.0
 10
95.72541349887208
 20
-47.71475167190099
 30
0.0
 10
97.14932027817752
 20
-47.77287031595409
 30
0.0
 10
155.413260941577
 20
-47.36603980758111
 30
0.0
 10
155.413260941577
 20
-47.36603980758111
 30
0.0
 10
155.413260941577
 20
-47.36603980758111
 30
0.0
 10
157.2439982292541
 20
-47.33698048555456
 30
0.0
 10
157.3021168733079
 20
-48.84806523093901
 30
0.0
 10
157.3021168733079
 20
-48.84806523093901
 30
0.0
 10
152.3329728067518
 20
-80.40648895186272
 30
0.0
 10
152.3329728067518
 20
-80.40648895186272
 30
0.0
 10
152.3329728067518
 20
-80.40648895186272
 30
0.0
 10
151.461193145952
 20
-82.2081669175146
 30
0.0
 10
149.1073880617944
 20
-81.91757369724845
 30
0.0
 10
149.1073880617944
 20
-81.91757369724845
 30
0.0
 10
92.5288880759381
 20
-72.29893810643091
 30
0.0
 10
92.5288880759381
 20
-72.29893810643091
 30
0.0
 10
92.5288880759381
 20
-72.29893810643091
 30
0.0
 10
90.95968468649926
 20
-71.71775166589863
 30
0.0
 10
91.07592197460611
 20
-70.49726014077968
 30
0.0
 10
91.07592197460611
 20
-70.49726014077968
 30
0.0
 10
94.38868468564692
 20
-48.84806523093901
 30
0.0
 10
94.38868468564692
 20
-48.84806523093901
 30
0.0
  0
SPLINE
  5
7E
330
79
100
AcDbEntity
  8
レイヤー 1
 62
   250
420
  2299925
370
    25
100
AcDbSpline
210
0.0
220
0.0
230
1.0
 70
    11
 71
     3
 72
    53
 73
    49
 74
     0
 42
0.0000000001
 43
0.0000000001
 40
0.0
 40
0.0
 40
0.0
 40
0.0
 40
1.0
 40
1.0
 40
1.0
 40
2.0
 40
2.0
 40
2.0
 40
3.0
 40
3.0
 40
3.0
 40
4.0
 40
4.0
 40
4.0
 40
5.0
 40
5.0
 40
5.0
 40
6.0
 40
6.0
 40
6.0
 40
7.0
 40
7.0
 40
7.0
 40
8.0
 40
8.0
 40
8.0
 40
9.0
 40
9.0
 40
9.0
 40
10.0
 40
10.0
 40
10.0
 40
11.0
 40
11.0
 40
11.0
 40
12.0
 40
12.0
 40
12.0
 40
13.0
 40
13.0
 40
13.0
 40
14.0
 40
14.0
 40
14.0
 40
15.0
 40
15.0
 40
15.0
 40
16.0
 40
16.0
 40
16.0
 40
16.0
 10
93.11007451647489
 20
-61.69228556671194
 30
0.0
 10
93.11007451647489
 20
-61.69228556671194
 30
0.0
 10
93.9237355332202
 20
-56.34537031381071
 30
0.0
 10
93.9237355332202
 20
-56.34537031381071
 30
0.0
 10
93.9237355332202
 20
-56.34537031381071
 30
0.0
 10
95.20234570239288
 20
-55.29923472085235
 30
0.0
 10
95.20234570239288
 20
-55.29923472085235
 30
0.0
 10
95.20234570239288
 20
-55.29923472085235
 30
0.0
 10
95.60917621076523
 20
-51.4634042133362
 30
0.0
 10
95.60917621076523
 20
-51.4634042133362
 30
0.0
 10
95.60917621076523
 20
-51.4634042133362
 30
0.0
 10
95.72541349887144
 20
-50.53350590848404
 30
0.0
 10
96.77154909183045
 20
-50.53350590848404
 30
0.0
 10
97.81768468478944
 20
-50.53350590848404
 30
0.0
 10
115.5438711210356
 20
-50.88221777280392
 30
0.0
 10
115.5438711210356
 20
-50.88221777280392
 30
0.0
 10
115.5438711210356
 20
-50.88221777280392
 30
0.0
 10
116.8224812902076
 20
-51.23092963712316
 30
0.0
 10
116.7643626461545
 20
-52.62577709440141
 30
0.0
 10
116.7643626461545
 20
-52.62577709440141
 30
0.0
 10
116.2412948496747
 20
-58.08892963540884
 30
0.0
 10
116.2412948496747
 20
-58.08892963540884
 30
0.0
 10
116.2412948496747
 20
-58.08892963540884
 30
0.0
 10
116.7662855840069
 20
-59.19318387242095
 30
0.0
 10
116.7662855840069
 20
-59.19318387242095
 30
0.0
 10
116.7662855840069
 20
-59.19318387242095
 30
0.0
 10
116.5318880699415
 20
-63.95891268478862
 30
0.0
 10
116.5318880699415
 20
-63.95891268478862
 30
0.0
 10
116.5318880699415
 20
-63.95891268478862
 30
0.0
 10
114.9045660364502
 20
-66.51613302313271
 30
0.0
 10
114.9045660364502
 20
-66.51613302313271
 30
0.0
 10
114.9045660364502
 20
-66.51613302313271
 30
0.0
 10
114.3960279009836
 20
-70.27205039507456
 30
0.0
 10
114.3960279009836
 20
-70.27205039507456
 30
0.0
 10
114.3960279009836
 20
-70.27205039507456
 30
0.0
 10
114.0909050197042
 20
-72.32799742845938
 30
0.0
 10
112.4635829862129
 20
-72.26987878440565
 30
0.0
 10
112.4635829862129
 20
-72.26987878440565
 30
0.0
 10
94.33056604159382
 20
-69.48018386984916
 30
0.0
 10
94.33056604159382
 20
-69.48018386984916
 30
0.0
 10
94.33056604159382
 20
-69.48018386984916
 30
0.0
 10
92.64512536404879
 20
-69.36394658174295
 30
0.0
 10
92.81948129620809
 20
-67.44603132798488
 30
0.0
 10
92.81948129620809
 20
-67.44603132798488
 30
0.0
 10
93.34254909268791
 20
-62.79653980372277
 30
0.0
 10
93.34254909268791
 20
-62.79653980372277
 30
0.0
 10
93.34254909268791
 20
-62.79653980372277
 30
0.0
 10
93.11007451647489
 20
-61.69228556671194
 30
0.0
 10
93.11007451647489
 20
-61.69228556671194
 30
0.0
  0
SPLINE
  5
7F
330
79
100
AcDbEntity
  8
レイヤー 1
 62
   250
420
  2299925
370
    25
100
AcDbSpline
210
0.0
220
0.0
230
1.0
 70
     8
 71
     3
 72
    38
 73
    34
 74
     0
 42
0.0000000001
 43
0.0000000001
 40
0.0
 40
0.0
 40
0.0
 40
0.0
 40
1.0
 40
1.0
 40
1.0
 40
2.0
 40
2.0
 40
2.0
 40
3.0
 40
3.0
 40
3.0
 40
4.0
 40
4.0
 40
4.0
 40
5.0
 40
5.0
 40
5.0
 40
6.0
 40
6.0
 40
6.0
 40
7.0
 40
7.0
 40
7.0
 40
8.0
 40
8.0
 40
8.0
 40
9.0
 40
9.0
 40
9.0
 40
10.0
 40
10.0
 40
10.0
 40
11.0
 40
11.0
 40
11.0
 40
11.0
 10
95.51100122089044
 20
-52.38905411787409
 30
0.0
 10
95.51100122089044
 20
-52.38905411787409
 30
0.0
 10
96.01600671913821
 20
-51.11469234901696
 30
0.0
 10
97.06214231209722
 20
-51.11469234901696
 30
0.0
 10
97.06214231209722
 20
-51.11469234901696
 30
0.0
 10
115.2532779007694
 20
-51.75187323344617
 30
0.0
 10
115.2532779007694
 20
-51.75187323344617
 30
0.0
 10
115.2532779007694
 20
-51.75187323344617
 30
0.0
 10
116.0088202734623
 20
-52.04459065386913
 30
0.0
 10
116.0088202734623
 20
-52.74201438250825
 30
0.0
 10
116.0088202734623
 20
-52.74201438250825
 30
0.0
 10
115.4276338329294
 20
-58.14704827946258
 30
0.0
 10
115.4276338329294
 20
-58.14704827946258
 30
0.0
 10
115.4276338329294
 20
-58.14704827946258
 30
0.0
 10
116.0088202734623
 20
-59.13506522836785
 30
0.0
 10
116.0088202734623
 20
-59.13506522836785
 30
0.0
 10
116.0088202734623
 20
-59.13506522836785
 30
0.0
 10
115.7182270531955
 20
-63.66831946452312
 30
0.0
 10
115.7182270531955
 20
-63.66831946452312
 30
0.0
 10
115.7182270531955
 20
-63.66831946452312
 30
0.0
 10
114.2071423078104
 20
-66.39989573502652
 30
0.0
 10
114.2071423078104
 20
-66.39989573502652
 30
0.0
 10
114.2071423078104
 20
-66.39989573502652
 30
0.0
 10
113.6332206977848
 20
-70.67888090344755
 30
0.0
 10
113.6332206977848
 20
-70.67888090344755
 30
0.0
 10
113.6332206977848
 20
-70.67888090344755
 30
0.0
 10
113.3934812910651
 20
-71.57245505576717
 30
0.0
 10
112.1148711218931
 20
-71.57245505576717
 30
0.0
 10
112.1148711218931
 20
-71.57245505576717
 30
0.0
 10
93.57502366890159
 20
-68.66652285310383
 30
0.0
 10
93.57502366890159
 20
-68.66652285310383
 30
0.0
 10
93.57502366890159
 20
-68.66652285310383
 30
0.0
 10
92.7640743252355
 20
-68.41104652993836
 30
0.0
 10
92.80682983109628
 20
-67.79474319230477
 30
0.0
  0
LINE
  5
80
330
79
100
AcDbEntity
  8
レイヤー 1
 62
   250
420
  2299925
370
    25
100
AcDbLine
 10
119.3404547111839
 20
-47.60485049500231
 30
0.0
 11
115.0264708523364
 21
-76.12364272840784
 31
0.0
  0
LINE
  5
81
330
79
100
AcDbEntity
  8
レイヤー 1
 62
   250
420
  2299925
370
    25
100
AcDbLine
 10
120.1727964223602
 20
-47.62022152906197
 30
0.0
 11
115.755359137564
 21
-76.14576578219571
 31
0.0
  0
SPLINE
  5
82
330
79
100
AcDbEntity
  8
レイヤー 1
 62
   250
420
  2299925
370
    25
100
AcDbSpline
210
0.0
220
0.0
230
1.0
 70
    11
 71
     3
 72
    53
 73
    49
 74
     0
 42
0.0000000001
 43
0.0000000001
 40
0.0
 40
0.0
 40
0.0
 40
0.0
 40
1.0
 40
1.0
 40
1.0
 40
2.0
 40
2.0
 40
2.0
 40
3.0
 40
3.0
 40
3.0
 40
4.0
 40
4.0
 40
4.0
 40
5.0
 40
5.0
 40
5.0
 40
6.0
 40
6.0
 40
6.0
 40
7.0
 40
7.0
 40
7.0
 40
8.0
 40
8.0
 40
8.0
 40
9.0
 40
9.0
 40
9.0
 40
10.0
 40
10.0
 40
10.0
 40
11.0
 40
11.0
 40
11.0
 40
12.0
 40
12.0
 40
12.0
 40
13.0
 40
13.0
 40
13.0
 40
14.0
 40
14.0
 40
14.0
 40
15.0
 40
15.0
 40
15.0
 40
16.0
 40
16.0
 40
16.0
 40
16.0
 10
117.9640777799624
 20
-64.96630251504555
 30
0.0
 10
117.9640777799624
 20
-64.96630251504555
 30
0.0
 10
119.0891084082856
 20
-58.03081099135575
 30
0.0
 10
119.0891084082856
 20
-58.03081099135575
 30
0.0
 10
119.0891084082856
 20
-58.03081099135575
 30
0.0
 10
120.8907863739362
 20
-55.88042116138463
 30
0.0
 10
120.8907863739362
 20
-55.88042116138463
 30
0.0
 10
120.8907863739362
 20
-55.88042116138463
 30
0.0
 10
121.181379594203
 20
-53.26508217898743
 30
0.0
 10
121.181379594203
 20
-53.26508217898743
 30
0.0
 10
121.181379594203
 20
-53.26508217898743
 30
0.0
 10
121.4719728144691
 20
-51.11469234901761
 30
0.0
 10
122.7505829836411
 20
-51.11469234901696
 30
0.0
 10
122.7505829836411
 20
-51.11469234901696
 30
0.0
 10
149.3108033159842
 20
-51.75399743360235
 30
0.0
 10
149.3108033159842
 20
-51.75399743360235
 30
0.0
 10
149.3108033159842
 20
-51.75399743360235
 30
0.0
 10
150.8218880613692
 20
-52.04459065386849
 30
0.0
 10
150.8218880613692
 20
-53.38131946709363
 30
0.0
 10
150.8218880613692
 20
-53.38131946709363
 30
0.0
 10
150.4150575529969
 20
-58.67011607594113
 30
0.0
 10
150.4150575529969
 20
-58.67011607594113
 30
0.0
 10
150.4150575529969
 20
-58.67011607594113
 30
0.0
 10
151.751786366222
 20
-60.47179404159236
 30
0.0
 10
151.751786366222
 20
-60.47179404159236
 30
0.0
 10
151.751786366222
 20
-60.47179404159236
 30
0.0
 10
150.9381253494767
 20
-68.14345505662401
 30
0.0
 10
150.9381253494767
 20
-68.14345505662401
 30
0.0
 10
150.9381253494767
 20
-68.14345505662401
 30
0.0
 10
148.6133795873457
 20
-70.41008217470068
 30
0.0
 10
148.6133795873457
 20
-70.41008217470068
 30
0.0
 10
148.6133795873457
 20
-70.41008217470068
 30
0.0
 10
148.3227863670795
 20
-74.768980478696
 30
0.0
 10
148.3227863670795
 20
-74.768980478696
 30
0.0
 10
148.3227863670795
 20
-74.768980478696
 30
0.0
 10
147.9740745027596
 20
-77.44243810514629
 30
0.0
 10
144.4869558595634
 20
-76.91937030866711
 30
0.0
 10
144.4869558595634
 20
-76.91937030866711
 30
0.0
 10
119.8446507809785
 20
-73.19977708925844
 30
0.0
 10
119.8446507809785
 20
-73.19977708925844
 30
0.0
 10
119.8446507809785
 20
-73.19977708925844
 30
0.0
 10
117.7689454564907
 20
-72.85106522493856
 30
0.0
 10
117.9640777799624
 20
-71.04938725928734
 30
0.0
 10
117.9640777799624
 20
-71.04938725928734
 30
0.0
 10
118.5079219677533
 20
-65.64435336233301
 30
0.0
 10
118.5079219677533
 20
-65.64435336233301
 30
0.0
 10
118.5079219677533
 20
-65.64435336233301
 30
0.0
 10
117.9640777799624
 20
-64.96630251504555
 30
0.0
 10
117.9640777799624
 20
-64.96630251504555
 30
0.0
  0
SPLINE
  5
83
330
79
100
AcDbEntity
  8
レイヤー 1
 62
   250
420
  2299925
370
    25
100
AcDbSpline
210
0.0
220
0.0
230
1.0
 70
     8
 71
     3
 72
    38
 73
    34
 74
     0
 42
0.0000000001
 43
0.0000000001
 40
0.0
 40
0.0
 40
0.0
 40
0.0
 40
1.0
 40
1.0
 40
1.0
 40
2.0
 40
2.0
 40
2.0
 40
3.0
 40
3.0
 40
3.0
 40
4.0
 40
4.0
 40
4.0
 40
5.0
 40
5.0
 40
5.0
 40
6.0
 40
6.0
 40
6.0
 40
7.0
 40
7.0
 40
7.0
 40
8.0
 40
8.0
 40
8.0
 40
9.0
 40
9.0
 40
9.0
 40
10.0
 40
10.0
 40
10.0
 40
11.0
 40
11.0
 40
11.0
 40
11.0
 10
121.181379594203
 20
-53.26508217898743
 30
0.0
 10
121.181379594203
 20
-53.26508217898743
 30
0.0
 10
121.7625660347365
 20
-51.81211607765609
 30
0.0
 10
123.273650780121
 20
-51.81211607765609
 30
0.0
 10
123.273650780121
 20
-51.81211607765609
 30
0.0
 10
149.194566027878
 20
-52.53859912832176
 30
0.0
 10
149.194566027878
 20
-52.53859912832176
 30
0.0
 10
149.194566027878
 20
-52.53859912832176
 30
0.0
 10
150.0082270446233
 20
-53.09072624682749
 30
0.0
 10
149.8919897565171
 20
-54.02062455167966
 30
0.0
 10
149.8919897565171
 20
-54.02062455167966
 30
0.0
 10
149.4851592481454
 20
-59.30942116052715
 30
0.0
 10
149.4851592481454
 20
-59.30942116052715
 30
0.0
 10
149.4851592481454
 20
-59.30942116052715
 30
0.0
 10
150.9381253494767
 20
-60.93674319401844
 30
0.0
 10
150.9381253494767
 20
-60.93674319401844
 30
0.0
 10
150.9381253494767
 20
-60.93674319401844
 30
0.0
 10
150.1244643327301
 20
-67.32979403987804
 30
0.0
 10
150.1244643327301
 20
-67.32979403987804
 30
0.0
 10
150.1244643327301
 20
-67.32979403987804
 30
0.0
 10
147.6834812824929
 20
-69.94513302227523
 30
0.0
 10
147.6834812824929
 20
-69.94513302227523
 30
0.0
 10
147.6834812824929
 20
-69.94513302227523
 30
0.0
 10
147.3928880622267
 20
-74.30403132626992
 30
0.0
 10
147.3928880622267
 20
-74.30403132626992
 30
0.0
 10
147.3928880622267
 20
-74.30403132626992
 30
0.0
 10
147.3347694181736
 20
-76.39630251218793
 30
0.0
 10
145.3587355203624
 20
-76.39630251218793
 30
0.0
 10
145.3587355203624
 20
-76.39630251218793
 30
0.0
 10
119.3404547111839
 20
-72.27110087848867
 30
0.0
 10
119.3404547111839
 20
-72.27110087848867
 30
0.0
 10
119.3404547111839
 20
-72.27110087848867
 30
0.0
 10
117.8724077025087
 20
-71.96045680290622
 30
0.0
 10
117.9640777799624
 20
-71.04938725928734
 30
0.0
  0
LINE
  5
84
330
79
100
AcDbEntity
  8
レイヤー 1
 62
   250
420
  2299925
370
    25
100
AcDbLine
 10
154.9483117891522
 20
-47.36599994568597
 30
0.0
 11
149.1073880617944
 21
-81.91757369724845
 31
0.0
  0
LINE
  5
85
330
79
100
AcDbEntity
  8
レイヤー 1
 62
   250
420
  2299925
370
    25
100
AcDbLine
 10
155.705203266457
 20
-47.38583546648555
 30
0.0
 11
150.0853129212374
 21
-81.91757369724845
 31
0.0
  0
ELLIPSE
  5
86
330
79
100
AcDbEntity
  8
レイヤー 1
 62
   250
420
  2299925
370
    25
100
AcDbEllipse
 10
94.15621010943324
 20
-55.03770082261003
 30
0.0
 11
0.0
 21
0.5521271185058929
 31
0.0
210
0.0
220
0.0
230
1.0
 40
0.4210526315790085
 41
0.0
 42
6.283185307179585
  0
ELLIPSE
  5
87
330
79
100
AcDbEntity
  8
レイヤー 1
 62
   250
420
  2299925
370
    25
100
AcDbEllipse
 10
92.625752482696
 20
-64.1429550576252
 30
0.0
 11
0.0
 21
0.7001274427542025
 31
0.0
210
0.0
220
0.0
230
1.0
 40
0.407878473490552
 41
0.0
 42
6.283185307179585
  0
CIRCLE
  5
88
330
79
100
AcDbEntity
  8
レイヤー 1
 62
   250
420
  2299925
370
    25
100
AcDbCircle
 10
96.53907451557889
 20
-49.44862455285971
 30
0.0
 40
0.5618135591802062
  0
CIRCLE
  5
89
330
79
100
AcDbEntity
  8
レイヤー 1
 62
   250
420
  2299925
370
    25
100
AcDbCircle
 10
101.5082185821265
 20
-49.53580251894496
 30
0.0
 40
0.6489915252595352
  0
CIRCLE
  5
8A
330
79
100
AcDbEntity
  8
レイヤー 1
 62
   250
420
  2299925
370
    25
100
AcDbCircle
 10
106.0608456996242
 20
-49.63266692570575
 30
0.0
 40
0.7458559320134184
  0
CIRCLE
  5
8B
330
79
100
AcDbEntity
  8
レイヤー 1
 62
   250
420
  2299925
370
    25
100
AcDbCircle
 10
111.0590490882045
 20
-49.63266692570575
 30
0.0
 40
0.7458559320138195
  0
CIRCLE
  5
8C
330
79
100
AcDbEntity
  8
レイヤー 1
 62
   250
420
  2299925
370
    25
100
AcDbCircle
 10
115.8963782181718
 20
-49.6635985425317
 30
0.0
 40
0.8699073658938729
  0
ELLIPSE
  5
8D
330
79
100
AcDbEntity
  8
レイヤー 1
 62
   250
420
  2299925
370
    25
100
AcDbEllipse
 10
117.1721546234535
 20
-56.66502285610373
 30
0.0
 11
0.0
 21
0.6683644066122531
 31
0.0
210
0.0
220
0.0
230
1.0
 40
0.6072571121850815
 41
0.0
 42
6.283185307179586
  0
ELLIPSE
  5
8E
330
79
100
AcDbEntity
  8
レイヤー 1
 62
   250
420
  2299925
370
    25
100
AcDbEllipse
 10
115.6746380701557
 20
-66.89390420947915
 30
0.0
 11
0.0
 21
0.6102457625594738
 31
0.0
210
0.0
220
0.0
230
1.0
 40
0.5476190476194233
 41
0.0
 42
6.283185307179585
  0
ELLIPSE
  5
8F
330
79
100
AcDbEntity
  8
レイヤー 1
 62
   250
420
  2299925
370
    25
100
AcDbEllipse
 10
93.46699030925099
 20
-70.59896776787534
 30
0.0
 11
0.0
 21
0.77007203370598
 31
0.0
210
0.0
220
0.0
230
1.0
 40
0.8572710723926649
 41
0.0
 42
6.283185307179586
  0
CIRCLE
  5
90
330
79
100
AcDbEntity
  8
レイヤー 1
 62
   250
420
  2299925
370
    25
100
AcDbCircle
 10
98.45033598579645
 20
-71.43503432318208
 30
0.0
 40
0.8360665552503604
  0
ELLIPSE
  5
91
330
79
100
AcDbEntity
  8
レイヤー 1
 62
   250
420
  2299925
370
    25
100
AcDbEllipse
 10
102.8594770564099
 20
-72.27110087848867
 30
0.0
 11
0.0000000000000001
 21
1.017076270932456
 31
0.0
210
0.0
220
0.0
230
1.0
 40
0.8714285714283459
 41
0.0
 42
6.283185307179586
  0
ELLIPSE
  5
92
330
79
100
AcDbEntity
  8
レイヤー 1
 62
   250
420
  2299925
370
    25
100
AcDbEllipse
 10
107.5525575637112
 20
-72.96730251304686
 30
0.0
 11
0.0000000000000001
 21
1.017076270932296
 31
0.0
210
0.0
220
0.0
230
1.0
 40
0.885714285714155
 41
0.0
 42
6.283185307179586
  0
ELLIPSE
  5
93
330
79
100
AcDbEntity
  8
レイヤー 1
 62
   250
420
  2299925
370
    25
100
AcDbEllipse
 10
112.5217016302659
 20
-73.69378556371301
 30
0.0
 11
0.0000000000000001
 21
1.075194914985556
 31
0.0
210
0.0
220
0.0
230
1.0
 40
0.8918918918920653
 41
0.0
 42
6.283185307179586
  0
ELLIPSE
  5
94
330
79
100
AcDbEntity
  8
レイヤー 1
 62
   250
420
  2299925
370
    25
100
AcDbEllipse
 10
117.762066035736
 20
-67.01014149758535
 30
0.0
 11
0.0
 21
0.4940084744532741
 31
0.0
210
0.0
220
0.0
230
1.0
 40
0.6078431372538322
 41
0.0
 42
6.283185307179586
  0
ELLIPSE
  5
95
330
79
100
AcDbEntity
  8
レイヤー 1
 62
   250
420
  2299925
370
    25
100
AcDbEllipse
 10
119.6735779515601
 20
-56.36927462019794
 30
0.0
 11
0.0
 21
0.566344984218734
 31
0.0
210
0.0
220
0.0
230
1.0
 40
0.5881984473399832
 41
0.0
 42
6.283185307179586
  0
CIRCLE
  5
96
330
79
100
AcDbEntity
  8
レイヤー 1
 62
   250
420
  2299925
370
    25
100
AcDbCircle
 10
123.1177315818353
 20
-49.58704316460514
 30
0.0
 40
0.7933519879722953
  0
ELLIPSE
  5
97
330
79
100
AcDbEntity
  8
レイヤー 1
 62
   250
420
  2299925
370
    25
100
AcDbEllipse
 10
129.0758287447708
 20
-49.53580251890262
 30
0.0
 11
0.0000000000000001
 21
0.9202118641766483
 31
0.0
210
0.0
220
0.0
230
1.0
 40
0.9157894736844454
 41
0.0
 42
6.283185307179586
  0
ELLIPSE
  5
98
330
79
100
AcDbEntity
  8
レイヤー 1
 62
   250
420
  2299925
370
    25
100
AcDbEllipse
 10
135.3996933391065
 20
-49.56486184092965
 30
0.0
 11
0.0000000000000001
 21
1.007389830256458
 31
0.0
210
0.0
220
0.0
230
1.0
 40
0.9436787273862226
 41
0.0
 42
6.283185307179586
  0
CIRCLE
  5
99
330
79
100
AcDbEntity
  8
レイヤー 1
 62
   250
420
  2299925
370
    25
100
AcDbCircle
 10
142.3075067074956
 20
-49.59392116302678
 30
0.0
 40
1.03644915228381
  0
CIRCLE
  5
9A
330
79
100
AcDbEntity
  8
レイヤー 1
 62
   250
420
  2299925
370
    25
100
AcDbCircle
 10
150.8533689935637
 20
-49.75132582409233
 30
0.0
 40
1.174480931989172
  0
ELLIPSE
  5
9B
330
79
100
AcDbEntity
  8
レイヤー 1
 62
   250
420
  2299925
370
    25
100
AcDbEllipse
 10
151.7227270441934
 20
-58.14704827946307
 30
0.0
 11
0.0000000000000001
 21
1.007389830256458
 31
0.0
210
0.0
220
0.0
230
1.0
 40
0.6250000000000596
 41
0.0
 42
6.283185307179586
  0
ELLIPSE
  5
9C
330
79
100
AcDbEntity
  8
レイヤー 1
 62
   250
420
  2299925
370
    25
100
AcDbEllipse
 10
149.703104163341
 20
-71.2140567507724
 30
0.0
 11
0.0
 21
0.765228813368382
 31
0.0
210
0.0
220
0.0
230
1.0
 40
0.7784810126585518
 41
0.0
 42
6.283185307179586
  0
ELLIPSE
  5
9D
330
79
100
AcDbEntity
  8
レイヤー 1
 62
   250
420
  2299925
370
    25
100
AcDbEllipse
 10
119.234405018418
 20
-74.61399742788774
 30
0.0
 11
0.0000000000000001
 21
0.8911525421500986
 31
0.0
210
0.0
220
0.0
230
1.0
 40
0.9021739130433999
 41
0.0
 42
6.283185307179586
  0
ELLIPSE
  5
9E
330
79
100
AcDbEntity
  8
レイヤー 1
 62
   250
420
  2299925
370
    25
100
AcDbEllipse
 10
124.9881507796912
 20
-75.52452285138902
 30
0.0
 11
0.0000000000000001
 21
0.9880169489057461
 31
0.0
210
0.0
220
0.0
230
1.0
 40
0.9117647058821381
 41
0.0
 42
6.283185307179586
  0
ELLIPSE
  5
9F
330
79
100
AcDbEntity
  8
レイヤー 1
 62
   250
420
  2299925
370
    25
100
AcDbEllipse
 10
131.1487270493381
 20
-76.49316691894374
 30
0.0
 11
0.0000000000000001
 21
1.084881355661073
 31
0.0
210
0.0
220
0.0
230
1.0
 40
0.8660714285715288
 41
0.0
 42
6.283185307179586
  0
ELLIPSE
  5
A0
330
79
100
AcDbEntity
  8
レイヤー 1
 62
   250
420
  2299925
370
    25
100
AcDbEllipse
 10
137.77425247141
 20
-77.6458533593331
 30
0.0
 11
0.0000000000000001
 21
1.249550847145818
 31
0.0
210
0.0
220
0.0
230
1.0
 40
0.8604651162783801
 41
0.0
 42
6.283185307179586
  0
ELLIPSE
  5
A1
330
79
100
AcDbEntity
  8
レイヤー 1
 62
   250
420
  2299925
370
    25
100
AcDbEllipse
 10
146.1336507744052
 20
-78.71136183364346
 30
0.0
 11
0.0000000000000001
 21
1.210805084442789
 31
0.0
210
0.0
220
0.0
230
1.0
 40
0.8639999999999629
 41
0.0
 42
6.283185307179586
  0
SPLINE
  5
A2
330
79
100
AcDbEntity
  8
レイヤー 1
 62
   250
420
  2299925
370
    25
100
AcDbSpline
210
0.0
220
0.0
230
1.0
 70
    11
 71
     3
 72
    29
 73
    25
 74
     0
 42
0.0000000001
 43
0.0000000001
 40
0.0
 40
0.0
 40
0.0
 40
0.0
 40
1.0
 40
1.0
 40
1.0
 40
2.0
 40
2.0
 40
2.0
 40
3.0
 40
3.0
 40
3.0
 40
4.0
 40
4.0
 40
4.0
 40
5.0
 40
5.0
 40
5.0
 40
6.0
 40
6.0
 40
6.0
 40
7.0
 40
7.0
 40
7.0
 40
8.0
 40
8.0
 40
8.0
 40
8.0
 10
90.17508299178564
 20
-77.73303132541435
 30
0.0
 10
90.17508299178564
 20
-77.73303132541435
 30
0.0
 10
90.37849824597213
 20
-76.13476861394961
 30
0.0
 10
92.44171010986294
 20
-76.4253618342164
 30
0.0
 10
92.44171010986294
 20
-76.4253618342164
 30
0.0
 10
149.2526846719304
 20
-87.49696352636531
 30
0.0
 10
149.2526846719304
 20
-87.49696352636531
 30
0.0
 10
149.2526846719304
 20
-87.49696352636531
 30
0.0
 10
150.821888061368
 20
-87.75849742460682
 30
0.0
 10
150.5603541631277
 20
-89.35676013607091
 30
0.0
 10
150.5603541631277
 20
-89.35676013607091
 30
0.0
 10
145.7946253507594
 20
-119.8690482640363
 30
0.0
 10
145.7946253507594
 20
-119.8690482640363
 30
0.0
 10
145.7946253507594
 20
-119.8690482640363
 30
0.0
 10
145.2424982322537
 20
-121.9322601279264
 30
0.0
 10
142.5980999278299
 20
-121.234836399288
 30
0.0
 10
142.5980999278299
 20
-121.234836399288
 30
0.0
 10
87.82127790762546
 20
-100.8642516586168
 30
0.0
 10
87.82127790762546
 20
-100.8642516586168
 30
0.0
 10
87.82127790762546
 20
-100.8642516586168
 30
0.0
 10
86.65890502656024
 20
-100.5951247581624
 30
0.0
 10
86.92043892480048
 20
-98.88442125969792
 30
0.0
 10
86.92043892480048
 20
-98.88442125969792
 30
0.0
 10
90.17508299178564
 20
-77.73303132541435
 30
0.0
 10
90.17508299178564
 20
-77.73303132541435
 30
0.0
  0
SPLINE
  5
A3
330
79
100
AcDbEntity
  8
レイヤー 1
 62
   250
420
  2299925
370
    25
100
AcDbSpline
210
0.0
220
0.0
230
1.0
 70
    11
 71
     3
 72
    62
 73
    58
 74
     0
 42
0.0000000001
 43
0.0000000001
 40
0.0
 40
0.0
 40
0.0
 40
0.0
 40
1.0
 40
1.0
 40
1.0
 40
2.0
 40
2.0
 40
2.0
 40
3.0
 40
3.0
 40
3.0
 40
4.0
 40
4.0
 40
4.0
 40
5.0
 40
5.0
 40
5.0
 40
6.0
 40
6.0
 40
6.0
 40
7.0
 40
7.0
 40
7.0
 40
8.0
 40
8.0
 40
8.0
 40
9.0
 40
9.0
 40
9.0
 40
10.0
 40
10.0
 40
10.0
 40
11.0
 40
11.0
 40
11.0
 40
12.0
 40
12.0
 40
12.0
 40
13.0
 40
13.0
 40
13.0
 40
14.0
 40
14.0
 40
14.0
 40
15.0
 40
15.0
 40
15.0
 40
16.0
 40
16.0
 40
16.0
 40
17.0
 40
17.0
 40
17.0
 40
18.0
 40
18.0
 40
18.0
 40
19.0
 40
19.0
 40
19.0
 40
19.0
 10
88.80929485653394
 20
-90.69348894929158
 30
0.0
 10
88.80929485653394
 20
-90.69348894929158
 30
0.0
 10
89.56483722922616
 20
-85.98587878097701
 30
0.0
 10
89.56483722922616
 20
-85.98587878097701
 30
0.0
 10
89.56483722922616
 20
-85.98587878097701
 30
0.0
 10
90.78532875434381
 20
-84.70726861180496
 30
0.0
 10
90.78532875434381
 20
-84.70726861180496
 30
0.0
 10
90.78532875434381
 20
-84.70726861180496
 30
0.0
 10
91.32776943217532
 20
-81.23952284995972
 30
0.0
 10
91.32776943217532
 20
-81.23952284995972
 30
0.0
 10
91.32776943217532
 20
-81.23952284995972
 30
0.0
 10
91.30839655082365
 20
-79.70906522322426
 30
0.0
 10
93.05195587242113
 20
-79.99965844349039
 30
0.0
 10
93.05195587242113
 20
-79.99965844349039
 30
0.0
 10
109.7901253597626
 20
-83.54489573073974
 30
0.0
 10
109.7901253597626
 20
-83.54489573073974
 30
0.0
 10
109.7901253597626
 20
-83.54489573073974
 30
0.0
 10
110.9276065487244
 20
-83.75538334249233
 30
0.0
 10
111.3759272422504
 20
-84.72150361679558
 30
0.0
 10
111.5066519049868
 20
-85.00321210994535
 30
0.0
 10
111.5375563270764
 20
-85.32118347484724
 30
0.0
 10
111.5101757592234
 20
-85.63053589049047
 30
0.0
 10
111.5101757592234
 20
-85.63053589049047
 30
0.0
 10
111.0350202539271
 20
-90.99896010135436
 30
0.0
 10
111.0350202539271
 20
-90.99896010135436
 30
0.0
 10
111.0190790891464
 20
-91.1790673167866
 30
0.0
 10
111.0545723995549
 20
-91.36000079788527
 30
0.0
 10
111.1373761325368
 20
-91.52073745079729
 30
0.0
 10
111.1373761325368
 20
-91.52073745079729
 30
0.0
 10
111.8193854958933
 20
-92.84463793659094
 30
0.0
 10
111.8193854958933
 20
-92.84463793659094
 30
0.0
 10
111.8193854958933
 20
-92.84463793659094
 30
0.0
 10
111.04595742959
 20
-98.13456204814775
 30
0.0
 10
111.04595742959
 20
-98.13456204814775
 30
0.0
 10
111.04595742959
 20
-98.13456204814775
 30
0.0
 10
109.6157694276033
 20
-99.46940420133532
 30
0.0
 10
109.6157694276033
 20
-99.46940420133532
 30
0.0
 10
109.6157694276033
 20
-99.46940420133532
 30
0.0
 10
109.2198450202106
 20
-103.0822144187982
 30
0.0
 10
109.2198450202106
 20
-103.0822144187982
 30
0.0
 10
109.1616455407731
 20
-103.6132846686628
 30
0.0
 10
108.8488961507852
 20
-104.0848033700863
 30
0.0
 10
108.377612978606
 20
-104.3364280137893
 30
0.0
 10
108.0330765052332
 20
-104.5203808312731
 30
0.0
 10
107.5852629458889
 20
-104.6556694948352
 30
0.0
 10
107.0585490892592
 20
-104.5838448780229
 30
0.0
 10
107.0585490892592
 20
-104.5838448780229
 30
0.0
 10
89.33236265301312
 20
-98.19079403216264
 30
0.0
 10
89.33236265301312
 20
-98.19079403216264
 30
0.0
 10
89.33236265301312
 20
-98.19079403216264
 30
0.0
 10
88.53243483362025
 20
-97.62333558879625
 30
0.0
 10
88.70679076578083
 20
-95.93789491125122
 30
0.0
 10
88.70679076578083
 20
-95.93789491125122
 30
0.0
 10
89.21612536490627
 20
-92.55328555899655
 30
0.0
 10
89.21612536490627
 20
-92.55328555899655
 30
0.0
 10
89.21612536490627
 20
-92.55328555899655
 30
0.0
 10
88.80929485653394
 20
-90.69348894929158
 30
0.0
 10
88.80929485653394
 20
-90.69348894929158
 30
0.0
  0
LINE
  5
A4
330
79
100
AcDbEntity
  8
レイヤー 1
 62
   250
420
  2299925
370
    25
100
AcDbLine
 10
114.0893950850102
 20
-80.64416898282598
 30
0.0
 11
109.9612202362756
 21
-109.0977262328258
 31
0.0
  0
LINE
  5
A5
330
79
100
AcDbEntity
  8
レイヤー 1
 62
   250
420
  2299925
370
    25
100
AcDbLine
 10
114.6192623024194
 20
-80.74743210805982
 30
0.0
 11
110.4231785224496
 21
-109.2695207997266
 31
0.0
  0
SPLINE
  5
A6
330
79
100
AcDbEntity
  8
レイヤー 1
 62
   250
420
  2299925
370
    25
100
AcDbSpline
210
0.0
220
0.0
230
1.0
 70
    11
 71
     3
 72
    53
 73
    49
 74
     0
 42
0.0000000001
 43
0.0000000001
 40
0.0
 40
0.0
 40
0.0
 40
0.0
 40
1.0
 40
1.0
 40
1.0
 40
2.0
 40
2.0
 40
2.0
 40
3.0
 40
3.0
 40
3.0
 40
4.0
 40
4.0
 40
4.0
 40
5.0
 40
5.0
 40
5.0
 40
6.0
 40
6.0
 40
6.0
 40
7.0
 40
7.0
 40
7.0
 40
8.0
 40
8.0
 40
8.0
 40
9.0
 40
9.0
 40
9.0
 40
10.0
 40
10.0
 40
10.0
 40
11.0
 40
11.0
 40
11.0
 40
12.0
 40
12.0
 40
12.0
 40
13.0
 40
13.0
 40
13.0
 40
14.0
 40
14.0
 40
14.0
 40
15.0
 40
15.0
 40
15.0
 40
16.0
 40
16.0
 40
16.0
 40
16.0
 10
112.668908960345
 20
-97.80678567061539
 30
0.0
 10
112.668908960345
 20
-97.80678567061539
 30
0.0
 10
113.4226928539178
 20
-93.01179149513517
 30
0.0
 10
113.4226928539178
 20
-93.01179149513517
 30
0.0
 10
113.4226928539178
 20
-93.01179149513517
 30
0.0
 10
115.0690228238674
 20
-90.98817772168542
 30
0.0
 10
115.0690228238674
 20
-90.98817772168542
 30
0.0
 10
115.0690228238674
 20
-90.98817772168542
 30
0.0
 10
115.4663795956321
 20
-88.02003132284127
 30
0.0
 10
115.4663795956321
 20
-88.02003132284127
 30
0.0
 10
115.4663795956321
 20
-88.02003132284127
 30
0.0
 10
115.6213626464378
 20
-84.88162454397004
 30
0.0
 10
119.0309897642299
 20
-85.5790482726098
 30
0.0
 10
119.0309897642299
 20
-85.5790482726098
 30
0.0
 10
142.3171931482393
 20
-90.80972623740356
 30
0.0
 10
142.3171931482393
 20
-90.80972623740356
 30
0.0
 10
142.3171931482393
 20
-90.80972623740356
 30
0.0
 10
145.261871113606
 20
-91.23592962712434
 30
0.0
 10
145.1068880627977
 20
-93.21196352493553
 30
0.0
 10
145.1068880627977
 20
-93.21196352493553
 30
0.0
 10
144.2157355206457
 20
-98.59762454053884
 30
0.0
 10
144.2157355206457
 20
-98.59762454053884
 30
0.0
 10
144.2157355206457
 20
-98.59762454053884
 30
0.0
 10
145.5718372152245
 20
-100.302438099431
 30
0.0
 10
145.5718372152245
 20
-100.302438099431
 30
0.0
 10
145.5718372152245
 20
-100.302438099431
 30
0.0
 10
144.3319728087525
 20
-107.9740991144678
 30
0.0
 10
144.3319728087525
 20
-107.9740991144678
 30
0.0
 10
144.3319728087525
 20
-107.9740991144678
 30
0.0
 10
142.2397016228358
 20
-110.0663703003865
 30
0.0
 10
142.2397016228358
 20
-110.0663703003865
 30
0.0
 10
142.2397016228358
 20
-110.0663703003865
 30
0.0
 10
141.7747524704104
 20
-113.592234706279
 30
0.0
 10
141.7747524704104
 20
-113.592234706279
 30
0.0
 10
141.7747524704104
 20
-113.592234706279
 30
0.0
 10
141.3509515007839
 20
-116.9566358494732
 30
0.0
 10
137.5538667559698
 20
-115.7167714430045
 30
0.0
 10
137.5538667559698
 20
-115.7167714430045
 30
0.0
 10
114.2652609518635
 20
-107.0829465723177
 30
0.0
 10
114.2652609518635
 20
-107.0829465723177
 30
0.0
 10
114.2652609518635
 20
-107.0829465723177
 30
0.0
 10
112.3667185794565
 20
-106.4630143690827
 30
0.0
 10
112.7154304437757
 20
-104.2932516577612
 30
0.0
 10
112.7154304437757
 20
-104.2932516577612
 30
0.0
 10
113.458406550611
 20
-99.58773584525985
 30
0.0
 10
113.458406550611
 20
-99.58773584525985
 30
0.0
 10
113.458406550611
 20
-99.58773584525985
 30
0.0
 10
112.668908960345
 20
-97.80678567061539
 30
0.0
 10
112.668908960345
 20
-97.80678567061539
 30
0.0
  0
LWPOLYLINE
  5
A7
330
79
100
AcDbEntity
  8
レイヤー 1
 62
   250
420
  2299925
370
    25
100
AcDbPolyline
 90
        3
 70
     0
 43
0.0
 10
142.5980999278299
 20
-121.234836399288
 10
148.0128202654611
 20
-88.60121776337548
 10
114.4424480585946
 20
-81.94929360768064
  0
SPLINE
  5
A8
330
79
100
AcDbEntity
  8
レイヤー 1
 62
   250
420
  2299925
370
    25
100
AcDbSpline
210
0.0
220
0.0
230
1.0
 70
     8
 71
     3
 72
    11
 73
     7
 74
     0
 42
0.0000000001
 43
0.0000000001
 40
0.0
 40
0.0
 40
0.0
 40
0.0
 40
1.0
 40
1.0
 40
1.0
 40
2.0
 40
2.0
 40
2.0
 40
2.0
 10
113.9429854096586
 20
-81.65330164610328
 30
0.0
 10
113.9429854096586
 20
-81.65330164610328
 30
0.0
 10
91.06976910795232
 20
-76.98720862792457
 30
0.0
 10
91.06976910795232
 20
-76.98720862792457
 30
0.0
 10
91.06976910795232
 20
-76.98720862792457
 30
0.0
 10
90.25885972632364
 20
-77.18858027541678
 30
0.0
 10
90.17508299178564
 20
-77.73303132541435
 30
0.0
  0
SPLINE
  5
A9
330
79
100
AcDbEntity
  8
レイヤー 1
 62
   250
420
  2299925
370
    25
100
AcDbSpline
210
0.0
220
0.0
230
1.0
 70
     8
 71
     3
 72
    59
 73
    55
 74
     0
 42
0.0000000001
 43
0.0000000001
 40
0.0
 40
0.0
 40
0.0
 40
0.0
 40
1.0
 40
1.0
 40
1.0
 40
2.0
 40
2.0
 40
2.0
 40
3.0
 40
3.0
 40
3.0
 40
4.0
 40
4.0
 40
4.0
 40
5.0
 40
5.0
 40
5.0
 40
6.0
 40
6.0
 40
6.0
 40
7.0
 40
7.0
 40
7.0
 40
8.0
 40
8.0
 40
8.0
 40
9.0
 40
9.0
 40
9.0
 40
10.0
 40
10.0
 40
10.0
 40
11.0
 40
11.0
 40
11.0
 40
12.0
 40
12.0
 40
12.0
 40
13.0
 40
13.0
 40
13.0
 40
14.0
 40
14.0
 40
14.0
 40
15.0
 40
15.0
 40
15.0
 40
16.0
 40
16.0
 40
16.0
 40
17.0
 40
17.0
 40
17.0
 40
18.0
 40
18.0
 40
18.0
 40
18.0
 10
88.68491968695886
 20
-96.27180881773238
 30
0.0
 10
88.68491968695886
 20
-96.27180881773238
 30
0.0
 10
88.88678638193679
 20
-97.43525165947298
 30
0.0
 10
89.50671858517113
 20
-97.66772623568666
 30
0.0
 10
89.50671858517113
 20
-97.66772623568666
 30
0.0
 10
106.5772951425896
 20
-103.7589898266727
 30
0.0
 10
106.5772951425896
 20
-103.7589898266727
 30
0.0
 10
107.3199136785929
 20
-104.0239770832622
 30
0.0
 10
108.1568084448257
 20
-103.64552686786
 30
0.0
 10
108.4028700269742
 20
-102.8964245824806
 30
0.0
 10
108.4068501710479
 20
-102.8843075547184
 30
0.0
 10
108.4107775802606
 20
-102.8720526892133
 30
0.0
 10
108.4146507838342
 20
-102.8596584377777
 30
0.0
 10
108.4146507838342
 20
-102.8596584377777
 30
0.0
 10
108.8819200897933
 20
-99.43530920819284
 30
0.0
 10
108.8819200897933
 20
-99.43530920819284
 30
0.0
 10
108.9302672380879
 20
-99.08100063730305
 30
0.0
 10
109.1097654200933
 20
-98.75771824833968
 30
0.0
 10
109.3849402257222
 20
-98.52935267190222
 30
0.0
 10
109.3849402257222
 20
-98.52935267190222
 30
0.0
 10
110.0130532909285
 20
-98.00808619230862
 30
0.0
 10
110.0130532909285
 20
-98.00808619230862
 30
0.0
 10
110.2775619616616
 20
-97.78857236390363
 30
0.0
 10
110.4540316400824
 20
-97.48102847294255
 30
0.0
 10
110.5100755205907
 20
-97.14189687427948
 30
0.0
 10
110.5100755205907
 20
-97.14189687427948
 30
0.0
 10
111.1256774809201
 20
-93.41677871591057
 30
0.0
 10
111.1256774809201
 20
-93.41677871591057
 30
0.0
 10
111.1767063630481
 20
-93.10799377423686
 30
0.0
 10
111.1248953287855
 20
-92.7909956288242
 30
0.0
 10
110.978210775945
 20
-92.51452550571142
 30
0.0
 10
110.978210775945
 20
-92.51452550571142
 30
0.0
 10
110.6116597242773
 20
-91.82365238772147
 30
0.0
 10
110.6116597242773
 20
-91.82365238772147
 30
0.0
 10
110.4884020698755
 20
-91.59133713552021
 30
0.0
 10
110.4316812524877
 20
-91.32950020578542
 30
0.0
 10
110.4477494763392
 20
-91.06700327636357
 30
0.0
 10
110.4477494763392
 20
-91.06700327636357
 30
0.0
 10
110.78727292441
 20
-85.52041247656427
 30
0.0
 10
110.78727292441
 20
-85.52041247656427
 30
0.0
 10
110.8137748053986
 20
-85.08746715246099
 30
0.0
 10
110.5867283907929
 20
-84.66802202514895
 30
0.0
 10
110.1942621981873
 20
-84.48332148096879
 30
0.0
 10
110.0018851509655
 20
-84.39278592407545
 30
0.0
 10
109.7504373915038
 20
-84.30336956411894
 30
0.0
 10
109.4219136724472
 20
-84.22587803871481
 30
0.0
 10
109.4219136724472
 20
-84.22587803871481
 30
0.0
 10
92.59600900079073
 20
-80.69083201728286
 30
0.0
 10
92.59600900079073
 20
-80.69083201728286
 30
0.0
 10
92.4488627794507
 20
-80.65991726562653
 30
0.0
 10
92.29775782637242
 20
-80.65243198024719
 30
0.0
 10
92.14827665529465
 20
-80.66865270210305
 30
0.0
 10
92.14827665529465
 20
-80.66865270210305
 30
0.0
 10
91.42228936791264
 20
-80.74743210805982
 30
0.0
 10
91.42228936791264
 20
-80.74743210805982
 30
0.0
  0
SPLINE
  5
AA
330
79
100
AcDbEntity
  8
レイヤー 1
 62
   250
420
  2299925
370
    25
100
AcDbSpline
210
0.0
220
0.0
230
1.0
 70
     8
 71
     3
 72
    44
 73
    40
 74
     0
 42
0.0000000001
 43
0.0000000001
 40
0.0
 40
0.0
 40
0.0
 40
0.0
 40
1.0
 40
1.0
 40
1.0
 40
2.0
 40
2.0
 40
2.0
 40
3.0
 40
3.0
 40
3.0
 40
4.0
 40
4.0
 40
4.0
 40
5.0
 40
5.0
 40
5.0
 40
6.0
 40
6.0
 40
6.0
 40
7.0
 40
7.0
 40
7.0
 40
8.0
 40
8.0
 40
8.0
 40
9.0
 40
9.0
 40
9.0
 40
10.0
 40
10.0
 40
10.0
 40
11.0
 40
11.0
 40
11.0
 40
12.0
 40
12.0
 40
12.0
 40
13.0
 40
13.0
 40
13.0
 40
13.0
 10
112.8555434991703
 20
-103.405868973598
 30
0.0
 10
112.8555434991703
 20
-103.405868973598
 30
0.0
 10
112.5604473929687
 20
-104.9131838609904
 30
0.0
 10
113.529091460523
 20
-105.6493533523316
 30
0.0
 10
113.529091460523
 20
-105.6493533523316
 30
0.0
 10
138.4813626407257
 20
-115.1420652143662
 30
0.0
 10
138.4813626407257
 20
-115.1420652143662
 30
0.0
 10
138.4813626407257
 20
-115.1420652143662
 30
0.0
 10
140.3411592504301
 20
-115.7232516548984
 30
0.0
 10
140.8835999282603
 20
-113.78596351979
 30
0.0
 10
140.8835999282603
 20
-113.78596351979
 30
0.0
 10
141.3945361779243
 20
-109.7462202828219
 30
0.0
 10
141.3945361779243
 20
-109.7462202828219
 30
0.0
 10
141.3945361779243
 20
-109.7462202828219
 30
0.0
 10
143.5183117920085
 20
-107.3541669112277
 30
0.0
 10
143.5183117920085
 20
-107.3541669112277
 30
0.0
 10
143.5183117920085
 20
-107.3541669112277
 30
0.0
 10
144.6419389103717
 20
-100.3411838621331
 30
0.0
 10
144.6419389103717
 20
-100.3411838621331
 30
0.0
 10
144.6419389103717
 20
-100.3411838621331
 30
0.0
 10
143.2470914530928
 20
-98.63637030323769
 30
0.0
 10
143.2470914530928
 20
-98.63637030323769
 30
0.0
 10
143.2470914530928
 20
-98.63637030323769
 30
0.0
 10
144.1947835182716
 20
-94.14247567158605
 30
0.0
 10
144.1947835182716
 20
-94.14247567158605
 30
0.0
 10
144.4058160111842
 20
-93.14177320519535
 30
0.0
 10
143.9425011302708
 20
-92.08850894438533
 30
0.0
 10
143.0190249641412
 20
-91.64904118687061
 30
0.0
 10
142.7895584818089
 20
-91.53984170331677
 30
0.0
 10
142.5302948431026
 20
-91.44903132198379
 30
0.0
 10
142.2397016228365
 20
-91.39091267793006
 30
0.0
 10
140.761756551642
 20
-91.0953236636918
 30
0.0
 10
120.0455850155114
 20
-86.39537877378149
 30
0.0
 10
118.1270176396606
 20
-85.96002173726652
 30
0.0
 10
118.0015637712031
 20
-85.93155402480723
 30
0.0
 10
117.8781810549544
 20
-85.91445198223585
 30
0.0
 10
117.7496068448523
 20
-85.91023816445924
 30
0.0
 10
117.4562993731647
 20
-85.90062547279188
 30
0.0
 10
116.9193390215865
 20
-85.92099431794812
 30
0.0
 10
116.3150789637696
 20
-86.12649189042974
 30
0.0
  0
ELLIPSE
  5
AB
330
79
100
AcDbEntity
  8
レイヤー 1
 62
   250
420
  2299925
370
    25
100
AcDbEllipse
 10
89.93776519523484
 20
-84.08733640857141
 30
0.0
 11
0.0
 21
0.600559321883797
 31
0.0
210
0.0
220
0.0
230
1.0
 40
0.395161290322488
 41
0.0
 42
6.283185307179585
  0
ELLIPSE
  5
AC
330
79
100
AcDbEntity
  8
レイヤー 1
 62
   250
420
  2299925
370
    25
100
AcDbEllipse
 10
88.43714117012858
 20
-92.92193866000401
 30
0.0
 11
0.0
 21
0.6387367292481906
 31
0.0
210
0.0
220
0.0
230
1.0
 40
0.3879196318049894
 41
0.0
 42
6.283185307179585
  0
CIRCLE
  5
AD
330
79
100
AcDbEntity
  8
レイヤー 1
 62
   250
420
  2299925
370
    25
100
AcDbCircle
 10
92.33515926238846
 20
-78.44982793544943
 30
0.0
 40
0.6586779659382604
  0
CIRCLE
  5
AE
330
79
100
AcDbEntity
  8
レイヤー 1
 62
   250
420
  2299925
370
    25
100
AcDbCircle
 10
97.11057451542155
 20
-79.42815844368095
 30
0.0
 40
0.7458559320135789
  0
CIRCLE
  5
AF
330
79
100
AcDbEntity
  8
レイヤー 1
 62
   250
420
  2299925
370
    25
100
AcDbCircle
 10
101.5889232689297
 20
-80.4064889518637
 30
0.0
 40
0.8112394065660167
  0
CIRCLE
  5
B0
330
79
100
AcDbEntity
  8
レイヤー 1
 62
   250
420
  2299925
370
    25
100
AcDbCircle
 10
106.1031333189837
 20
-81.35482100884008
 30
0.0
 40
0.7817172285628895
  0
CIRCLE
  5
B1
330
79
100
AcDbEntity
  8
レイヤー 1
 62
   250
420
  2299925
370
    25
100
AcDbCircle
 10
111.3044705323987
 20
-82.53459365617111
 30
0.0
 40
0.8812920100084733
  0
ELLIPSE
  5
B2
330
79
100
AcDbEntity
  8
レイヤー 1
 62
   250
420
  2299925
370
    25
100
AcDbEllipse
 10
111.9068500891851
 20
-90.14136183078599
 30
0.0
 11
0.0
 21
0.6683644066124135
 31
0.0
210
0.0
220
0.0
230
1.0
 40
0.5250391175818931
 41
0.0
 42
6.283185307179585
  0
ELLIPSE
  5
B3
330
79
100
AcDbEntity
  8
レイヤー 1
 62
   250
420
  2299925
370
    25
100
AcDbEllipse
 10
110.3115626284193
 20
-100.3266542011205
 30
0.0
 11
0.0
 21
0.6538347455992988
 31
0.0
210
0.0
220
0.0
230
1.0
 40
0.5358271252815747
 41
0.0
 42
6.283185307179585
  0
CIRCLE
  5
B4
330
79
100
AcDbEntity
  8
レイヤー 1
 62
   250
420
  2299925
370
    25
100
AcDbCircle
 10
89.3480537333855
 20
-99.43511451921139
 30
0.0
 40
0.6631340464712287
  0
CIRCLE
  5
B5
330
79
100
AcDbEntity
  8
レイヤー 1
 62
   250
420
  2299925
370
    25
100
AcDbCircle
 10
93.93100036368192
 20
-101.016813099303
 30
0.0
 40
0.7046885591483281
  0
CIRCLE
  5
B6
330
79
100
AcDbEntity
  8
レイヤー 1
 62
   250
420
  2299925
370
    25
100
AcDbCircle
 10
98.2245151931127
 20
-102.6949889463443
 30
0.0
 40
0.7555423726947906
  0
CIRCLE
  5
B7
330
79
100
AcDbEntity
  8
レイヤー 1
 62
   250
420
  2299925
370
    25
100
AcDbCircle
 10
102.8013584122975
 20
-104.4821372509901
 30
0.0
 40
0.8863093218129016
  0
CIRCLE
  5
B8
330
79
100
AcDbEntity
  8
レイヤー 1
 62
   250
420
  2299925
370
    25
100
AcDbCircle
 10
107.3782016314669
 20
-106.153048267603
 30
0.0
 40
0.7846016946874106
  0
CIRCLE
  5
B9
330
79
100
AcDbEntity
  8
レイヤー 1
 62
   250
420
  2299925
370
    25
100
AcDbCircle
 10
113.877803324737
 20
-108.322810978783
 30
0.0
 40
0.7749152539903969
  0
CIRCLE
  5
BA
330
79
100
AcDbEntity
  8
レイヤー 1
 62
   250
420
  2299925
370
    25
100
AcDbCircle
 10
119.5725031399989
 20
-110.5929760111447
 30
0.0
 40
0.8365718123238933
  0
ELLIPSE
  5
BB
330
79
100
AcDbEntity
  8
レイヤー 1
 62
   250
420
  2299925
370
    25
100
AcDbEllipse
 10
112.6088795963458
 20
-100.5591287773349
 30
0.0
 11
0.0
 21
0.68289406762633
 31
0.0
210
0.0
220
0.0
230
1.0
 40
0.5531914893609275
 41
0.0
 42
6.283185307179586
  0
CIRCLE
  5
BC
330
79
100
AcDbEntity
  8
レイヤー 1
 62
   250
420
  2299925
370
    25
100
AcDbCircle
 10
125.4821592540815
 20
-112.6623364014918
 30
0.0
 40
0.9589576268804796
  0
CIRCLE
  5
BD
330
79
100
AcDbEntity
  8
レイヤー 1
 62
   250
420
  2299925
370
    25
100
AcDbCircle
 10
131.6717948457504
 20
-115.0742601297062
 30
0.0
 40
1.01707627093382
  0
CIRCLE
  5
BE
330
79
100
AcDbEntity
  8
レイヤー 1
 62
   250
420
  2299925
370
    25
100
AcDbCircle
 10
139.7357567081389
 20
-117.7622474171707
 30
0.0
 40
1.060665253974286
  0
ELLIPSE
  5
BF
330
79
100
AcDbEntity
  8
レイヤー 1
 62
   250
420
  2299925
370
    25
100
AcDbEllipse
 10
143.4262906055909
 20
-110.5700652155054
 30
0.0
 11
0.0
 21
0.7264830506651925
 31
0.0
210
0.0
220
0.0
230
1.0
 40
0.6600000000011174
 41
0.0
 42
6.283185307179586
  0
ELLIPSE
  5
C0
330
79
100
AcDbEntity
  8
レイヤー 1
 62
   250
420
  2299925
370
    25
100
AcDbEllipse
 10
145.474972808468
 20
-98.10171781552915
 30
0.0
 11
0.0
 21
0.7827034441687798
 31
0.0
210
0.0
220
0.0
230
1.0
 40
0.5569029159727814
 41
0.0
 42
6.283185307179586
  0
CIRCLE
  5
C1
330
79
100
AcDbEntity
  8
レイヤー 1
 62
   250
420
  2299925
370
    25
100
AcDbCircle
 10
117.6216126458911
 20
-83.99531522219941
 30
0.0
 40
0.7410127116809539
  0
CIRCLE
  5
C2
330
79
100
AcDbEntity
  8
レイヤー 1
 62
   250
420
  2299925
370
    25
100
AcDbCircle
 10
123.3665553600417
 20
-85.17794437817947
 30
0.0
 40
0.8193876306436195
  0
CIRCLE
  5
C3
330
79
100
AcDbEntity
  8
レイヤー 1
 62
   250
420
  2299925
370
    25
100
AcDbCircle
 10
129.6269551741625
 20
-86.37728624226401
 30
0.0
 40
0.8993644102470883
  0
ELLIPSE
  5
C4
330
79
100
AcDbEntity
  8
レイヤー 1
 62
   250
420
  2299925
370
    25
100
AcDbEllipse
 10
136.1905194209588
 20
-87.86020505169011
 30
0.0
 11
1.031605931945571
 21
0.0
 31
0.0
210
0.0
220
0.0
230
1.0
 40
0.8873239436618382
 41
0.0
 42
6.283185307179586
  0
CIRCLE
  5
C5
330
79
100
AcDbEntity
  8
レイヤー 1
 62
   250
420
  2299925
370
    25
100
AcDbCircle
 10
144.1890978087192
 20
-89.55291055981092
 30
0.0
 40
1.038870762451406
  0
ELLIPSE
  5
C6
330
79
100
AcDbEntity
  8
レイヤー 1
 62
   250
420
  2299925
370
    25
100
AcDbEllipse
 10
92.96477790634069
 20
-82.60968464093336
 30
0.0
 11
0.0000000000000001
 21
1.254863632093296
 31
0.0
210
0.0
220
0.0
230
1.0
 40
0.6252485725563853
 41
0.0
 42
6.283185307179586
  0
ELLIPSE
  5
C7
330
79
100
AcDbEntity
  8
レイヤー 1
 62
   250
420
  2299925
370
    25
100
AcDbEllipse
 10
94.83910417705892
 20
-82.96234021375115
 30
0.0
 11
0.0000000000000001
 21
1.309038567647866
 31
0.0
210
0.0
220
0.0
230
1.0
 40
0.5882729911385855
 41
0.0
 42
6.283185307179586
  0
ELLIPSE
  5
C8
330
79
100
AcDbEntity
  8
レイヤー 1
 62
   250
420
  2299925
370
    25
100
AcDbEllipse
 10
96.72796010878997
 20
-83.41221698395539
 30
0.0
 11
0.0000000000000001
 21
1.275678746499812
 31
0.0
210
0.0
220
0.0
230
1.0
 40
0.6492157057814256
 41
0.0
 42
6.283185307179586
  0
ELLIPSE
  5
C9
330
79
100
AcDbEntity
  8
レイヤー 1
 62
   250
420
  2299925
370
    25
100
AcDbEllipse
 10
98.66524824384582
 20
-83.77737030694637
 30
0.0
 11
0.0000000000000001
 21
1.255362711550551
 31
0.0
210
0.0
220
0.0
230
1.0
 40
0.5798611111490155
 41
0.0
 42
6.283185307179586
  0
ELLIPSE
  5
CA
330
79
100
AcDbEntity
  8
レイヤー 1
 62
   250
420
  2299925
370
    25
100
AcDbEllipse
 10
100.7518893607109
 20
-84.35787220925451
 30
0.0
 11
0.0000000000000001
 21
1.395531995503683
 31
0.0
210
0.0
220
0.0
230
1.0
 40
0.5997955696577777
 41
0.0
 42
6.283185307179586
  0
ELLIPSE
  5
CB
330
79
100
AcDbEntity
  8
レイヤー 1
 62
   250
420
  2299925
370
    25
100
AcDbEllipse
 10
102.6705914632356
 20
-84.87340381462285
 30
0.0
 11
0.0000000000000001
 21
1.461186830667618
 31
0.0
210
0.0
220
0.0
230
1.0
 40
0.5270181865475835
 41
0.0
 42
6.283185307179585
  0
ELLIPSE
  5
CC
330
79
100
AcDbEntity
  8
レイヤー 1
 62
   250
420
  2299925
370
    25
100
AcDbEllipse
 10
104.4754825902945
 20
-85.27392539131867
 30
0.0
 11
0.0000000000000001
 21
1.496555084371974
 31
0.0
210
0.0
220
0.0
230
1.0
 40
0.5652538346322521
 41
0.0
 42
6.283185307179586
  0
ELLIPSE
  5
CD
330
79
100
AcDbEntity
  8
レイヤー 1
 62
   250
420
  2299925
370
    25
100
AcDbEllipse
 10
106.448303326698
 20
-85.7485609844238
 30
0.0
 11
0.0000000000000001
 21
1.661224575852869
 31
0.0
210
0.0
220
0.0
230
1.0
 40
0.5597667638490574
 41
0.0
 42
6.283185307179586
  0
ELLIPSE
  5
CE
330
79
100
AcDbEntity
  8
レイヤー 1
 62
   250
420
  2299925
370
    25
100
AcDbEllipse
 10
108.6697109339127
 20
-86.33459064529031
 30
0.0
 11
0.0000000000000001
 21
1.729029660585015
 31
0.0
210
0.0
220
0.0
230
1.0
 40
0.6554621848740768
 41
0.0
 42
6.283185307179586
  0
ELLIPSE
  5
CF
330
79
100
AcDbEntity
  8
レイヤー 1
 62
   250
420
  2299925
370
    25
100
AcDbEllipse
 10
91.62497265978688
 20
-85.88901437421943
 30
0.0
 11
0.0000000000000001
 21
1.201118643764545
 31
0.0
210
0.0
220
0.0
230
1.0
 40
0.4622387261381888
 41
0.0
 42
6.283185307179585
  0
ELLIPSE
  5
D0
330
79
100
AcDbEntity
  8
レイヤー 1
 62
   250
420
  2299925
370
    25
100
AcDbEllipse
 10
93.25537112660699
 20
-86.13601861144607
 30
0.0
 11
0.0000000000000001
 21
1.448122880990541
 31
0.0
210
0.0
220
0.0
230
1.0
 40
0.5618729097004579
 41
0.0
 42
6.283185307179586
  0
ELLIPSE
  5
D1
330
79
100
AcDbEntity
  8
レイヤー 1
 62
   250
420
  2299925
370
    25
100
AcDbEllipse
 10
95.20234570239161
 20
-86.6135601367465
 30
0.0
 11
0.0000000000000001
 21
1.580827118249579
 31
0.0
210
0.0
220
0.0
230
1.0
 40
0.533088235293967
 41
0.0
 42
6.283185307179585
  0
ELLIPSE
  5
D2
330
79
100
AcDbEntity
  8
レイヤー 1
 62
   250
420
  2299925
370
    25
100
AcDbEllipse
 10
97.11057451542155
 20
-87.05409945867646
 30
0.0
 11
0.0000000000000001
 21
1.576177626719151
 31
0.0
210
0.0
220
0.0
230
1.0
 40
0.4732055063590528
 41
0.0
 42
6.283185307179585
  0
ELLIPSE
  5
D3
330
79
100
AcDbEntity
  8
レイヤー 1
 62
   250
420
  2299925
370
    25
100
AcDbEllipse
 10
98.749278116709
 20
-87.44366466305423
 30
0.0
 11
0.0000000000000001
 21
1.535324286660624
 31
0.0
210
0.0
220
0.0
230
1.0
 40
0.5288562792450709
 41
0.0
 42
6.283185307179585
  0
ELLIPSE
  5
D4
330
79
100
AcDbEntity
  8
レイヤー 1
 62
   250
420
  2299925
370
    25
100
AcDbEllipse
 10
100.6622616037378
 20
-87.80450801780991
 30
0.0
 11
0.0000000000000001
 21
1.668489406363999
 31
0.0
210
0.0
220
0.0
230
1.0
 40
0.5553896007113299
 41
0.0
 42
6.283185307179586
  0
ELLIPSE
  5
D5
330
79
100
AcDbEntity
  8
レイヤー 1
 62
   250
420
  2299925
370
    25
100
AcDbEllipse
 10
102.7650342598224
 20
-88.45592115323825
 30
0.0
 11
0.0000000000000001
 21
1.685440677547597
 31
0.0
210
0.0
220
0.0
230
1.0
 40
0.5129310344819382
 41
0.0
 42
6.283185307179585
  0
ELLIPSE
  5
D6
330
79
100
AcDbEntity
  8
レイヤー 1
 62
   250
420
  2299925
370
    25
100
AcDbEllipse
 10
104.908159259287
 20
-89.10975589883754
 30
0.0
 11
0.0000000000000001
 21
1.699970338560872
 31
0.0
210
0.0
220
0.0
230
1.0
 40
0.5982905982894926
 41
0.0
 42
6.283185307179586
  0
ELLIPSE
  5
D7
330
79
100
AcDbEntity
  8
レイヤー 1
 62
   250
420
  2299925
370
    25
100
AcDbEllipse
 10
107.0312606955337
 20
-89.53959170381439
 30
0.0
 11
0.0000000000000001
 21
1.735083686004967
 31
0.0
210
0.0
220
0.0
230
1.0
 40
0.5349179316456695
 41
0.0
 42
6.283185307179585
  0
ELLIPSE
  5
D8
330
79
100
AcDbEntity
  8
レイヤー 1
 62
   250
420
  2299925
370
    25
100
AcDbEllipse
 10
109.0765414422861
 20
-90.17042115280839
 30
0.0
 11
0.0000000000000001
 21
1.714499999569815
 31
0.0
210
0.0
220
0.0
230
1.0
 40
0.5159981301900471
 41
0.0
 42
6.283185307179585
  0
ELLIPSE
  5
D9
330
79
100
AcDbEntity
  8
レイヤー 1
 62
   250
420
  2299925
370
    25
100
AcDbEllipse
 10
91.68616773716815
 20
-89.50205674619725
 30
0.0
 11
0.0000000000000001
 21
1.307669491201164
 31
0.0
210
0.0
220
0.0
230
1.0
 40
0.7333333333316976
 41
0.0
 42
6.283185307179586
  0
ELLIPSE
  5
DA
330
79
100
AcDbEntity
  8
レイヤー 1
 62
   250
420
  2299925
370
    25
100
AcDbEllipse
 10
93.70579061801931
 20
-89.86529827152898
 30
0.0
 11
0.0000000000000001
 21
1.409377118290399
 31
0.0
210
0.0
220
0.0
230
1.0
 40
0.6288659793817061
 41
0.0
 42
6.283185307179586
  0
ELLIPSE
  5
DB
330
79
100
AcDbEntity
  8
レイヤー 1
 62
   250
420
  2299925
370
    25
100
AcDbEllipse
 10
95.70361900735088
 20
-90.43195505104668
 30
0.0
 11
0.0000000000000001
 21
1.452966101331507
 31
0.0
210
0.0
220
0.0
230
1.0
 40
0.5949999999996826
 41
0.0
 42
6.283185307179586
  0
ELLIPSE
  5
DC
330
79
100
AcDbEntity
  8
レイヤー 1
 62
   250
420
  2299925
370
    25
100
AcDbEllipse
 10
97.3963245154019
 20
-90.77639205036794
 30
0.0
 11
0.0000000000000001
 21
1.50680988038757
 31
0.0
210
0.0
220
0.0
230
1.0
 40
0.5496318338091992
 41
0.0
 42
6.283185307179585
  0
ELLIPSE
  5
DD
330
79
100
AcDbEntity
  8
レイヤー 1
 62
   250
420
  2299925
370
    25
100
AcDbEllipse
 10
99.36835370302507
 20
-91.27891320761554
 30
0.0
 11
0.0000000000000001
 21
1.739321503801308
 31
0.0
210
0.0
220
0.0
230
1.0
 40
0.5072694206884952
 41
0.0
 42
6.283185307179585
  0
ELLIPSE
  5
DE
330
79
100
AcDbEntity
  8
レイヤー 1
 62
   250
420
  2299925
370
    25
100
AcDbEllipse
 10
101.3774516330508
 20
-91.85101861001934
 30
0.0
 11
0.0000000000000001
 21
1.709656779232859
 31
0.0
210
0.0
220
0.0
230
1.0
 40
0.5184135977339475
 41
0.0
 42
6.283185307179585
  0
ELLIPSE
  5
DF
330
79
100
AcDbEntity
  8
レイヤー 1
 62
   250
420
  2299925
370
    25
100
AcDbEllipse
 10
103.2663075647817
 20
-92.42038117737157
 30
0.0
 11
0.0000000000000001
 21
1.643989127004285
 31
0.0
210
0.0
220
0.0
230
1.0
 40
0.5391211579527859
 41
0.0
 42
6.283185307179585
  0
ELLIPSE
  5
E0
330
79
100
AcDbEntity
  8
レイヤー 1
 62
   250
420
  2299925
370
    25
100
AcDbEllipse
 10
105.2005234078554
 20
-93.01823471141734
 30
0.0
 11
0.0000000000000001
 21
1.743559321597649
 31
0.0
210
0.0
220
0.0
230
1.0
 40
0.5176823638561059
 41
0.0
 42
6.283185307179585
  0
ELLIPSE
  5
E1
330
79
100
AcDbEntity
  8
レイヤー 1
 62
   250
420
  2299925
370
    25
100
AcDbEllipse
 10
107.1474979836405
 20
-93.45412454181639
 30
0.0
 11
0.0000000000000001
 21
1.74355932159813
 31
0.0
210
0.0
220
0.0
230
1.0
 40
0.5989843028108205
 41
0.0
 42
6.283185307179586
  0
ELLIPSE
  5
E2
330
79
100
AcDbEntity
  8
レイヤー 1
 62
   250
420
  2299925
370
    25
100
AcDbEllipse
 10
109.3075205853734
 20
-94.01650645633804
 30
0.0
 11
0.0000000000000001
 21
1.733304525582213
 31
0.0
210
0.0
220
0.0
230
1.0
 40
0.6436595073802275
 41
0.0
 42
6.283185307179586
  0
ELLIPSE
  5
E3
330
79
100
AcDbEntity
  8
レイヤー 1
 62
   250
420
  2299925
370
    25
100
AcDbEllipse
 10
90.6255024831965
 20
-92.55328555899094
 30
0.0
 11
0.0000000000000001
 21
1.278610169171887
 31
0.0
210
0.0
220
0.0
230
1.0
 40
0.5795454545452879
 41
0.0
 42
6.283185307179586
  0
ELLIPSE
  5
E4
330
79
100
AcDbEntity
  8
レイヤー 1
 62
   250
420
  2299925
370
    25
100
AcDbEllipse
 10
92.31094316074139
 20
-93.01823471141652
 30
0.0
 11
0.0000000000000001
 21
1.511084745385409
 31
0.0
210
0.0
220
0.0
230
1.0
 40
0.6250000000000266
 41
0.0
 42
6.283185307179586
  0
ELLIPSE
  5
E5
330
79
100
AcDbEntity
  8
レイヤー 1
 62
   250
420
  2299925
370
    25
100
AcDbEllipse
 10
94.1562101094326
 20
-93.29075641402175
 30
0.0
 11
0.0000000000000001
 21
1.580191193803822
 31
0.0
210
0.0
220
0.0
230
1.0
 40
0.57008227001767
 41
0.0
 42
6.283185307179586
  0
ELLIPSE
  5
E6
330
79
100
AcDbEntity
  8
レイヤー 1
 62
   250
420
  2299925
370
    25
100
AcDbEllipse
 10
95.95788807508432
 20
-93.92526980849948
 30
0.0
 11
0.0000000000000001
 21
1.504888631128071
 31
0.0
210
0.0
220
0.0
230
1.0
 40
0.5020586620594952
 41
0.0
 42
6.283185307179585
  0
ELLIPSE
  5
E7
330
79
100
AcDbEntity
  8
レイヤー 1
 62
   250
420
  2299925
370
    25
100
AcDbEllipse
 10
97.65785841364165
 20
-94.55837877882817
 30
0.0
 11
0.0000000000000001
 21
1.540144067411318
 31
0.0
210
0.0
220
0.0
230
1.0
 40
0.5377358490565016
 41
0.0
 42
6.283185307179585
  0
ELLIPSE
  5
E8
330
79
100
AcDbEntity
  8
レイヤー 1
 62
   250
420
  2299925
370
    25
100
AcDbEllipse
 10
99.36835370302507
 20
-94.96520928720148
 30
0.0
 11
0.0000000000000001
 21
1.511084745385089
 31
0.0
210
0.0
220
0.0
230
1.0
 40
0.5838882394378767
 41
0.0
 42
6.283185307179586
  0
ELLIPSE
  5
E9
330
79
100
AcDbEntity
  8
レイヤー 1
 62
   250
420
  2299925
370
    25
100
AcDbEllipse
 10
101.3774516330508
 20
-95.68229007486175
 30
0.0
 11
0.0000000000000001
 21
1.665783618523235
 31
0.0
210
0.0
220
0.0
230
1.0
 40
0.5320674978170806
 41
0.0
 42
6.283185307179585
  0
ELLIPSE
  5
EA
330
79
100
AcDbEntity
  8
レイヤー 1
 62
   250
420
  2299925
370
    25
100
AcDbEllipse
 10
103.4277404166318
 20
-96.3019381004263
 30
0.0
 11
0.0000000000000001
 21
1.772618643625001
 31
0.0
210
0.0
220
0.0
230
1.0
 40
0.5910702662586603
 41
0.0
 42
6.283185307179586
  0
ELLIPSE
  5
EB
330
79
100
AcDbEntity
  8
レイヤー 1
 62
   250
420
  2299925
370
    25
100
AcDbEllipse
 10
105.6491719709663
 20
-97.01389149007901
 30
0.0
 11
0.0000000000000001
 21
1.583733050451463
 31
0.0
210
0.0
220
0.0
230
1.0
 40
0.5963302752295912
 41
0.0
 42
6.283185307179586
  0
ELLIPSE
  5
EC
330
79
100
AcDbEntity
  8
レイヤー 1
 62
   250
420
  2299925
370
    25
100
AcDbEllipse
 10
107.8732401272907
 20
-97.41984939110434
 30
0.0
 11
0.0000000000000001
 21
1.737559316243068
 31
0.0
210
0.0
220
0.0
230
1.0
 40
0.6193888900433679
 41
0.0
 42
6.283185307179586
  0
ELLIPSE
  5
ED
330
79
100
AcDbEntity
  8
レイヤー 1
 62
   250
420
  2299925
370
    25
100
AcDbEllipse
 10
90.68885148734379
 20
-96.09082171205949
 30
0.0
 11
0.0000000000000001
 21
1.329027679044517
 31
0.0
210
0.0
220
0.0
230
1.0
 40
0.509894352252215
 41
0.0
 42
6.283185307179585
  0
ELLIPSE
  5
EE
330
79
100
AcDbEntity
  8
レイヤー 1
 62
   250
420
  2299925
370
    25
100
AcDbEllipse
 10
92.52888807594066
 20
-96.54151659897227
 30
0.0
 11
0.0000000000000001
 21
1.533040145079043
 31
0.0
210
0.0
220
0.0
230
1.0
 40
0.5497053299468977
 41
0.0
 42
6.283185307179585
  0
ELLIPSE
  5
EF
330
79
100
AcDbEntity
  8
レイヤー 1
 62
   250
420
  2299925
370
    25
100
AcDbEllipse
 10
94.5557757872983
 20
-97.22713527377891
 30
0.0
 11
0.0000000000000001
 21
1.544845198916663
 31
0.0
210
0.0
220
0.0
230
1.0
 40
0.5502073410819494
 41
0.0
 42
6.283185307179585
  0
ELLIPSE
  5
F0
330
79
100
AcDbEntity
  8
レイヤー 1
 62
   250
420
  2299925
370
    25
100
AcDbEllipse
 10
96.40709676138605
 20
-97.72967340388717
 30
0.0
 11
0.0000000000000001
 21
1.427735303460231
 31
0.0
210
0.0
220
0.0
230
1.0
 40
0.4927228123660158
 41
0.0
 42
6.283185307179585
  0
ELLIPSE
  5
F1
330
79
100
AcDbEntity
  8
レイヤー 1
 62
   250
420
  2299925
370
    25
100
AcDbEllipse
 10
98.18092621012116
 20
-98.47615689233011
 30
0.0
 11
0.0000000000000001
 21
1.622091673397108
 31
0.0
210
0.0
220
0.0
230
1.0
 40
0.564313755413303
 41
0.0
 42
6.283185307179586
  0
ELLIPSE
  5
F2
330
79
100
AcDbEntity
  8
レイヤー 1
 62
   250
420
  2299925
370
    25
100
AcDbEllipse
 10
100.1133711248925
 20
-99.04130075857972
 30
0.0
 11
0.0000000000000001
 21
1.6932270651941
 31
0.0
210
0.0
220
0.0
230
1.0
 40
0.6006732893888071
 41
0.0
 42
6.283185307179586
  0
ELLIPSE
  5
F3
330
79
100
AcDbEntity
  8
レイヤー 1
 62
   250
420
  2299925
370
    25
100
AcDbEllipse
 10
102.1184643447294
 20
-99.65828979450613
 30
0.0
 11
0.0000000000000001
 21
1.583733050455153
 31
0.0
210
0.0
220
0.0
230
1.0
 40
0.5321100917417886
 41
0.0
 42
6.283185307179585
  0
ELLIPSE
  5
F4
330
79
100
AcDbEntity
  8
レイヤー 1
 62
   250
420
  2299925
370
    25
100
AcDbEllipse
 10
104.0799685815281
 20
-100.4283618282108
 30
0.0
 11
0.0000000000000001
 21
1.656381355515271
 31
0.0
210
0.0
220
0.0
230
1.0
 40
0.5877192982467712
 41
0.0
 42
6.283185307179586
  0
ELLIPSE
  5
F5
330
79
100
AcDbEntity
  8
レイヤー 1
 62
   250
420
  2299925
370
    25
100
AcDbEllipse
 10
106.3611253605768
 20
-101.1839042009325
 30
0.0
 11
0.0000000000000001
 21
1.511084745411398
 31
0.0
210
0.0
220
0.0
230
1.0
 40
0.6730769230370866
 41
0.0
 42
6.283185307179586
  0
ELLIPSE
  5
F6
330
79
100
AcDbEntity
  8
レイヤー 1
 62
   250
420
  2299925
370
    25
100
AcDbEllipse
 10
117.8082656309956
 20
-88.67386606843529
 30
0.0
 11
0.0000000000000001
 21
1.729029660583732
 31
0.0
210
0.0
220
0.0
230
1.0
 40
0.5365238768791889
 41
0.0
 42
6.283185307179585
  0
ELLIPSE
  5
F7
330
79
100
AcDbEntity
  8
レイヤー 1
 62
   250
420
  2299925
370
    25
100
AcDbEllipse
 10
120.135244001243
 20
-89.21146352592741
 30
0.0
 11
0.0000000000000001
 21
1.801677965651069
 31
0.0
210
0.0
220
0.0
230
1.0
 40
0.6612903225807788
 41
0.0
 42
6.283185307179586
  0
ELLIPSE
  5
F8
330
79
100
AcDbEntity
  8
レイヤー 1
 62
   250
420
  2299925
370
    25
100
AcDbEllipse
 10
122.7215236616133
 20
-89.65461818683406
 30
0.0
 11
0.0000000000000001
 21
1.794413135143951
 31
0.0
210
0.0
220
0.0
230
1.0
 40
0.7125506072878113
 41
0.0
 42
6.283185307179586
  0
ELLIPSE
  5
F9
330
79
100
AcDbEntity
  8
レイヤー 1
 62
   250
420
  2299925
370
    25
100
AcDbEllipse
 10
125.4152375629193
 20
-90.17042115280839
 30
0.0
 11
0.0000000000000001
 21
1.714499999569815
 31
0.0
210
0.0
220
0.0
230
1.0
 40
0.7169988758226631
 41
0.0
 42
6.283185307179586
  0
ELLIPSE
  5
FA
330
79
100
AcDbEntity
  8
レイヤー 1
 62
   250
420
  2299925
370
    25
100
AcDbEllipse
 10
128.0684389145132
 20
-90.76613725435281
 30
0.0
 11
0.0000000000000001
 21
1.990563558823804
 31
0.0
210
0.0
220
0.0
230
1.0
 40
0.6569343065695831
 41
0.0
 42
6.283185307179586
  0
ELLIPSE
  5
FB
330
79
100
AcDbEntity
  8
レイヤー 1
 62
   250
420
  2299925
370
    25
100
AcDbEllipse
 10
131.0179601002167
 20
-91.5325768728398
 30
0.0
 11
0.0000000000000001
 21
1.979666313029036
 31
0.0
210
0.0
220
0.0
230
1.0
 40
0.6825688073514651
 41
0.0
 42
6.283185307179586
  0
ELLIPSE
  5
FC
330
79
100
AcDbEntity
  8
レイヤー 1
 62
   250
420
  2299925
370
    25
100
AcDbEllipse
 10
133.6914177266672
 20
-92.19004403365698
 30
0.0
 11
0.0000000000000001
 21
2.106800846930646
 31
0.0
210
0.0
220
0.0
230
1.0
 40
0.6275862068965827
 41
0.0
 42
6.283185307179586
  0
ELLIPSE
  5
FD
330
79
100
AcDbEntity
  8
レイヤー 1
 62
   250
420
  2299925
370
    25
100
AcDbEllipse
 10
136.6264092513574
 20
-92.80012888811283
 30
0.0
 11
0.0000000000000001
 21
2.208347565780707
 31
0.0
210
0.0
220
0.0
230
1.0
 40
0.6645221001818813
 41
0.0
 42
6.283185307179586
  0
ELLIPSE
  5
FE
330
79
100
AcDbEntity
  8
レイヤー 1
 62
   250
420
  2299925
370
    25
100
AcDbEllipse
 10
139.8955829793529
 20
-93.65753979600176
 30
0.0
 11
0.0000000000000001
 21
2.208508474024052
 31
0.0
210
0.0
220
0.0
230
1.0
 40
0.7236842105265175
 41
0.0
 42
6.283185307179586
  0
ELLIPSE
  5
FF
330
79
100
AcDbEntity
  8
レイヤー 1
 62
   250
420
  2299925
370
    25
100
AcDbEllipse
 10
116.4882990868991
 20
-92.29901649125718
 30
0.0
 11
0.0000000000000001
 21
1.532879236904359
 31
0.0
210
0.0
220
0.0
230
1.0
 40
0.5971563981044401
 41
0.0
 42
6.283185307179586
  0
ELLIPSE
  5
100
330
79
100
AcDbEntity
  8
レイヤー 1
 62
   250
420
  2299925
370
    25
100
AcDbEllipse
 10
118.6241592558564
 20
-92.77123047419005
 30
0.0
 11
0.0000000000000001
 21
1.758088982611886
 31
0.0
210
0.0
220
0.0
230
1.0
 40
0.6115702479334824
 41
0.0
 42
6.283185307179586
  0
ELLIPSE
  5
101
330
79
100
AcDbEntity
  8
レイヤー 1
 62
   250
420
  2299925
370
    25
100
AcDbEllipse
 10
121.0651423060939
 20
-93.36513036812693
 30
0.0
 11
0.0000000000000001
 21
1.832553495287594
 31
0.0
210
0.0
220
0.0
230
1.0
 40
0.618434093167074
 41
0.0
 42
6.283185307179586
  0
ELLIPSE
  5
102
330
79
100
AcDbEntity
  8
レイヤー 1
 62
   250
420
  2299925
370
    25
100
AcDbEllipse
 10
123.6223626444376
 20
-93.97719233829477
 30
0.0
 11
0.0000000000000001
 21
1.94697457578414
 31
0.0
210
0.0
220
0.0
230
1.0
 40
0.6268656716417345
 41
0.0
 42
6.283185307179586
  0
ELLIPSE
  5
103
330
79
100
AcDbEntity
  8
レイヤー 1
 62
   250
420
  2299925
370
    25
100
AcDbEllipse
 10
126.3103499319023
 20
-94.69633010440311
 30
0.0
 11
0.0000000000000001
 21
1.896201216289645
 31
0.0
210
0.0
220
0.0
230
1.0
 40
0.6359883401326228
 41
0.0
 42
6.283185307179586
  0
ELLIPSE
  5
104
330
79
100
AcDbEntity
  8
レイヤー 1
 62
   250
420
  2299925
370
    25
100
AcDbEllipse
 10
128.8966295922725
 20
-95.43015843962692
 30
0.0
 11
0.0000000000000001
 21
1.917915253758071
 31
0.0
210
0.0
220
0.0
230
1.0
 40
0.5984848484847192
 41
0.0
 42
6.283185307179586
  0
ELLIPSE
  5
105
330
79
100
AcDbEntity
  8
レイヤー 1
 62
   250
420
  2299925
370
    25
100
AcDbEllipse
 10
131.6863245068298
 20
-95.98228555813312
 30
0.0
 11
0.0000000000000001
 21
2.005093219837882
 31
0.0
210
0.0
220
0.0
230
1.0
 40
0.7028985507245569
 41
0.0
 42
6.283185307179586
  0
ELLIPSE
  5
106
330
79
100
AcDbEntity
  8
レイヤー 1
 62
   250
420
  2299925
370
    25
100
AcDbEllipse
 10
134.8102016246935
 20
-96.97030250703855
 30
0.0
 11
0.0000000000000001
 21
2.092271185917371
 31
0.0
210
0.0
220
0.0
230
1.0
 40
0.6944444444444445
 41
0.0
 42
6.283185307179586
  0
ELLIPSE
  5
107
330
79
100
AcDbEntity
  8
レイヤー 1
 62
   250
420
  2299925
370
    25
100
AcDbEllipse
 10
137.766987640903
 20
-97.84208216783762
 30
0.0
 11
0.0000000000000001
 21
2.179449151997662
 31
0.0
210
0.0
220
0.0
230
1.0
 40
0.5233333333334854
 41
0.0
 42
6.283185307179585
  0
ELLIPSE
  5
108
330
79
100
AcDbEntity
  8
レイヤー 1
 62
   250
420
  2299925
370
    25
100
AcDbEllipse
 10
140.5639473859668
 20
-98.47759176674244
 30
0.0
 11
0.0000000000000001
 21
2.08847570023681
 31
0.0
210
0.0
220
0.0
230
1.0
 40
0.7096206210064954
 41
0.0
 42
6.283185307179586
  0
ELLIPSE
  5
109
330
79
100
AcDbEntity
  8
レイヤー 1
 62
   250
420
  2299925
370
    25
100
AcDbEllipse
 10
114.4250872230092
 20
-96.05493386319967
 30
0.0
 11
0.0000000000000001
 21
1.525614406397722
 31
0.0
210
0.0
220
0.0
230
1.0
 40
0.6571428571430915
 41
0.0
 42
6.283185307179586
  0
ELLIPSE
  5
10A
330
79
100
AcDbEntity
  8
レイヤー 1
 62
   250
420
  2299925
370
    25
100
AcDbEllipse
 10
116.7934219681795
 20
-96.34185444118692
 30
0.0
 11
0.0000000000000001
 21
1.645524336784107
 31
0.0
210
0.0
220
0.0
230
1.0
 40
0.6534056597950525
 41
0.0
 42
6.283185307179586
  0
ELLIPSE
  5
10B
330
79
100
AcDbEntity
  8
レイヤー 1
 62
   250
420
  2299925
370
    25
100
AcDbEllipse
 10
119.2550832058222
 20
-96.87569880227822
 30
0.0
 11
0.0000000000000001
 21
1.867222348385008
 31
0.0
210
0.0
220
0.0
230
1.0
 40
0.6180258861204137
 41
0.0
 42
6.283185307179586
  0
ELLIPSE
  5
10C
330
79
100
AcDbEntity
  8
レイヤー 1
 62
   250
420
  2299925
370
    25
100
AcDbEllipse
 10
121.7044473906807
 20
-97.72584487973063
 30
0.0
 11
0.0000000000000001
 21
1.85979660970449
 31
0.0
210
0.0
220
0.0
230
1.0
 40
0.5468750000000823
 41
0.0
 42
6.283185307179585
  0
ELLIPSE
  5
10D
330
79
100
AcDbEntity
  8
レイヤー 1
 62
   250
420
  2299925
370
    25
100
AcDbEllipse
 10
124.3343160340913
 20
-98.27797199823667
 30
0.0
 11
0.0000000000000001
 21
1.888855931731361
 31
0.0
210
0.0
220
0.0
230
1.0
 40
0.7153846153845272
 41
0.0
 42
6.283185307179586
  0
ELLIPSE
  5
10E
330
79
100
AcDbEntity
  8
レイヤー 1
 62
   250
420
  2299925
370
    25
100
AcDbEllipse
 10
127.1385406096612
 20
-99.14975165903573
 30
0.0
 11
0.0000000000000001
 21
1.801677965651069
 31
0.0
210
0.0
220
0.0
230
1.0
 40
0.6935483870967298
 41
0.0
 42
6.283185307179586
  0
ELLIPSE
  5
10F
330
79
100
AcDbEntity
  8
レイヤー 1
 62
   250
420
  2299925
370
    25
100
AcDbEllipse
 10
129.8727754320967
 20
-99.91982369274204
 30
0.0
 11
0.0000000000000001
 21
1.932444914770384
 31
0.0
210
0.0
220
0.0
230
1.0
 40
0.5926092171464489
 41
0.0
 42
6.283185307179586
  0
ELLIPSE
  5
110
330
79
100
AcDbEntity
  8
レイヤー 1
 62
   250
420
  2299925
370
    25
100
AcDbEllipse
 10
132.5435745066158
 20
-100.9640610351514
 30
0.0
 11
0.0000000000000001
 21
2.079639775453448
 31
0.0
210
0.0
220
0.0
230
1.0
 40
0.5589299141056481
 41
0.0
 42
6.283185307179586
  0
ELLIPSE
  5
111
330
79
100
AcDbEntity
  8
レイヤー 1
 62
   250
420
  2299925
370
    25
100
AcDbEllipse
 10
135.4640363702925
 20
-101.6779126753526
 30
0.0
 11
0.0000000000000001
 21
2.092271185917852
 31
0.0
210
0.0
220
0.0
230
1.0
 40
0.7013888888888617
 41
0.0
 42
6.283185307179586
  0
ELLIPSE
  5
112
330
79
100
AcDbEntity
  8
レイヤー 1
 62
   250
420
  2299925
370
    25
100
AcDbEllipse
 10
138.7332100982887
 20
-102.4915736920986
 30
0.0
 11
0.0000000000000001
 21
2.121330507944402
 31
0.0
210
0.0
220
0.0
230
1.0
 40
0.7534246575342177
 41
0.0
 42
6.283185307179586
  0
ELLIPSE
  5
113
330
79
100
AcDbEntity
  8
レイヤー 1
 62
   250
420
  2299925
370
    25
100
AcDbEllipse
 10
114.8464473923961
 20
-99.9350185008604
 30
0.0
 11
0.0000000000000001
 21
1.657046502623899
 31
0.0
210
0.0
220
0.0
230
1.0
 40
0.5261045235714864
 41
0.0
 42
6.283185307179585
  0
ELLIPSE
  5
114
330
79
100
AcDbEntity
  8
レイヤー 1
 62
   250
420
  2299925
370
    25
100
AcDbEllipse
 10
117.2147821375669
 20
-100.7189550485034
 30
0.0
 11
0.0000000000000001
 21
1.976033897840529
 31
0.0
210
0.0
220
0.0
230
1.0
 40
0.6249999999905928
 41
0.0
 42
6.283185307179586
  0
ELLIPSE
  5
115
330
79
100
AcDbEntity
  8
レイヤー 1
 62
   250
420
  2299925
370
    25
100
AcDbEllipse
 10
119.8278885118471
 20
-101.4309084381268
 30
0.0
 11
0.0000000000000001
 21
1.990563558824446
 31
0.0
210
0.0
220
0.0
230
1.0
 40
0.5485668514702109
 41
0.0
 42
6.283185307179585
  0
ELLIPSE
  5
116
330
79
100
AcDbEntity
  8
レイヤー 1
 62
   250
420
  2299925
370
    25
100
AcDbEllipse
 10
122.4018711193198
 20
-101.9833681301854
 30
0.0
 11
0.0000000000000001
 21
2.048349629324676
 31
0.0
210
0.0
220
0.0
230
1.0
 40
0.6525882076425491
 41
0.0
 42
6.283185307179586
  0
ELLIPSE
  5
117
330
79
100
AcDbEntity
  8
レイヤー 1
 62
   250
420
  2299925
370
    25
100
AcDbEllipse
 10
125.0825935762776
 20
-102.8693448784596
 30
0.0
 11
0.0000000000000001
 21
2.150389829956353
 31
0.0
210
0.0
220
0.0
230
1.0
 40
0.5709459459496529
 41
0.0
 42
6.283185307179586
  0
ELLIPSE
  5
118
330
79
100
AcDbEntity
  8
レイヤー 1
 62
   250
420
  2299925
370
    25
100
AcDbEllipse
 10
127.7633160332345
 20
-103.7265948782305
 30
0.0
 11
0.0000000000000001
 21
2.048682202877706
 31
0.0
210
0.0
220
0.0
230
1.0
 40
0.5602836879432052
 41
0.0
 42
6.283185307179586
  0
ELLIPSE
  5
119
330
79
100
AcDbEntity
  8
レイヤー 1
 62
   250
420
  2299925
370
    25
100
AcDbEllipse
 10
130.3960839667675
 20
-104.7436711491924
 30
0.0
 11
0.0000000000000001
 21
2.048682202848188
 31
0.0
210
0.0
220
0.0
230
1.0
 40
0.6226982775608202
 41
0.0
 42
6.283185307179586
  0
ELLIPSE
  5
11A
330
79
100
AcDbEntity
  8
レイヤー 1
 62
   250
420
  2299925
370
    25
100
AcDbEllipse
 10
133.1828795912016
 20
-105.5573321659129
 30
0.0
 11
0.0000000000000001
 21
1.990563558828296
 31
0.0
210
0.0
220
0.0
230
1.0
 40
0.6715328467137737
 41
0.0
 42
6.283185307179586
  0
ELLIPSE
  5
11B
330
79
100
AcDbEntity
  8
レイヤー 1
 62
   250
420
  2299925
370
    25
100
AcDbEllipse
 10
136.2341084039982
 20
-106.3274041996149
 30
0.0
 11
0.0000000000000001
 21
2.1213305079436
 31
0.0
210
0.0
220
0.0
230
1.0
 40
0.6575342465754667
 41
0.0
 42
6.283185307179586
  0
ELLIPSE
  5
11C
330
79
100
AcDbEntity
  8
レイヤー 1
 62
   250
420
  2299925
370
    25
100
AcDbEllipse
 10
139.3579855217925
 20
-107.3154211485203
 30
0.0
 11
0.0000000000000001
 21
2.295686440104023
 31
0.0
210
0.0
220
0.0
230
1.0
 40
0.6265822784509156
 41
0.0
 42
6.283185307179586
  0
ELLIPSE
  5
11D
330
79
100
AcDbEntity
  8
レイヤー 1
 62
   250
420
  2299925
370
    25
100
AcDbEllipse
 10
115.5598163693343
 20
-104.0753067425508
 30
0.0
 11
0.0000000000000001
 21
1.699970338557342
 31
0.0
210
0.0
220
0.0
230
1.0
 40
0.6572869451874542
 41
0.0
 42
6.283185307179586
  0
ELLIPSE
  5
11E
330
79
100
AcDbEntity
  8
レイヤー 1
 62
   250
420
  2299925
370
    25
100
AcDbEllipse
 10
118.0429728153261
 20
-104.9761457253766
 30
0.0
 11
0.0000000000000001
 21
1.816207626664023
 31
0.0
210
0.0
220
0.0
230
1.0
 40
0.6400000000002156
 41
0.0
 42
6.283185307179586
  0
ELLIPSE
  5
11F
330
79
100
AcDbEntity
  8
レイヤー 1
 62
   250
420
  2299925
370
    25
100
AcDbEllipse
 10
120.4548965435362
 20
-105.6956428832859
 30
0.0
 11
0.0000000000000001
 21
1.852252841455354
 31
0.0
210
0.0
220
0.0
230
1.0
 40
0.6746113808968845
 41
0.0
 42
6.283185307179586
  0
ELLIPSE
  5
120
330
79
100
AcDbEntity
  8
レイヤー 1
 62
   250
420
  2299925
370
    25
100
AcDbEllipse
 10
123.0847651869471
 20
-106.5260908659005
 30
0.0
 11
0.0000000000000001
 21
1.922643841658024
 31
0.0
210
0.0
220
0.0
230
1.0
 40
0.6272414255700369
 41
0.0
 42
6.283185307179586
  0
ELLIPSE
  5
121
330
79
100
AcDbEntity
  8
レイヤー 1
 62
   250
420
  2299925
370
    25
100
AcDbEllipse
 10
125.5402778981976
 20
-107.5842198772683
 30
0.0
 11
0.0000000000000001
 21
2.026887711356029
 31
0.0
210
0.0
220
0.0
230
1.0
 40
0.6164874551977634
 41
0.0
 42
6.283185307179586
  0
ELLIPSE
  5
122
330
79
100
AcDbEntity
  8
レイヤー 1
 62
   250
420
  2299925
370
    25
100
AcDbEllipse
 10
128.1846762026212
 20
-108.3906160635052
 30
0.0
 11
0.0000000000000001
 21
2.063211863890981
 31
0.0
210
0.0
220
0.0
230
1.0
 40
0.6197183098591604
 41
0.0
 42
6.283185307179586
  0
ELLIPSE
  5
123
330
79
100
AcDbEntity
  8
レイヤー 1
 62
   250
420
  2299925
370
    25
100
AcDbEllipse
 10
131.0760787442706
 20
-109.4367516564647
 30
0.0
 11
0.0000000000000001
 21
2.121330507944883
 31
0.0
210
0.0
220
0.0
230
1.0
 40
0.6643835616437672
 41
0.0
 42
6.283185307179586
  0
ELLIPSE
  5
124
330
79
100
AcDbEntity
  8
レイヤー 1
 62
   250
420
  2299925
370
    25
100
AcDbEllipse
 10
134.1127778959875
 20
-110.3230609782771
 30
0.0
 11
0.0000000000000001
 21
2.22303813503845
 31
0.0
210
0.0
220
0.0
230
1.0
 40
0.6405228758466196
 41
0.0
 42
6.283185307179586
  0
ELLIPSE
  5
125
330
79
100
AcDbEntity
  8
レイヤー 1
 62
   250
420
  2299925
370
    25
100
AcDbEllipse
 10
137.1058880647972
 20
-111.4418448764394
 30
0.0
 11
0.0000000000000001
 21
2.179449151997021
 31
0.0
210
0.0
220
0.0
230
1.0
 40
0.7200000000001531
 41
0.0
 42
6.283185307179586
  0
SPLINE
  5
126
330
79
100
AcDbEntity
  8
レイヤー 1
 62
   250
420
  2299925
370
    25
100
AcDbSpline
210
0.0
220
0.0
230
1.0
 70
     9
 71
     3
 72
    29
 73
    25
 74
     0
 42
0.0000000001
 43
0.0000000001
 40
0.0
 40
0.0
 40
0.0
 40
0.0
 40
1.0
 40
1.0
 40
1.0
 40
2.0
 40
2.0
 40
2.0
 40
3.0
 40
3.0
 40
3.0
 40
4.0
 40
4.0
 40
4.0
 40
5.0
 40
5.0
 40
5.0
 40
6.0
 40
6.0
 40
6.0
 40
7.0
 40
7.0
 40
7.0
 40
8.0
 40
8.0
 40
8.0
 40
8.0
 10
88.92553214464014
 20
-104.7261421397658
 30
0.0
 10
88.92553214464014
 20
-104.7261421397658
 30
0.0
 10
142.7046507752619
 20
-126.7270482623161
 30
0.0
 10
142.7046507752619
 20
-126.7270482623161
 30
0.0
 10
142.7046507752619
 20
-126.7270482623161
 30
0.0
 10
144.1382439952429
 20
-127.3857262282526
 30
0.0
 10
143.8670236563277
 20
-129.6717262276815
 30
0.0
 10
143.8670236563277
 20
-129.6717262276815
 30
0.0
 10
139.2675789393007
 20
-158.9247770678259
 30
0.0
 10
139.2675789393007
 20
-158.9247770678259
 30
0.0
 10
139.2675789393007
 20
-158.9247770678259
 30
0.0
 10
137.977667725597
 20
-161.6369804569789
 30
0.0
 10
135.265464336444
 20
-159.8934211353808
 30
0.0
 10
135.265464336444
 20
-159.8934211353808
 30
0.0
 10
83.34614231552778
 20
-128.8580652109349
 30
0.0
 10
83.34614231552778
 20
-128.8580652109349
 30
0.0
 10
83.34614231552778
 20
-128.8580652109349
 30
0.0
 10
82.30000672256942
 20
-128.3931160585095
 30
0.0
 10
82.60997282418594
 20
-127.0757601266347
 30
0.0
 10
82.60997282418594
 20
-127.0757601266347
 30
0.0
 10
86.01959994197615
 20
-105.7752770811082
 30
0.0
 10
86.01959994197615
 20
-105.7752770811082
 30
0.0
 10
86.01959994197615
 20
-105.7752770811082
 30
0.0
 10
86.39781787053218
 20
-103.6920604019969
 30
0.0
 10
88.92553214464014
 20
-104.7261421397658
 30
0.0
  0
LINE
  5
127
330
79
100
AcDbEntity
  8
レイヤー 1
 62
   250
420
  2299925
370
    25
100
AcDbLine
 10
90.27582245762047
 20
-101.7770557591717
 30
0.0
 11
90.12560776088282
 21
-105.2170901442184
 31
0.0
  0
LINE
  5
128
330
79
100
AcDbEntity
  8
レイヤー 1
 62
   250
420
  2299925
370
    25
100
AcDbLine
 10
94.37707054254284
 20
-106.9563531876548
 30
0.0
 11
100.2506583146494
 21
-105.4865305261624
 31
0.0
  0
SPLINE
  5
129
330
79
100
AcDbEntity
  8
レイヤー 1
 62
   250
420
  2299925
370
    25
100
AcDbSpline
210
0.0
220
0.0
230
1.0
 70
    11
 71
     3
 72
    53
 73
    49
 74
     0
 42
0.0000000001
 43
0.0000000001
 40
0.0
 40
0.0
 40
0.0
 40
0.0
 40
1.0
 40
1.0
 40
1.0
 40
2.0
 40
2.0
 40
2.0
 40
3.0
 40
3.0
 40
3.0
 40
4.0
 40
4.0
 40
4.0
 40
5.0
 40
5.0
 40
5.0
 40
6.0
 40
6.0
 40
6.0
 40
7.0
 40
7.0
 40
7.0
 40
8.0
 40
8.0
 40
8.0
 40
9.0
 40
9.0
 40
9.0
 40
10.0
 40
10.0
 40
10.0
 40
11.0
 40
11.0
 40
11.0
 40
12.0
 40
12.0
 40
12.0
 40
13.0
 40
13.0
 40
13.0
 40
14.0
 40
14.0
 40
14.0
 40
15.0
 40
15.0
 40
15.0
 40
16.0
 40
16.0
 40
16.0
 40
16.0
 10
84.5085151965917
 20
-118.8810313151265
 30
0.0
 10
84.5085151965917
 20
-118.8810313151265
 30
0.0
 10
85.26405756928458
 20
-114.2896584349175
 30
0.0
 10
85.26405756928458
 20
-114.2896584349175
 30
0.0
 10
85.26405756928458
 20
-114.2896584349175
 30
0.0
 10
86.88210527300698
 20
-113.1272855538523
 30
0.0
 10
86.88210527300698
 20
-113.1272855538523
 30
0.0
 10
86.88210527300698
 20
-113.1272855538523
 30
0.0
 10
87.29821011114884
 20
-110.1632347071365
 30
0.0
 10
87.29821011114884
 20
-110.1632347071365
 30
0.0
 10
87.29821011114884
 20
-110.1632347071365
 30
0.0
 10
87.87939655168113
 20
-109.3495736903931
 30
0.0
 10
88.98365078869323
 20
-109.7564041987648
 30
0.0
 10
88.98365078869323
 20
-109.7564041987648
 30
0.0
 10
105.663701631981
 20
-116.4400482648892
 30
0.0
 10
105.663701631981
 20
-116.4400482648892
 30
0.0
 10
105.663701631981
 20
-116.4400482648892
 30
0.0
 10
107.0585490892592
 20
-117.0212347054215
 30
0.0
 10
106.8841931571
 20
-118.4742008067529
 30
0.0
 10
106.8841931571
 20
-118.4742008067529
 30
0.0
 10
106.3611253605765
 20
-123.8211160596534
 30
0.0
 10
106.3611253605765
 20
-123.8211160596534
 30
0.0
 10
106.3611253605765
 20
-123.8211160596534
 30
0.0
 10
106.8992758501928
 20
-125.215963516933
 30
0.0
 10
106.8992758501928
 20
-125.215963516933
 30
0.0
 10
106.8992758501928
 20
-125.215963516933
 30
0.0
 10
106.089905021705
 20
-129.8654550411932
 30
0.0
 10
106.089905021705
 20
-129.8654550411932
 30
0.0
 10
106.089905021705
 20
-129.8654550411932
 30
0.0
 10
104.7302999476593
 20
-131.2997633479869
 30
0.0
 10
104.7302999476593
 20
-131.2997633479869
 30
0.0
 10
104.7302999476593
 20
-131.2997633479869
 30
0.0
 10
104.1526168865966
 20
-135.4448448703074
 30
0.0
 10
104.1526168865966
 20
-135.4448448703074
 30
0.0
 10
104.1526168865966
 20
-135.4448448703074
 30
0.0
 10
103.2808372257969
 20
-137.0721669038
 30
0.0
 10
101.5953965482525
 20
-136.0260313108404
 30
0.0
 10
101.5953965482525
 20
-136.0260313108404
 30
0.0
 10
85.03158299307088
 20
-126.4945736861037
 30
0.0
 10
85.03158299307088
 20
-126.4945736861037
 30
0.0
 10
85.03158299307088
 20
-126.4945736861037
 30
0.0
 10
84.21792197632557
 20
-126.2620991098901
 30
0.0
 10
84.27604062037866
 20
-124.9253702966656
 30
0.0
 10
84.27604062037866
 20
-124.9253702966656
 30
0.0
 10
85.08970163712463
 20
-120.1596414842979
 30
0.0
 10
85.08970163712463
 20
-120.1596414842979
 30
0.0
 10
85.08970163712463
 20
-120.1596414842979
 30
0.0
 10
84.5085151965917
 20
-118.8810313151265
 30
0.0
 10
84.5085151965917
 20
-118.8810313151265
 30
0.0
  0
LINE
  5
12A
330
79
100
AcDbEntity
  8
レイヤー 1
 62
   250
420
  2299925
370
    25
100
AcDbLine
 10
109.3650631497057
 20
-113.0879043679659
 30
0.0
 11
104.8657614303155
 21
-141.7216584280596
 31
0.0
  0
LINE
  5
12B
330
79
100
AcDbEntity
  8
レイヤー 1
 62
   250
420
  2299925
370
    25
100
AcDbLine
 10
110.0530207674492
 20
-113.3693461496392
 30
0.0
 11
105.5387994423176
 21
-142.1239744337405
 31
0.0
  0
SPLINE
  5
12C
330
79
100
AcDbEntity
  8
レイヤー 1
 62
   250
420
  2299925
370
    25
100
AcDbSpline
210
0.0
220
0.0
230
1.0
 70
    11
 71
     3
 72
    53
 73
    49
 74
     0
 42
0.0000000001
 43
0.0000000001
 40
0.0
 40
0.0
 40
0.0
 40
0.0
 40
1.0
 40
1.0
 40
1.0
 40
2.0
 40
2.0
 40
2.0
 40
3.0
 40
3.0
 40
3.0
 40
4.0
 40
4.0
 40
4.0
 40
5.0
 40
5.0
 40
5.0
 40
6.0
 40
6.0
 40
6.0
 40
7.0
 40
7.0
 40
7.0
 40
8.0
 40
8.0
 40
8.0
 40
9.0
 40
9.0
 40
9.0
 40
10.0
 40
10.0
 40
10.0
 40
11.0
 40
11.0
 40
11.0
 40
12.0
 40
12.0
 40
12.0
 40
13.0
 40
13.0
 40
13.0
 40
14.0
 40
14.0
 40
14.0
 40
15.0
 40
15.0
 40
15.0
 40
16.0
 40
16.0
 40
16.0
 40
16.0
 10
107.795910104883
 20
-131.0278279222584
 30
0.0
 10
107.795910104883
 20
-131.0278279222584
 30
0.0
 10
108.8021084108574
 20
-124.5766584323463
 30
0.0
 10
108.8021084108574
 20
-124.5766584323463
 30
0.0
 10
108.8021084108574
 20
-124.5766584323463
 30
0.0
 10
110.3713118002956
 20
-123.8792347037066
 30
0.0
 10
110.3713118002956
 20
-123.8792347037066
 30
0.0
 10
110.3713118002956
 20
-123.8792347037066
 30
0.0
 10
110.7781423086679
 20
-120.3339974164578
 30
0.0
 10
110.7781423086679
 20
-120.3339974164578
 30
0.0
 10
110.7781423086679
 20
-120.3339974164578
 30
0.0
 10
111.3166881964519
 20
-118.7647940270184
 30
0.0
 10
113.2268644045572
 20
-119.578455043765
 30
0.0
 10
113.2268644045572
 20
-119.578455043765
 30
0.0
 10
136.928731829467
 20
-129.245522837953
 30
0.0
 10
136.928731829467
 20
-129.245522837953
 30
0.0
 10
136.928731829467
 20
-129.245522837953
 30
0.0
 10
138.5588541661305
 20
-129.6329804649808
 30
0.0
 10
138.3263795899175
 20
-131.9577262271118
 30
0.0
 10
138.3263795899175
 20
-131.9577262271118
 30
0.0
 10
137.6870745053315
 20
-137.4789974121717
 30
0.0
 10
137.6870745053315
 20
-137.4789974121717
 30
0.0
 10
137.6870745053315
 20
-137.4789974121717
 30
0.0
 10
138.8640039046214
 20
-139.6943940472555
 30
0.0
 10
138.8640039046214
 20
-139.6943940472555
 30
0.0
 10
138.8640039046214
 20
-139.6943940472555
 30
0.0
 10
137.8033117934383
 20
-146.6036245285354
 30
0.0
 10
137.8033117934383
 20
-146.6036245285354
 30
0.0
 10
137.8033117934383
 20
-146.6036245285354
 30
0.0
 10
135.6529219634672
 20
-148.4053024941866
 30
0.0
 10
135.6529219634672
 20
-148.4053024941866
 30
0.0
 10
135.6529219634672
 20
-148.4053024941866
 30
0.0
 10
135.2460914550942
 20
-153.1710313065536
 30
0.0
 10
135.2460914550942
 20
-153.1710313065536
 30
0.0
 10
135.2460914550942
 20
-153.1710313065536
 30
0.0
 10
133.9093626418691
 20
-155.2051838484192
 30
0.0
 10
131.4102609475787
 20
-153.9265736792471
 30
0.0
 10
131.4102609475787
 20
-153.9265736792471
 30
0.0
 10
108.6277524786981
 20
-140.0362177505164
 30
0.0
 10
108.6277524786981
 20
-140.0362177505164
 30
0.0
 10
108.6277524786981
 20
-140.0362177505164
 30
0.0
 10
107.4871355275484
 20
-139.3969126659298
 30
0.0
 10
107.795910104883
 20
-137.4208787681193
 30
0.0
 10
107.795910104883
 20
-137.4208787681193
 30
0.0
 10
108.5115151905925
 20
-132.4580801303992
 30
0.0
 10
108.5115151905925
 20
-132.4580801303992
 30
0.0
 10
108.5115151905925
 20
-132.4580801303992
 30
0.0
 10
107.795910104883
 20
-131.0278279222584
 30
0.0
 10
107.795910104883
 20
-131.0278279222584
 30
0.0
  0
LINE
  5
12D
330
79
100
AcDbEntity
  8
レイヤー 1
 62
   250
420
  2299925
370
    25
100
AcDbLine
 10
141.5520180492958
 20
-126.2555090284376
 30
0.0
 11
136.1759897599476
 21
-160.4780038443753
 31
0.0
  0
LINE
  5
12E
330
79
100
AcDbEntity
  8
レイヤー 1
 62
   250
420
  2299925
370
    25
100
AcDbLine
 10
142.2309242639191
 20
-126.5332479031958
 30
0.0
 11
136.928731829467
 21
-160.4750847886529
 31
0.0
  0
LWPOLYLINE
  5
12F
330
79
100
AcDbEntity
  8
レイヤー 1
 62
   250
420
  2299925
370
    25
100
AcDbPolyline
 90
        4
 70
     0
 43
0.0
 10
101.1304473958245
 20
-105.8137093834062
 10
100.8693196083623
 20
-109.6034084517198
 10
147.5478711130363
 20
-127.7466602916898
 10
148.2769103412825
 20
-127.9832852397603
  0
ELLIPSE
  5
130
330
79
100
AcDbEntity
  8
レイヤー 1
 62
   250
420
  2299925
370
    25
100
AcDbEllipse
 10
85.80649824711478
 20
-112.41017123227
 30
0.0
 11
0.0
 21
0.6777331356959323
 31
0.0
210
0.0
220
0.0
230
1.0
 40
0.5431116265149809
 41
0.0
 42
6.283185307179585
  0
ELLIPSE
  5
131
330
79
100
AcDbEntity
  8
レイヤー 1
 62
   250
420
  2299925
370
    25
100
AcDbEllipse
 10
84.31478638308073
 20
-121.0701669077989
 30
0.0
 11
0.0
 21
0.6199322032345095
 31
0.0
210
0.0
220
0.0
230
1.0
 40
0.4999999999998706
 41
0.0
 42
6.283185307179585
  0
CIRCLE
  5
132
330
79
100
AcDbEntity
  8
レイヤー 1
 62
   250
420
  2299925
370
    25
100
AcDbCircle
 10
88.17226425588209
 20
-107.0567502390537
 30
0.0
 40
0.8353083820884654
  0
SPLINE
  5
133
330
79
100
AcDbEntity
  8
レイヤー 1
 62
   250
420
  2299925
370
    25
100
AcDbSpline
210
0.0
220
0.0
230
1.0
 70
     8
 71
     3
 72
    11
 73
     7
 74
     0
 42
0.0000000001
 43
0.0000000001
 40
0.0
 40
0.0
 40
0.0
 40
0.0
 40
1.0
 40
1.0
 40
1.0
 40
2.0
 40
2.0
 40
2.0
 40
2.0
 10
86.01959994197615
 20
-105.7752770811082
 30
0.0
 10
86.01959994197615
 20
-105.7752770811082
 30
0.0
 10
86.79906416389069
 20
-104.6685896479978
 30
0.0
 10
88.17226425588227
 20
-105.2170901442184
 30
0.0
 10
88.17226425588227
 20
-105.2170901442184
 30
0.0
 10
109.199382071959
 20
-114.1423060348194
 30
0.0
 10
109.199382071959
 20
-114.1423060348194
 30
0.0
  0
LINE
  5
134
330
79
100
AcDbEntity
  8
レイヤー 1
 62
   250
420
  2299925
370
    25
100
AcDbLine
 10
110.0530207674492
 20
-114.4446414857264
 30
0.0
 11
141.304774838385
 21
-127.829399463581
 31
0.0
  0
SPLINE
  5
135
330
79
100
AcDbEntity
  8
レイヤー 1
 62
   250
420
  2299925
370
    25
100
AcDbSpline
210
0.0
220
0.0
230
1.0
 70
     8
 71
     3
 72
    41
 73
    37
 74
     0
 42
0.0000000001
 43
0.0000000001
 40
0.0
 40
0.0
 40
0.0
 40
0.0
 40
1.0
 40
1.0
 40
1.0
 40
2.0
 40
2.0
 40
2.0
 40
3.0
 40
3.0
 40
3.0
 40
4.0
 40
4.0
 40
4.0
 40
5.0
 40
5.0
 40
5.0
 40
6.0
 40
6.0
 40
6.0
 40
7.0
 40
7.0
 40
7.0
 40
8.0
 40
8.0
 40
8.0
 40
9.0
 40
9.0
 40
9.0
 40
10.0
 40
10.0
 40
10.0
 40
11.0
 40
11.0
 40
11.0
 40
12.0
 40
12.0
 40
12.0
 40
12.0
 10
107.795910104883
 20
-137.4208787681193
 30
0.0
 10
107.795910104883
 20
-137.4208787681193
 30
0.0
 10
107.8334643432993
 20
-138.1957940221587
 30
0.0
 10
108.5696338346405
 20
-139.0869465643088
 30
0.0
 10
108.5696338346405
 20
-139.0869465643088
 30
0.0
 10
132.3595321337774
 20
-153.3841330014118
 30
0.0
 10
132.3595321337774
 20
-153.3841330014118
 30
0.0
 10
132.3595321337774
 20
-153.3841330014118
 30
0.0
 10
133.5606507775453
 20
-154.2365397808585
 30
0.0
 10
134.2580745061844
 20
-152.3379974084521
 30
0.0
 10
134.2580745061844
 20
-152.3379974084521
 30
0.0
 10
134.5680406078023
 20
-147.9984719858097
 30
0.0
 10
134.5680406078023
 20
-147.9984719858097
 30
0.0
 10
134.5680406078023
 20
-147.9984719858097
 30
0.0
 10
136.928731829467
 20
-146.0224380879979
 30
0.0
 10
136.928731829467
 20
-146.0224380879979
 30
0.0
 10
136.928731829467
 20
-146.0224380879979
 30
0.0
 10
137.8614304374875
 20
-140.2493194453733
 30
0.0
 10
137.8614304374875
 20
-140.2493194453733
 30
0.0
 10
137.8614304374875
 20
-140.2493194453733
 30
0.0
 10
136.6990575564217
 20
-137.8858279205408
 30
0.0
 10
136.6990575564217
 20
-137.8858279205408
 30
0.0
 10
136.6990575564217
 20
-137.8858279205408
 30
0.0
 10
137.5902100985724
 20
-131.6090143627875
 30
0.0
 10
137.5902100985724
 20
-131.6090143627875
 30
0.0
 10
137.5902100985724
 20
-131.6090143627875
 30
0.0
 10
137.7451931493903
 20
-130.4853872444249
 30
0.0
 10
136.1759897599476
 20
-129.86545504119
 30
0.0
 10
136.1759897599476
 20
-129.86545504119
 30
0.0
 10
112.4746160304797
 20
-119.9243120518262
 30
0.0
 10
112.4746160304797
 20
-119.9243120518262
 30
0.0
 10
112.3040842377613
 20
-119.8527853565813
 30
0.0
 10
112.1206972185045
 20
-119.8211121677287
 30
0.0
 10
111.936146698389
 20
-119.8328708235029
 30
0.0
 10
111.5847787206236
 20
-119.8552582711153
 30
0.0
 10
111.0318937134363
 20
-119.9533703093113
 30
0.0
 10
110.7781423086679
 20
-120.3339974164578
 30
0.0
  0
ELLIPSE
  5
136
330
79
100
AcDbEntity
  8
レイヤー 1
 62
   250
420
  2299925
370
    25
100
AcDbEllipse
 10
92.85822705890582
 20
-109.2720821649835
 30
0.0
 11
0.0000000000000001
 21
0.9492711862003105
 31
0.0
210
0.0
220
0.0
230
1.0
 40
0.8367346938800308
 41
0.0
 42
6.283185307179586
  0
ELLIPSE
  5
137
330
79
100
AcDbEntity
  8
レイヤー 1
 62
   250
420
  2299925
370
    25
100
AcDbEllipse
 10
96.98465078668746
 20
-110.7444211476694
 30
0.0
 11
0.0000000000000001
 21
0.9880169489046231
 31
0.0
210
0.0
220
0.0
230
1.0
 40
0.8627450980396455
 41
0.0
 42
6.283185307179586
  0
CIRCLE
  5
138
330
79
100
AcDbEntity
  8
レイヤー 1
 62
   250
420
  2299925
370
    25
100
AcDbCircle
 10
101.3133259236406
 20
-112.7951057057088
 30
0.0
 40
1.062667609062836
  0
ELLIPSE
  5
139
330
79
100
AcDbEntity
  8
レイヤー 1
 62
   250
420
  2299925
370
    25
100
AcDbEllipse
 10
106.229730689849
 20
-115.00361417973
 30
0.0
 11
0.0000000000000001
 21
1.145840864886698
 31
0.0
210
0.0
220
0.0
230
1.0
 40
0.772953406797467
 41
0.0
 42
6.283185307179586
  0
ELLIPSE
  5
13A
330
79
100
AcDbEntity
  8
レイヤー 1
 62
   250
420
  2299925
370
    25
100
AcDbEllipse
 10
107.2113870459365
 20
-122.7168618226354
 30
0.0
 11
0.0
 21
0.7167966099903176
 31
0.0
210
0.0
220
0.0
230
1.0
 40
0.435425044417991
 41
0.0
 42
6.283185307179585
  0
ELLIPSE
  5
13B
330
79
100
AcDbEntity
  8
レイヤー 1
 62
   250
420
  2299925
370
    25
100
AcDbEllipse
 10
105.3034772938479
 20
-132.7907601252031
 30
0.0
 11
0.0000000000000001
 21
0.9880169489059065
 31
0.0
210
0.0
220
0.0
230
1.0
 40
0.4430246505559772
 41
0.0
 42
6.283185307179585
  0
CIRCLE
  5
13C
330
79
100
AcDbEntity
  8
レイヤー 1
 62
   250
420
  2299925
370
    25
100
AcDbCircle
 10
84.96870055653539
 20
-128.0586955715552
 30
0.0
 40
0.653914173498702
  0
ELLIPSE
  5
13D
330
79
100
AcDbEntity
  8
レイヤー 1
 62
   250
420
  2299925
370
    25
100
AcDbEllipse
 10
89.39048129706108
 20
-130.5628787698285
 30
0.0
 11
0.0000000000000001
 21
0.8911525421500986
 31
0.0
210
0.0
220
0.0
230
1.0
 40
0.7826086956520798
 41
0.0
 42
6.283185307179586
  0
ELLIPSE
  5
13E
330
79
100
AcDbEntity
  8
レイヤー 1
 62
   250
420
  2299925
370
    25
100
AcDbEllipse
 10
93.45878638078946
 20
-133.0426075827678
 30
0.0
 11
0.0000000000000001
 21
0.8911525421500986
 31
0.0
210
0.0
220
0.0
230
1.0
 40
0.8695652173914998
 41
0.0
 42
6.283185307179586
  0
CIRCLE
  5
13F
330
79
100
AcDbEntity
  8
レイヤー 1
 62
   250
420
  2299925
370
    25
100
AcDbCircle
 10
97.79933068386489
 20
-135.5621010389498
 30
0.0
 40
0.8146798972325958
  0
ELLIPSE
  5
140
330
79
100
AcDbEntity
  8
レイヤー 1
 62
   250
420
  2299925
370
    25
100
AcDbEllipse
 10
102.505921971748
 20
-137.9861136371192
 30
0.0
 11
0.0000000000000001
 21
1.139578689890376
 31
0.0
210
0.0
220
0.0
230
1.0
 40
0.8670019522745457
 41
0.0
 42
6.283185307179586
  0
ELLIPSE
  5
141
330
79
100
AcDbEntity
  8
レイヤー 1
 62
   250
420
  2299925
370
    25
100
AcDbEllipse
 10
108.4733651900274
 20
-141.7216584280544
 30
0.0
 11
0.0000000000000001
 21
0.8911525421500986
 31
0.0
210
0.0
220
0.0
230
1.0
 40
0.7602010352906362
 41
0.0
 42
6.283185307179586
  0
ELLIPSE
  5
142
330
79
100
AcDbEntity
  8
レイヤー 1
 62
   250
420
  2299925
370
    25
100
AcDbEllipse
 10
113.9397914917191
 20
-144.879438088282
 30
0.0
 11
0.0000000000000001
 21
0.9105254235009713
 31
0.0
210
0.0
220
0.0
230
1.0
 40
0.7829842734326612
 41
0.0
 42
6.283185307179586
  0
CIRCLE
  5
143
330
79
100
AcDbEntity
  8
レイヤー 1
 62
   250
420
  2299925
370
    25
100
AcDbCircle
 10
119.5249982386211
 20
-148.2600058841126
 30
0.0
 40
0.9202118641797767
  0
ELLIPSE
  5
144
330
79
100
AcDbEntity
  8
レイヤー 1
 62
   250
420
  2299925
370
    25
100
AcDbEllipse
 10
125.5209050168415
 20
-152.0667770695356
 30
0.0
 11
0.0000000000000001
 21
1.123627118362658
 31
0.0
210
0.0
220
0.0
230
1.0
 40
0.7758620689659185
 41
0.0
 42
6.283185307179586
  0
ELLIPSE
  5
145
330
79
100
AcDbEntity
  8
レイヤー 1
 62
   250
420
  2299925
370
    25
100
AcDbEllipse
 10
133.231311794575
 20
-156.2513194413705
 30
0.0
 11
0.0000000000000001
 21
1.123627118363139
 31
0.0
210
0.0
220
0.0
230
1.0
 40
0.879310344827788
 41
0.0
 42
6.283185307179586
  0
ELLIPSE
  5
146
330
79
100
AcDbEntity
  8
レイヤー 1
 62
   250
420
  2299925
370
    25
100
AcDbEllipse
 10
136.834667725877
 20
-149.4514380871381
 30
0.0
 11
0.0000000000000001
 21
0.9492711862036797
 31
0.0
210
0.0
220
0.0
230
1.0
 40
0.5102040816323667
 41
0.0
 42
6.283185307179585
  0
ELLIPSE
  5
147
330
79
100
AcDbEntity
  8
レイヤー 1
 62
   250
420
  2299925
370
    25
100
AcDbEllipse
 10
138.7194877392014
 20
-136.8784380902783
 30
0.0
 11
0.0000000000000001
 21
0.8524067794485132
 31
0.0
210
0.0
220
0.0
230
1.0
 40
0.6429925398456588
 41
0.0
 42
6.283185307179586
  0
ELLIPSE
  5
148
330
79
100
AcDbEntity
  8
レイヤー 1
 62
   250
420
  2299925
370
    25
100
AcDbEllipse
 10
109.6262014197041
 20
-122.891217754792
 30
0.0
 11
0.0
 21
0.7361694913408696
 31
0.0
210
0.0
220
0.0
230
1.0
 40
0.5797840752238375
 41
0.0
 42
6.283185307179586
  0
ELLIPSE
  5
149
330
79
100
AcDbEntity
  8
レイヤー 1
 62
   250
420
  2299925
370
    25
100
AcDbEllipse
 10
107.5036485754099
 20
-133.9918787689663
 30
0.0
 11
0.0
 21
0.7555423726923842
 31
0.0
210
0.0
220
0.0
230
1.0
 40
0.3868234794455674
 41
0.0
 42
6.283185307179585
  0
CIRCLE
  5
14A
330
79
100
AcDbEntity
  8
レイヤー 1
 62
   250
420
  2299925
370
    25
100
AcDbCircle
 10
112.7820639059109
 20
-117.8093512677952
 30
0.0
 40
0.8028029535369956
  0
ELLIPSE
  5
14B
330
79
100
AcDbEntity
  8
レイヤー 1
 62
   250
420
  2299925
370
    25
100
AcDbEllipse
 10
118.1785829847767
 20
-120.0240313148327
 30
0.0
 11
0.0000000000000001
 21
1.007389830256619
 31
0.0
210
0.0
220
0.0
230
1.0
 40
0.8846153846153969
 41
0.0
 42
6.283185307179586
  0
ELLIPSE
  5
14C
330
79
100
AcDbEntity
  8
レイヤー 1
 62
   250
420
  2299925
370
    25
100
AcDbEllipse
 10
123.7582706949641
 20
-122.2761287719029
 30
0.0
 11
0.0000000000000001
 21
1.041292372614029
 31
0.0
210
0.0
220
0.0
230
1.0
 40
0.8927371871982771
 41
0.0
 42
6.283185307179586
  0
CIRCLE
  5
14D
330
79
100
AcDbEntity
  8
レイヤー 1
 62
   250
420
  2299925
370
    25
100
AcDbCircle
 10
130.1740036249063
 20
-124.9134923596113
 30
0.0
 40
1.053630537192696
  0
CIRCLE
  5
14E
330
79
100
AcDbEntity
  8
レイヤー 1
 62
   250
420
  2299925
370
    25
100
AcDbCircle
 10
137.8963678670442
 20
-128.1993872450037
 30
0.0
 40
0.9676360376426464
  0
ELLIPSE
  5
14F
330
79
100
AcDbEntity
  8
レイヤー 1
 62
   250
420
  2299925
370
    25
100
AcDbEllipse
 10
88.59619316166503
 20
-111.9161627578178
 30
0.0
 11
0.0000000000000001
 21
1.171741610148083
 31
0.0
210
0.0
220
0.0
230
1.0
 40
0.5456024425937626
 41
0.0
 42
6.283185307179585
  0
ELLIPSE
  5
150
330
79
100
AcDbEntity
  8
レイヤー 1
 62
   250
420
  2299925
370
    25
100
AcDbEllipse
 10
90.28163383920974
 20
-112.640122654897
 30
0.0
 11
0.0000000000000001
 21
1.217650659946261
 31
0.0
210
0.0
220
0.0
230
1.0
 40
0.6364019497003658
 41
0.0
 42
6.283185307179586
  0
ELLIPSE
  5
151
330
79
100
AcDbEntity
  8
レイヤー 1
 62
   250
420
  2299925
370
    25
100
AcDbEllipse
 10
92.07362536418608
 20
-113.2578936471736
 30
0.0
 11
0.0000000000000001
 21
1.341730889355295
 31
0.0
210
0.0
220
0.0
230
1.0
 40
0.5847683026041829
 41
0.0
 42
6.283185307179586
  0
ELLIPSE
  5
152
330
79
100
AcDbEntity
  8
レイヤー 1
 62
   250
420
  2299925
370
    25
100
AcDbEllipse
 10
93.82687112645925
 20
-114.0654498667879
 30
0.0
 11
0.0000000000000001
 21
1.42532721189106
 31
0.0
210
0.0
220
0.0
230
1.0
 40
0.5028996878822959
 41
0.0
 42
6.283185307179585
  0
ELLIPSE
  5
153
330
79
100
AcDbEntity
  8
レイヤー 1
 62
   250
420
  2299925
370
    25
100
AcDbEllipse
 10
95.66729485481255
 20
-114.7594005971281
 30
0.0
 11
0.0000000000000001
 21
1.390054447488604
 31
0.0
210
0.0
220
0.0
230
1.0
 40
0.6132182670887931
 41
0.0
 42
6.283185307179586
  0
ELLIPSE
  5
154
330
79
100
AcDbEntity
  8
レイヤー 1
 62
   250
420
  2299925
370
    25
100
AcDbEllipse
 10
97.62395587127253
 20
-115.5359990904963
 30
0.0
 11
0.0000000000000001
 21
1.470549223708028
 31
0.0
210
0.0
220
0.0
230
1.0
 40
0.5664780781675035
 41
0.0
 42
6.283185307179586
  0
ELLIPSE
  5
155
330
79
100
AcDbEntity
  8
レイヤー 1
 62
   250
420
  2299925
370
    25
100
AcDbEllipse
 10
99.54187112503078
 20
-116.284375932462
 30
0.0
 11
0.0000000000000001
 21
1.52497533533308
 31
0.0
210
0.0
220
0.0
230
1.0
 40
0.5843717740886976
 41
0.0
 42
6.283185307179586
  0
ELLIPSE
  5
156
330
79
100
AcDbEntity
  8
レイヤー 1
 62
   250
420
  2299925
370
    25
100
AcDbEllipse
 10
101.5207458880125
 20
-117.3699465697339
 30
0.0
 11
0.0000000000000001
 21
1.646694914841519
 31
0.0
210
0.0
220
0.0
230
1.0
 40
0.5193722509925794
 41
0.0
 42
6.283185307179585
  0
ELLIPSE
  5
157
330
79
100
AcDbEntity
  8
レイヤー 1
 62
   250
420
  2299925
370
    25
100
AcDbEllipse
 10
103.5326846833545
 20
-117.9798476914882
 30
0.0
 11
0.0000000000000001
 21
1.695471759025562
 31
0.0
210
0.0
220
0.0
230
1.0
 40
0.5484599197255901
 41
0.0
 42
6.283185307179585
  0
ELLIPSE
  5
158
330
79
100
AcDbEntity
  8
レイヤー 1
 62
   250
420
  2299925
370
    25
100
AcDbEllipse
 10
87.10448129763145
 20
-114.9244535652168
 30
0.0
 11
0.0000000000000001
 21
1.066680250373838
 31
0.0
210
0.0
220
0.0
230
1.0
 40
0.617502729338254
 41
0.0
 42
6.283185307179586
  0
ELLIPSE
  5
159
330
79
100
AcDbEntity
  8
レイヤー 1
 62
   250
420
  2299925
370
    25
100
AcDbEllipse
 10
88.84804061922958
 20
-115.5359990904963
 30
0.0
 11
0.0000000000000001
 21
1.470549223708028
 31
0.0
210
0.0
220
0.0
230
1.0
 40
0.6059998045512777
 41
0.0
 42
6.283185307179586
  0
ELLIPSE
  5
15A
330
79
100
AcDbEntity
  8
レイヤー 1
 62
   250
420
  2299925
370
    25
100
AcDbEllipse
 10
90.51410841542326
 20
-116.3669024165058
 30
0.0
 11
0.0000000000000001
 21
1.442448851289198
 31
0.0
210
0.0
220
0.0
230
1.0
 40
0.5372219980978819
 41
0.0
 42
6.283185307179585
  0
ELLIPSE
  5
15B
330
79
100
AcDbEntity
  8
レイヤー 1
 62
   250
420
  2299925
370
    25
100
AcDbEllipse
 10
92.29641349972313
 20
-116.966354185919
 30
0.0
 11
0.0000000000000001
 21
1.430355095422702
 31
0.0
210
0.0
220
0.0
230
1.0
 40
0.5688524614270764
 41
0.0
 42
6.283185307179586
  0
ELLIPSE
  5
15C
330
79
100
AcDbEntity
  8
レイヤー 1
 62
   250
420
  2299925
370
    25
100
AcDbEllipse
 10
94.19495587213019
 20
-117.746938483608
 30
0.0
 11
0.0000000000000001
 21
1.59748343899033
 31
0.0
210
0.0
220
0.0
230
1.0
 40
0.5578477500294717
 41
0.0
 42
6.283185307179586
  0
ELLIPSE
  5
15D
330
79
100
AcDbEntity
  8
レイヤー 1
 62
   250
420
  2299925
370
    25
100
AcDbEllipse
 10
96.17098976994167
 20
-118.6121542212746
 30
0.0
 11
0.0000000000000001
 21
1.60560590706998
 31
0.0
210
0.0
220
0.0
230
1.0
 40
0.506762595456011
 41
0.0
 42
6.283185307179585
  0
ELLIPSE
  5
15E
330
79
100
AcDbEntity
  8
レイヤー 1
 62
   250
420
  2299925
370
    25
100
AcDbEllipse
 10
97.81768468478416
 20
-119.558434083071
 30
0.0
 11
0.0000000000000001
 21
1.57858639158334
 31
0.0
210
0.0
220
0.0
230
1.0
 40
0.5277087795374289
 41
0.0
 42
6.283185307179585
  0
ELLIPSE
  5
15F
330
79
100
AcDbEntity
  8
レイヤー 1
 62
   250
420
  2299925
370
    25
100
AcDbEllipse
 10
99.73559993854109
 20
-120.3061097170156
 30
0.0
 11
0.0000000000000001
 21
1.69395549562918
 31
0.0
210
0.0
220
0.0
230
1.0
 40
0.5489508474405202
 41
0.0
 42
6.283185307179585
  0
ELLIPSE
  5
160
330
79
100
AcDbEntity
  8
レイヤー 1
 62
   250
420
  2299925
370
    25
100
AcDbEllipse
 10
101.9053626498635
 20
-121.2832686026532
 30
0.0
 11
0.0000000000000001
 21
1.607949152139132
 31
0.0
210
0.0
220
0.0
230
1.0
 40
0.5783132530126324
 41
0.0
 42
6.283185307179586
  0
ELLIPSE
  5
161
330
79
100
AcDbEntity
  8
レイヤー 1
 62
   250
420
  2299925
370
    25
100
AcDbEllipse
 10
104.2243521750908
 20
-122.1937940261586
 30
0.0
 11
0.0000000000000001
 21
1.743559321595242
 31
0.0
210
0.0
220
0.0
230
1.0
 40
0.6189207934550015
 41
0.0
 42
6.283185307179586
  0
ELLIPSE
  5
162
330
79
100
AcDbEntity
  8
レイヤー 1
 62
   250
420
  2299925
370
    25
100
AcDbEllipse
 10
86.16025938722541
 20
-117.8348957221598
 30
0.0
 11
0.0000000000000001
 21
1.181745762415598
 31
0.0
210
0.0
220
0.0
230
1.0
 40
0.6108301030045879
 41
0.0
 42
6.283185307179586
  0
ELLIPSE
  5
163
330
79
100
AcDbEntity
  8
レイヤー 1
 62
   250
420
  2299925
370
    25
100
AcDbEllipse
 10
87.85033722964817
 20
-118.4354550440439
 30
0.0
 11
0.0000000000000001
 21
1.23986440646982
 31
0.0
210
0.0
220
0.0
230
1.0
 40
0.6015624999997625
 41
0.0
 42
6.283185307179586
  0
ELLIPSE
  5
164
330
79
100
AcDbEntity
  8
レイヤー 1
 62
   250
420
  2299925
370
    25
100
AcDbEllipse
 10
89.56483722921973
 20
-119.1297929861797
 30
0.0
 11
0.0000000000000001
 21
1.32044171838434
 31
0.0
210
0.0
220
0.0
230
1.0
 40
0.5428460794674161
 41
0.0
 42
6.283185307179585
  0
ELLIPSE
  5
165
330
79
100
AcDbEntity
  8
レイヤー 1
 62
   250
420
  2299925
370
    25
100
AcDbEllipse
 10
91.2115321440627
 20
-119.9954750273754
 30
0.0
 11
0.0000000000000001
 21
1.383320806101258
 31
0.0
210
0.0
220
0.0
230
1.0
 40
0.5041662971908432
 41
0.0
 42
6.283185307179585
  0
ELLIPSE
  5
166
330
79
100
AcDbEntity
  8
レイヤー 1
 62
   250
420
  2299925
370
    25
100
AcDbEllipse
 10
92.85822705890582
 20
-120.8465994997813
 30
0.0
 11
0.0000000000000001
 21
1.502177577182697
 31
0.0
210
0.0
220
0.0
230
1.0
 40
0.5287578162923464
 41
0.0
 42
6.283185307179585
  0
ELLIPSE
  5
167
330
79
100
AcDbEntity
  8
レイヤー 1
 62
   250
420
  2299925
370
    25
100
AcDbEllipse
 10
94.70652178500598
 20
-121.7536467867143
 30
0.0
 11
0.0000000000000001
 21
1.447537069698387
 31
0.0
210
0.0
220
0.0
230
1.0
 40
0.6076878284920172
 41
0.0
 42
6.283185307179586
  0
ELLIPSE
  5
168
330
79
100
AcDbEntity
  8
レイヤー 1
 62
   250
420
  2299925
370
    25
100
AcDbEllipse
 10
96.63839293089008
 20
-122.4888408305225
 30
0.0
 11
0.0000000000000001
 21
1.642241330741046
 31
0.0
210
0.0
220
0.0
230
1.0
 40
0.5913248302180563
 41
0.0
 42
6.283185307179586
  0
ELLIPSE
  5
169
330
79
100
AcDbEntity
  8
レイヤー 1
 62
   250
420
  2299925
370
    25
100
AcDbEllipse
 10
98.60228637950276
 20
-123.569268602083
 30
0.0
 11
0.0000000000000001
 21
1.569203389438188
 31
0.0
210
0.0
220
0.0
230
1.0
 40
0.4999999999995911
 41
0.0
 42
6.283185307179585
  0
ELLIPSE
  5
16A
330
79
100
AcDbEntity
  8
レイヤー 1
 62
   250
420
  2299925
370
    25
100
AcDbEllipse
 10
100.4275985243356
 20
-124.3732431781534
 30
0.0
 11
0.0000000000000001
 21
1.656381355517838
 31
0.0
210
0.0
220
0.0
230
1.0
 40
0.5347363977228616
 41
0.0
 42
6.283185307179585
  0
ELLIPSE
  5
16B
330
79
100
AcDbEntity
  8
レイヤー 1
 62
   250
420
  2299925
370
    25
100
AcDbEllipse
 10
102.332986472173
 20
-125.1869041948986
 30
0.0
 11
0.0000000000000001
 21
1.617635592815291
 31
0.0
210
0.0
220
0.0
230
1.0
 40
0.5021159201541197
 41
0.0
 42
6.283185307179585
  0
ELLIPSE
  5
16C
330
79
100
AcDbEntity
  8
レイヤー 1
 62
   250
420
  2299925
370
    25
100
AcDbEllipse
 10
104.3415024797654
 20
-126.2863152115787
 30
0.0
 11
0.0000000000000001
 21
1.913072033424965
 31
0.0
210
0.0
220
0.0
230
1.0
 40
0.5240506329113033
 41
0.0
 42
6.283185307179585
  0
ELLIPSE
  5
16D
330
79
100
AcDbEntity
  8
レイヤー 1
 62
   250
420
  2299925
370
    25
100
AcDbEllipse
 10
86.16025938722541
 20
-121.3533004794337
 30
0.0
 11
0.0000000000000001
 21
1.135540351088813
 31
0.0
210
0.0
220
0.0
230
1.0
 40
0.6356849275231945
 41
0.0
 42
6.283185307179586
  0
ELLIPSE
  5
16E
330
79
100
AcDbEntity
  8
レイヤー 1
 62
   250
420
  2299925
370
    25
100
AcDbEllipse
 10
87.73914921733592
 20
-121.8838279245381
 30
0.0
 11
0.0000000000000001
 21
1.317355931874595
 31
0.0
210
0.0
220
0.0
230
1.0
 40
0.6505788781847058
 41
0.0
 42
6.283185307179586
  0
ELLIPSE
  5
16F
330
79
100
AcDbEntity
  8
レイヤー 1
 62
   250
420
  2299925
370
    25
100
AcDbEllipse
 10
89.48734570381576
 20
-122.7551318264037
 30
0.0
 11
0.0000000000000001
 21
1.618111351749688
 31
0.0
210
0.0
220
0.0
230
1.0
 40
0.490873594412976
 41
0.0
 42
6.283185307179585
  0
ELLIPSE
  5
170
330
79
100
AcDbEntity
  8
レイヤー 1
 62
   250
420
  2299925
370
    25
100
AcDbEllipse
 10
91.40526095757319
 20
-123.743624534241
 30
0.0
 11
0.0000000000000001
 21
1.588576270790505
 31
0.0
210
0.0
220
0.0
230
1.0
 40
0.560975609755371
 41
0.0
 42
6.283185307179586
  0
ELLIPSE
  5
171
330
79
100
AcDbEntity
  8
レイヤー 1
 62
   250
420
  2299925
370
    25
100
AcDbEllipse
 10
93.34254909268166
 20
-124.647975753954
 30
0.0
 11
0.0000000000000001
 21
1.638339457624816
 31
0.0
210
0.0
220
0.0
230
1.0
 40
0.52028703543768
 41
0.0
 42
6.283185307179585
  0
ELLIPSE
  5
172
330
79
100
AcDbEntity
  8
レイヤー 1
 62
   250
420
  2299925
370
    25
100
AcDbEllipse
 10
95.35732875319554
 20
-125.671067372883
 30
0.0
 11
0.0000000000000001
 21
1.733714025129101
 31
0.0
210
0.0
220
0.0
230
1.0
 40
0.4693167413729241
 41
0.0
 42
6.283185307179585
  0
ELLIPSE
  5
173
330
79
100
AcDbEntity
  8
レイヤー 1
 62
   250
420
  2299925
370
    25
100
AcDbEllipse
 10
97.09120163411784
 20
-126.6689296182624
 30
0.0
 11
0.0000000000000001
 21
1.530457626741255
 31
0.0
210
0.0
220
0.0
230
1.0
 40
0.4746835443028037
 41
0.0
 42
6.283185307179585
  0
ELLIPSE
  5
174
330
79
100
AcDbEntity
  8
レイヤー 1
 62
   250
420
  2299925
370
    25
100
AcDbEllipse
 10
98.88319315909306
 20
-127.6182008044603
 30
0.0
 11
0.0000000000000001
 21
1.588576270788741
 31
0.0
210
0.0
220
0.0
230
1.0
 40
0.5365853658539195
 41
0.0
 42
6.283185307179585
  0
ELLIPSE
  5
175
330
79
100
AcDbEntity
  8
レイヤー 1
 62
   250
420
  2299925
370
    25
100
AcDbEllipse
 10
100.7250373200321
 20
-128.4996669059378
 30
0.0
 11
0.0000000000000001
 21
1.830737287675694
 31
0.0
210
0.0
220
0.0
230
1.0
 40
0.4346383139390501
 41
0.0
 42
6.283185307179585
  0
ELLIPSE
  5
176
330
79
100
AcDbEntity
  8
レイヤー 1
 62
   250
420
  2299925
370
    25
100
AcDbEllipse
 10
102.8352609547154
 20
-129.7563634417672
 30
0.0
 11
0.0000000000000001
 21
1.697667870211298
 31
0.0
210
0.0
220
0.0
230
1.0
 40
0.6618651021670621
 41
0.0
 42
6.283185307179586
  0
ELLIPSE
  5
177
330
79
100
AcDbEntity
  8
レイヤー 1
 62
   250
420
  2299925
370
    25
100
AcDbEllipse
 10
86.36354801381092
 20
-124.5379126696369
 30
0.0
 11
0.0000000000000001
 21
1.336728813224826
 31
0.0
210
0.0
220
0.0
230
1.0
 40
0.554288406511842
 41
0.0
 42
6.283185307179586
  0
ELLIPSE
  5
178
330
79
100
AcDbEntity
  8
レイヤー 1
 62
   250
420
  2299925
370
    25
100
AcDbEllipse
 10
88.07312536518569
 20
-125.2159635169234
 30
0.0
 11
0.0000000000000001
 21
1.588576270790505
 31
0.0
210
0.0
220
0.0
230
1.0
 40
0.4878048780486229
 41
0.0
 42
6.283185307179585
  0
ELLIPSE
  5
179
330
79
100
AcDbEntity
  8
レイヤー 1
 62
   250
420
  2299925
370
    25
100
AcDbEllipse
 10
89.87480333083739
 20
-126.306955972148
 30
0.0
 11
0.0000000000000001
 21
1.439704319541896
 31
0.0
210
0.0
220
0.0
230
1.0
 40
0.4440530433290132
 41
0.0
 42
6.283185307179585
  0
ELLIPSE
  5
17A
330
79
100
AcDbEntity
  8
レイヤー 1
 62
   250
420
  2299925
370
    25
100
AcDbEllipse
 10
91.59898977108353
 20
-127.1918385589904
 30
0.0
 11
0.0000000000000001
 21
1.520771186107449
 31
0.0
210
0.0
220
0.0
230
1.0
 40
0.5859872611280874
 41
0.0
 42
6.283185307179586
  0
ELLIPSE
  5
17B
330
79
100
AcDbEntity
  8
レイヤー 1
 62
   250
420
  2299925
370
    25
100
AcDbEllipse
 10
93.45878638078946
 20
-128.4221753805327
 30
0.0
 11
0.0000000000000001
 21
1.75324576227124
 31
0.0
210
0.0
220
0.0
230
1.0
 40
0.4419889502769281
 41
0.0
 42
6.283185307179585
  0
ELLIPSE
  5
17C
330
79
100
AcDbEntity
  8
レイヤー 1
 62
   250
420
  2299925
370
    25
100
AcDbEllipse
 10
95.10548129563131
 20
-129.4286136929165
 30
0.0
 11
0.0000000000000001
 21
1.599214229335459
 31
0.0
210
0.0
220
0.0
230
1.0
 40
0.545130004977935
 41
0.0
 42
6.283185307179585
  0
ELLIPSE
  5
17D
330
79
100
AcDbEntity
  8
レイヤー 1
 62
   250
420
  2299925
370
    25
100
AcDbEllipse
 10
97.10088807479351
 20
-130.3351679861009
 30
0.0
 11
0.0000000000000001
 21
1.622558241003923
 31
0.0
210
0.0
220
0.0
230
1.0
 40
0.5731062721521593
 41
0.0
 42
6.283185307179586
  0
ELLIPSE
  5
17E
330
79
100
AcDbEntity
  8
レイヤー 1
 62
   250
420
  2299925
370
    25
100
AcDbEllipse
 10
98.98005756584822
 20
-131.399485512267
 30
0.0
 11
0.0000000000000001
 21
1.643122070500741
 31
0.0
210
0.0
220
0.0
230
1.0
 40
0.4598212063834147
 41
0.0
 42
6.283185307179585
  0
ELLIPSE
  5
17F
330
79
100
AcDbEntity
  8
レイヤー 1
 62
   250
420
  2299925
370
    25
100
AcDbEllipse
 10
100.8204812942017
 20
-132.6745228370941
 30
0.0
 11
0.0000000000000001
 21
1.646694914843124
 31
0.0
210
0.0
220
0.0
230
1.0
 40
0.5411764705881517
 41
0.0
 42
6.283185307179585
  0
SPLINE
  5
180
330
79
100
AcDbEntity
  8
レイヤー 1
 62
   250
420
  2299925
370
    25
100
AcDbSpline
210
0.0
220
0.0
230
1.0
 70
     8
 71
     3
 72
    38
 73
    34
 74
     0
 42
0.0000000001
 43
0.0000000001
 40
0.0
 40
0.0
 40
0.0
 40
0.0
 40
1.0
 40
1.0
 40
1.0
 40
2.0
 40
2.0
 40
2.0
 40
3.0
 40
3.0
 40
3.0
 40
4.0
 40
4.0
 40
4.0
 40
5.0
 40
5.0
 40
5.0
 40
6.0
 40
6.0
 40
6.0
 40
7.0
 40
7.0
 40
7.0
 40
8.0
 40
8.0
 40
8.0
 40
9.0
 40
9.0
 40
9.0
 40
10.0
 40
10.0
 40
10.0
 40
11.0
 40
11.0
 40
11.0
 40
11.0
 10
84.62475248469791
 20
-123.9373533477539
 30
0.0
 10
84.62475248469791
 20
-123.9373533477539
 30
0.0
 10
84.38275032352779
 20
-125.1187813985844
 30
0.0
 10
84.96870055653539
 20
-125.671067372883
 30
0.0
 10
84.96870055653539
 20
-125.671067372883
 30
0.0
 10
101.7116338363522
 20
-135.1736245313846
 30
0.0
 10
101.7116338363522
 20
-135.1736245313846
 30
0.0
 10
101.7116338363522
 20
-135.1736245313846
 30
0.0
 10
102.9902440055275
 20
-136.1810143616422
 30
0.0
 10
103.4939389206537
 20
-134.3212177519372
 30
0.0
 10
103.4939389206537
 20
-134.3212177519372
 30
0.0
 10
103.9588880730785
 20
-131.027827922252
 30
0.0
 10
103.9588880730785
 20
-131.027827922252
 30
0.0
 10
103.9588880730785
 20
-131.027827922252
 30
0.0
 10
105.344049089687
 20
-129.4286136929165
 30
0.0
 10
105.344049089687
 20
-129.4286136929165
 30
0.0
 10
105.344049089687
 20
-129.4286136929165
 30
0.0
 10
106.0899050216973
 20
-125.3322008050315
 30
0.0
 10
106.0899050216973
 20
-125.3322008050315
 30
0.0
 10
106.0899050216973
 20
-125.3322008050315
 30
0.0
 10
105.5387994423176
 20
-123.9373533477539
 30
0.0
 10
105.5387994423176
 20
-123.9373533477539
 30
0.0
 10
105.5387994423176
 20
-123.9373533477539
 30
0.0
 10
106.0899050216973
 20
-118.6121542212748
 30
0.0
 10
106.0899050216973
 20
-118.6121542212748
 30
0.0
 10
106.0899050216973
 20
-118.6121542212748
 30
0.0
 10
106.4155919384033
 20
-117.5443025018911
 30
0.0
 10
105.3034772938481
 20
-116.8081330105499
 30
0.0
 10
105.3034772938481
 20
-116.8081330105499
 30
0.0
 10
88.69305756842196
 20
-110.2213533511838
 30
0.0
 10
88.69305756842196
 20
-110.2213533511838
 30
0.0
 10
88.69305756842196
 20
-110.2213533511838
 30
0.0
 10
88.14619671026873
 20
-109.8797173154501
 30
0.0
 10
87.23788137692846
 20
-110.5929760111446
 30
0.0
  0
ELLIPSE
  5
181
330
79
100
AcDbEntity
  8
レイヤー 1
 62
   250
420
  2299925
370
    25
100
AcDbEllipse
 10
112.5495893296977
 20
-122.5618787718238
 30
0.0
 11
0.0000000000000001
 21
1.530457626735159
 31
0.0
210
0.0
220
0.0
230
1.0
 40
0.6764496524503662
 41
0.0
 42
6.283185307179586
  0
ELLIPSE
  5
182
330
79
100
AcDbEntity
  8
レイヤー 1
 62
   250
420
  2299925
370
    25
100
AcDbEllipse
 10
114.738724922371
 20
-123.6080143647817
 30
0.0
 11
0.0000000000000001
 21
1.879169491055523
 31
0.0
210
0.0
220
0.0
230
1.0
 40
0.6140255407880045
 41
0.0
 42
6.283185307179586
  0
ELLIPSE
  5
183
330
79
100
AcDbEntity
  8
レイヤー 1
 62
   250
420
  2299925
370
    25
100
AcDbEllipse
 10
117.4036677307338
 20
-124.7122328289939
 30
0.0
 11
0.0000000000000001
 21
1.821015074201902
 31
0.0
210
0.0
220
0.0
230
1.0
 40
0.5957563839150898
 41
0.0
 42
6.283185307179586
  0
ELLIPSE
  5
184
330
79
100
AcDbEntity
  8
レイヤー 1
 62
   250
420
  2299925
370
    25
100
AcDbEllipse
 10
120.0264605456926
 20
-125.9608679310703
 30
0.0
 11
0.0000000000000001
 21
1.86853153251073
 31
0.0
210
0.0
220
0.0
230
1.0
 40
0.6906649395566344
 41
0.0
 42
6.283185307179586
  0
ELLIPSE
  5
185
330
79
100
AcDbEntity
  8
レイヤー 1
 62
   250
420
  2299925
370
    25
100
AcDbEllipse
 10
122.6732403987665
 20
-127.0951330079779
 30
0.0
 11
0.0000000000000001
 21
1.879169491055523
 31
0.0
210
0.0
220
0.0
230
1.0
 40
0.5773988463319198
 41
0.0
 42
6.283185307179586
  0
ELLIPSE
  5
186
330
79
100
AcDbEntity
  8
レイヤー 1
 62
   250
420
  2299925
370
    25
100
AcDbEllipse
 10
125.1189177287838
 20
-128.0518991384869
 30
0.0
 11
0.0000000000000001
 21
2.08477624161173
 31
0.0
210
0.0
220
0.0
230
1.0
 40
0.5552296873134662
 41
0.0
 42
6.283185307179586
  0
ELLIPSE
  5
187
330
79
100
AcDbEntity
  8
レイヤー 1
 62
   250
420
  2299925
370
    25
100
AcDbEllipse
 10
127.853393289467
 20
-129.4681521176948
 30
0.0
 11
0.0000000000000001
 21
2.063370719682087
 31
0.0
210
0.0
220
0.0
230
1.0
 40
0.6140340105788822
 41
0.0
 42
6.283185307179586
  0
ELLIPSE
  5
188
330
79
100
AcDbEntity
  8
レイヤー 1
 62
   250
420
  2299925
370
    25
100
AcDbEllipse
 10
130.9646846764961
 20
-130.4950736851038
 30
0.0
 11
0.0000000000000001
 21
2.29568644009921
 31
0.0
210
0.0
220
0.0
230
1.0
 40
0.6244725738409295
 41
0.0
 42
6.283185307179586
  0
ELLIPSE
  5
189
330
79
100
AcDbEntity
  8
レイヤー 1
 62
   250
420
  2299925
370
    25
100
AcDbEllipse
 10
134.2968202688833
 20
-132.0739635152078
 30
0.0
 11
0.0000000000000001
 21
2.208508474024212
 31
0.0
210
0.0
220
0.0
230
1.0
 40
0.7017543859649073
 41
0.0
 42
6.283185307179586
  0
ELLIPSE
  5
18A
330
79
100
AcDbEntity
  8
レイヤー 1
 62
   250
420
  2299925
370
    25
100
AcDbEllipse
 10
111.0161408599386
 20
-125.9719920181448
 30
0.0
 11
0.0000000000000001
 21
1.259759189150758
 31
0.0
210
0.0
220
0.0
230
1.0
 40
0.7645271419998532
 41
0.0
 42
6.283185307179586
  0
ELLIPSE
  5
18B
330
79
100
AcDbEntity
  8
レイヤー 1
 62
   250
420
  2299925
370
    25
100
AcDbEllipse
 10
113.2883460309163
 20
-127.0176414825733
 30
0.0
 11
0.0000000000000001
 21
1.530457626736122
 31
0.0
210
0.0
220
0.0
230
1.0
 40
0.7540895007592582
 41
0.0
 42
6.283185307179586
  0
ELLIPSE
  5
18C
330
79
100
AcDbEntity
  8
レイヤー 1
 62
   250
420
  2299925
370
    25
100
AcDbEllipse
 10
115.8193488689881
 20
-128.1993514721898
 30
0.0
 11
0.0000000000000001
 21
1.666103568993716
 31
0.0
210
0.0
220
0.0
230
1.0
 40
0.6485935008647639
 41
0.0
 42
6.283185307179586
  0
ELLIPSE
  5
18D
330
79
100
AcDbEntity
  8
レイヤー 1
 62
   250
420
  2299925
370
    25
100
AcDbEllipse
 10
118.3529389169375
 20
-129.293796185535
 30
0.0
 11
0.0000000000000001
 21
1.889014787522627
 31
0.0
210
0.0
220
0.0
230
1.0
 40
0.6460995081563632
 41
0.0
 42
6.283185307179586
  0
ELLIPSE
  5
18E
330
79
100
AcDbEntity
  8
レイヤー 1
 62
   250
420
  2299925
370
    25
100
AcDbEllipse
 10
121.1173014257482
 20
-130.5030896198543
 30
0.0
 11
0.0000000000000001
 21
1.954990510544904
 31
0.0
210
0.0
220
0.0
230
1.0
 40
0.5579775830991628
 41
0.0
 42
6.283185307179586
  0
ELLIPSE
  5
18F
330
79
100
AcDbEntity
  8
レイヤー 1
 62
   250
420
  2299925
370
    25
100
AcDbEllipse
 10
123.3898880682201
 20
-131.8027431762988
 30
0.0
 11
0.0000000000000001
 21
1.666067796199451
 31
0.0
210
0.0
220
0.0
230
1.0
 40
0.5465116279050443
 41
0.0
 42
6.283185307179585
  0
ELLIPSE
  5
190
330
79
100
AcDbEntity
  8
レイヤー 1
 62
   250
420
  2299925
370
    25
100
AcDbEllipse
 10
125.7533795930529
 20
-132.8101330065491
 30
0.0
 11
0.0000000000000001
 21
1.937288135109586
 31
0.0
210
0.0
220
0.0
230
1.0
 40
0.6499999999997226
 41
0.0
 42
6.283185307179586
  0
ELLIPSE
  5
191
330
79
100
AcDbEntity
  8
レイヤー 1
 62
   250
420
  2299925
370
    25
100
AcDbEllipse
 10
128.6786846770674
 20
-134.0499974130192
 30
0.0
 11
0.0000000000000001
 21
1.97603389781085
 31
0.0
210
0.0
220
0.0
230
1.0
 40
0.647058823529493
 41
0.0
 42
6.283185307179586
  0
ELLIPSE
  5
192
330
79
100
AcDbEntity
  8
レイヤー 1
 62
   250
420
  2299925
370
    25
100
AcDbEllipse
 10
131.7008541678373
 20
-135.4642177516541
 30
0.0
 11
0.0000000000000001
 21
1.995406779156269
 31
0.0
210
0.0
220
0.0
230
1.0
 40
0.660194174759023
 41
0.0
 42
6.283185307179586
  0
ELLIPSE
  5
193
330
79
100
AcDbEntity
  8
レイヤー 1
 62
   250
420
  2299925
370
    25
100
AcDbEllipse
 10
134.7327100992873
 20
-136.9946753783847
 30
0.0
 11
0.0000000000000001
 21
1.937288135109425
 31
0.0
210
0.0
220
0.0
230
1.0
 40
0.7450000000019618
 41
0.0
 42
6.283185307179586
  0
ELLIPSE
  5
194
330
79
100
AcDbEntity
  8
レイヤー 1
 62
   250
420
  2299925
370
    25
100
AcDbEllipse
 10
109.3888188264478
 20
-129.5398635303681
 30
0.0
 11
0.0000000000000001
 21
1.487964391880673
 31
0.0
210
0.0
220
0.0
230
1.0
 40
0.4463829542064147
 41
0.0
 42
6.283185307179585
  0
ELLIPSE
  5
195
330
79
100
AcDbEntity
  8
レイヤー 1
 62
   250
420
  2299925
370
    25
100
AcDbEllipse
 10
111.4755660373013
 20
-130.3110313122583
 30
0.0
 11
0.0000000000000001
 21
1.762932202949484
 31
0.0
210
0.0
220
0.0
230
1.0
 40
0.6153846153845315
 41
0.0
 42
6.283185307179586
  0
ELLIPSE
  5
196
330
79
100
AcDbEntity
  8
レイヤー 1
 62
   250
420
  2299925
370
    25
100
AcDbEllipse
 10
113.8778033248365
 20
-131.4188583936156
 30
0.0
 11
0.0000000000000001
 21
1.662494951848406
 31
0.0
210
0.0
220
0.0
230
1.0
 40
0.6292564027312596
 41
0.0
 42
6.283185307179586
  0
ELLIPSE
  5
197
330
79
100
AcDbEntity
  8
レイヤー 1
 62
   250
420
  2299925
370
    25
100
AcDbEllipse
 10
116.1056846802112
 20
-132.5776584303356
 30
0.0
 11
0.0000000000000001
 21
1.704813558896384
 31
0.0
210
0.0
220
0.0
230
1.0
 40
0.6022727272724003
 41
0.0
 42
6.283185307179586
  0
ELLIPSE
  5
198
330
79
100
AcDbEntity
  8
レイヤー 1
 62
   250
420
  2299925
370
    25
100
AcDbEllipse
 10
118.4304304423416
 20
-133.5753618199201
 30
0.0
 11
0.0000000000000001
 21
1.888855931733928
 31
0.0
210
0.0
220
0.0
230
1.0
 40
0.6871794871782942
 41
0.0
 42
6.283185307179586
  0
ELLIPSE
  5
199
330
79
100
AcDbEntity
  8
レイヤー 1
 62
   250
420
  2299925
370
    25
100
AcDbEllipse
 10
120.9682778993344
 20
-134.7290671408508
 30
0.0
 11
0.0000000000000001
 21
1.647713795386705
 31
0.0
210
0.0
220
0.0
230
1.0
 40
0.7524755876543683
 41
0.0
 42
6.283185307179586
  0
ELLIPSE
  5
19A
330
79
100
AcDbEntity
  8
レイヤー 1
 62
   250
420
  2299925
370
    25
100
AcDbEllipse
 10
123.7991401867512
 20
-136.4818034628527
 30
0.0
 11
0.0000000000000001
 21
1.752736322001615
 31
0.0
210
0.0
220
0.0
230
1.0
 40
0.7529812245375654
 41
0.0
 42
6.283185307179586
  0
ELLIPSE
  5
19B
330
79
100
AcDbEntity
  8
レイヤー 1
 62
   250
420
  2299925
370
    25
100
AcDbEllipse
 10
126.9269437824283
 20
-138.0805756145891
 30
0.0
 11
0.0000000000000001
 21
1.70379467835168
 31
0.0
210
0.0
220
0.0
230
1.0
 40
0.7325096124371253
 41
0.0
 42
6.283185307179586
  0
ELLIPSE
  5
19C
330
79
100
AcDbEntity
  8
レイヤー 1
 62
   250
420
  2299925
370
    25
100
AcDbEllipse
 10
129.7054473886754
 20
-139.4550313099731
 30
0.0
 11
0.0000000000000001
 21
1.724186440245973
 31
0.0
210
0.0
220
0.0
230
1.0
 40
0.7303370786521266
 41
0.0
 42
6.283185307179586
  0
ELLIPSE
  5
19D
330
79
100
AcDbEntity
  8
レイヤー 1
 62
   250
420
  2299925
370
    25
100
AcDbEllipse
 10
132.7469897607966
 20
-140.8886245299533
 30
0.0
 11
0.0000000000000001
 21
1.956661016459817
 31
0.0
210
0.0
220
0.0
230
1.0
 40
0.7920792079207978
 41
0.0
 42
6.283185307179586
  0
ELLIPSE
  5
19E
330
79
100
AcDbEntity
  8
レイヤー 1
 62
   250
420
  2299925
370
    25
100
AcDbEllipse
 10
109.9063626478635
 20
-133.5656753792421
 30
0.0
 11
0.0000000000000001
 21
1.491711864033734
 31
0.0
210
0.0
220
0.0
230
1.0
 40
0.5064935064932732
 41
0.0
 42
6.283185307179585
  0
ELLIPSE
  5
19F
330
79
100
AcDbEntity
  8
レイヤー 1
 62
   250
420
  2299925
370
    25
100
AcDbEllipse
 10
112.0013958213125
 20
-134.7290671408508
 30
0.0
 11
0.0000000000000001
 21
1.647713795386705
 31
0.0
210
0.0
220
0.0
230
1.0
 40
0.5979527294924547
 41
0.0
 42
6.283185307179586
  0
ELLIPSE
  5
1A0
330
79
100
AcDbEntity
  8
レイヤー 1
 62
   250
420
  2299925
370
    25
100
AcDbEllipse
 10
114.5171084094218
 20
-136.0066584294792
 30
0.0
 11
0.0000000000000001
 21
1.724186440247578
 31
0.0
210
0.0
220
0.0
230
1.0
 40
0.6179775280897361
 41
0.0
 42
6.283185307179586
  0
ELLIPSE
  5
1A1
330
79
100
AcDbEntity
  8
レイヤー 1
 62
   250
420
  2299925
370
    25
100
AcDbEllipse
 10
116.9989659268828
 20
-137.1980906325747
 30
0.0
 11
0.0000000000000001
 21
1.733872880919405
 31
0.0
210
0.0
220
0.0
230
1.0
 40
0.6803365292093249
 41
0.0
 42
6.283185307179586
  0
ELLIPSE
  5
1A2
330
79
100
AcDbEntity
  8
レイヤー 1
 62
   250
420
  2299925
370
    25
100
AcDbEllipse
 10
119.4378202725986
 20
-138.3268156914072
 30
0.0
 11
0.0000000000000001
 21
1.8450122285556
 31
0.0
210
0.0
220
0.0
230
1.0
 40
0.6825089115026346
 41
0.0
 42
6.283185307179586
  0
ELLIPSE
  5
1A3
330
79
100
AcDbEntity
  8
レイヤー 1
 62
   250
420
  2299925
370
    25
100
AcDbEllipse
 10
122.0434728143199
 20
-139.6487601234838
 30
0.0
 11
0.0000000000000001
 21
1.917915253757269
 31
0.0
210
0.0
220
0.0
230
1.0
 40
0.7020202020203056
 41
0.0
 42
6.283185307179586
  0
ELLIPSE
  5
1A4
330
79
100
AcDbEntity
  8
レイヤー 1
 62
   250
420
  2299925
370
    25
100
AcDbEllipse
 10
125.0173590422481
 20
-141.2857685976507
 30
0.0
 11
0.0000000000000001
 21
1.8307372876781
 31
0.0
210
0.0
220
0.0
230
1.0
 40
0.6877493323364219
 41
0.0
 42
6.283185307179586
  0
ELLIPSE
  5
1A5
330
79
100
AcDbEntity
  8
レイヤー 1
 62
   250
420
  2299925
370
    25
100
AcDbEllipse
 10
127.9618880670773
 20
-142.8840313091153
 30
0.0
 11
0.0000000000000001
 21
1.704813558896544
 31
0.0
210
0.0
220
0.0
230
1.0
 40
0.8068181818180653
 41
0.0
 42
6.283185307179586
  0
ELLIPSE
  5
1A6
330
79
100
AcDbEntity
  8
レイヤー 1
 62
   250
420
  2299925
370
    25
100
AcDbEllipse
 10
130.5191084054215
 20
-144.3369974104494
 30
0.0
 11
0.0000000000000001
 21
1.452966101333593
 31
0.0
210
0.0
220
0.0
230
1.0
 40
0.6799999999993551
 41
0.0
 42
6.283185307179586
  0
ELLIPSE
  5
1A7
330
79
100
AcDbEntity
  8
レイヤー 1
 62
   250
420
  2299925
370
    25
100
AcDbEllipse
 10
133.2167821335624
 20
-145.8179090158612
 30
0.0
 11
0.0000000000000001
 21
2.042725164595585
 31
0.0
210
0.0
220
0.0
230
1.0
 40
0.7421105844287056
 41
0.0
 42
6.283185307179586
  0
ELLIPSE
  5
1A8
330
79
100
AcDbEntity
  8
レイヤー 1
 62
   250
420
  2299925
370
    25
100
AcDbEllipse
 10
110.3353280251193
 20
-138.0652817931679
 30
0.0
 11
0.0000000000000001
 21
1.583478330315688
 31
0.0
210
0.0
220
0.0
230
1.0
 40
0.597740544060748
 41
0.0
 42
6.283185307179586
  0
ELLIPSE
  5
1A9
330
79
100
AcDbEntity
  8
レイヤー 1
 62
   250
420
  2299925
370
    25
100
AcDbEllipse
 10
112.6766846810687
 20
-139.3097346998402
 30
0.0
 11
0.0000000000000001
 21
1.578889830112743
 31
0.0
210
0.0
220
0.0
230
1.0
 40
0.7607361963194516
 41
0.0
 42
6.283185307179586
  0
ELLIPSE
  5
1AA
330
79
100
AcDbEntity
  8
レイヤー 1
 62
   250
420
  2299925
370
    25
100
AcDbEllipse
 10
114.9917440025239
 20
-140.41173168551
 30
0.0
 11
0.0000000000000001
 21
1.712242748230548
 31
0.0
210
0.0
220
0.0
230
1.0
 40
0.6505740373779491
 41
0.0
 42
6.283185307179586
  0
ELLIPSE
  5
1AB
330
79
100
AcDbEntity
  8
レイヤー 1
 62
   250
420
  2299925
370
    25
100
AcDbEllipse
 10
117.3552355273569
 20
-141.6054211399428
 30
0.0
 11
0.0000000000000001
 21
1.821050847002584
 31
0.0
210
0.0
220
0.0
230
1.0
 40
0.6861702127661929
 41
0.0
 42
6.283185307179586
  0
ELLIPSE
  5
1AC
330
79
100
AcDbEntity
  8
レイヤー 1
 62
   250
420
  2299925
370
    25
100
AcDbEllipse
 10
120.1933626452914
 20
-143.1358787666795
 30
0.0
 11
0.0000000000000001
 21
1.956661016459817
 31
0.0
210
0.0
220
0.0
230
1.0
 40
0.6336633663365891
 41
0.0
 42
6.283185307179586
  0
ELLIPSE
  5
1AD
330
79
100
AcDbEntity
  8
レイヤー 1
 62
   250
420
  2299925
370
    25
100
AcDbEllipse
 10
122.9055660344443
 20
-144.9181838509786
 30
0.0
 11
0.0000000000000001
 21
2.034152541864432
 31
0.0
210
0.0
220
0.0
230
1.0
 40
0.5523809523809178
 41
0.0
 42
6.283185307179586
  0
ELLIPSE
  5
1AE
330
79
100
AcDbEntity
  8
レイヤー 1
 62
   250
420
  2299925
370
    25
100
AcDbEllipse
 10
125.2109389152241
 20
-146.298501647281
 30
0.0
 11
0.0000000000000001
 21
1.961504236831906
 31
0.0
210
0.0
220
0.0
230
1.0
 40
0.6024691357921305
 41
0.0
 42
6.283185307179586
  0
ELLIPSE
  5
1AF
330
79
100
AcDbEntity
  8
レイヤー 1
 62
   250
420
  2299925
370
    25
100
AcDbEllipse
 10
128.0587524738326
 20
-147.7659974095884
 30
0.0
 11
0.0000000000000001
 21
2.169762711322146
 31
0.0
210
0.0
220
0.0
230
1.0
 40
0.6785714285714919
 41
0.0
 42
6.283185307179586
  0
ELLIPSE
  5
1B0
330
79
100
AcDbEntity
  8
レイヤー 1
 62
   250
420
  2299925
370
    25
100
AcDbEllipse
 10
131.4683795916254
 20
-149.5095567311899
 30
0.0
 11
0.0000000000000001
 21
2.169762711318777
 31
0.0
210
0.0
220
0.0
230
1.0
 40
0.8125000000015203
 41
0.0
 42
6.283185307179586
  0
LWPOLYLINE
  5
1B1
330
79
100
AcDbEntity
  8
レイヤー 1
 62
   250
420
  2299925
370
    25
100
AcDbPolyline
 90
        3
 70
     0
 43
0.0
 10
143.8404008534084
 20
-128.4365247998725
 10
145.6105829779195
 20
-129.361760126049
 10
147.8989456475202
 20
-130.2888698717069
  0
SPLINE
  5
1B2
330
79
100
AcDbEntity
  8
レイヤー 1
 62
   250
420
  2299925
370
    25
100
AcDbSpline
210
0.0
220
0.0
230
1.0
 70
     8
 71
     3
 72
    41
 73
    37
 74
     0
 42
0.0000000001
 43
0.0000000001
 40
0.0
 40
0.0
 40
0.0
 40
0.0
 40
1.0
 40
1.0
 40
1.0
 40
2.0
 40
2.0
 40
2.0
 40
3.0
 40
3.0
 40
3.0
 40
4.0
 40
4.0
 40
4.0
 40
5.0
 40
5.0
 40
5.0
 40
6.0
 40
6.0
 40
6.0
 40
7.0
 40
7.0
 40
7.0
 40
8.0
 40
8.0
 40
8.0
 40
9.0
 40
9.0
 40
9.0
 40
10.0
 40
10.0
 40
10.0
 40
11.0
 40
11.0
 40
11.0
 40
12.0
 40
12.0
 40
12.0
 40
12.0
 10
157.2374985989261
 20
-49.25844795596074
 30
0.0
 10
157.2374985989261
 20
-49.25844795596074
 30
0.0
 10
158.8035151780181
 20
-49.25844795596074
 30
0.0
 10
158.8035151780181
 20
-49.25844795596074
 30
0.0
 10
158.8035151780181
 20
-49.25844795596074
 30
0.0
 10
160.2284189516146
 20
-51.80282860103002
 30
0.0
 10
163.9537314895774
 20
-53.07041521137711
 30
0.0
 10
164.0027547037048
 20
-53.08709600505245
 30
0.0
 10
164.0521762846419
 20
-53.10355569351623
 30
0.0
 10
164.1019982275404
 20
-53.11978556885469
 30
0.0
 10
166.5952880574257
 20
-53.93199361949907
 30
0.0
 10
168.0449849850295
 20
-53.50416775096134
 30
0.0
 10
168.7543448301904
 20
-53.10519415678157
 30
0.0
 10
169.4096871703767
 20
-52.73660226274422
 30
0.0
 10
170.1119431064293
 20
-52.45632528052972
 30
0.0
 10
170.8572694522147
 20
-52.35721824006571
 30
0.0
 10
171.9566481621602
 20
-52.21103238348289
 30
0.0
 10
173.4307593574785
 20
-52.19288687964585
 30
0.0
 10
174.5633541571279
 20
-52.8309684569126
 30
0.0
 10
174.5633541571279
 20
-52.8309684569126
 30
0.0
 10
176.7428033091262
 20
-54.31121777194644
 30
0.0
 10
176.6846846650719
 20
-56.40348895786445
 30
0.0
 10
176.6846846650719
 20
-56.40348895786445
 30
0.0
 10
176.8299812752078
 20
-60.12308217727376
 30
0.0
 10
175.8419643263019
 20
-63.95891268478926
 30
0.0
 10
175.8419643263019
 20
-63.95891268478926
 30
0.0
 10
173.2556846659293
 20
-79.82530251133173
 30
0.0
 10
173.2556846659293
 20
-79.82530251133173
 30
0.0
 10
173.2556846659293
 20
-79.82530251133173
 30
0.0
 10
173.0824664877935
 20
-81.35277190036324
 30
0.0
 10
171.2311222109937
 20
-82.33491297657462
 30
0.0
 10
171.0290175566418
 20
-82.44212981637081
 30
0.0
 10
170.806914152523
 20
-82.54284780934129
 30
0.0
 10
170.5628541581293
 20
-82.63437030723926
 30
0.0
 10
170.5628541581293
 20
-82.63437030723926
 30
0.0
 10
162.8137016176941
 20
-130.4950736851043
 30
0.0
 10
162.8137016176941
 20
-130.4950736851043
 30
0.0
  0
SPLINE
  5
1B3
330
79
100
AcDbEntity
  8
レイヤー 1
 62
   250
420
  2299925
370
    25
100
AcDbSpline
210
0.0
220
0.0
230
1.0
 70
     8
 71
     3
 72
    26
 73
    22
 74
     0
 42
0.0000000001
 43
0.0000000001
 40
0.0
 40
0.0
 40
0.0
 40
0.0
 40
1.0
 40
1.0
 40
1.0
 40
2.0
 40
2.0
 40
2.0
 40
3.0
 40
3.0
 40
3.0
 40
4.0
 40
4.0
 40
4.0
 40
5.0
 40
5.0
 40
5.0
 40
6.0
 40
6.0
 40
6.0
 40
7.0
 40
7.0
 40
7.0
 40
7.0
 10
171.2311222109937
 20
-82.33491297657462
 30
0.0
 10
171.2311222109937
 20
-82.33491297657462
 30
0.0
 10
171.2796507681194
 20
-91.39091267793006
 30
0.0
 10
175.8129050042741
 20
-93.19259064358192
 30
0.0
 10
175.8129050042741
 20
-93.19259064358192
 30
0.0
 10
176.6921896552659
 20
-93.19259064358192
 30
0.0
 10
176.6921896552659
 20
-93.19259064358192
 30
0.0
 10
176.6921896552659
 20
-93.19259064358192
 30
0.0
 10
177.8470575461396
 20
-95.34298047355305
 30
0.0
 10
180.5786338166424
 20
-95.51733640571233
 30
0.0
 10
183.3102100871458
 20
-95.69169233787228
 30
0.0
 10
183.0002439855292
 20
-95.61420081246879
 30
0.0
 10
183.0002439855292
 20
-95.61420081246879
 30
0.0
 10
183.0002439855292
 20
-95.61420081246879
 30
0.0
 10
185.4896592391428
 20
-94.61649742288672
 30
0.0
 10
187.523811781007
 20
-95.37203979557959
 30
0.0
 10
187.523811781007
 20
-95.37203979557959
 30
0.0
 10
189.8776168651634
 20
-96.67970928677819
 30
0.0
 10
189.2964304246324
 20
-99.67281945552118
 30
0.0
 10
189.2964304246324
 20
-99.67281945552118
 30
0.0
 10
188.5778613371483
 20
-103.2330035924735
 30
0.0
 10
188.5778613371483
 20
-103.2330035924735
 30
0.0
  0
SPLINE
  5
1B4
330
79
100
AcDbEntity
  8
レイヤー 1
 62
   250
420
  2299925
370
    25
100
AcDbSpline
210
0.0
220
0.0
230
1.0
 70
     8
 71
     3
 72
    26
 73
    22
 74
     0
 42
0.0000000001
 43
0.0000000001
 40
0.0
 40
0.0
 40
0.0
 40
0.0
 40
1.0
 40
1.0
 40
1.0
 40
2.0
 40
2.0
 40
2.0
 40
3.0
 40
3.0
 40
3.0
 40
4.0
 40
4.0
 40
4.0
 40
5.0
 40
5.0
 40
5.0
 40
6.0
 40
6.0
 40
6.0
 40
7.0
 40
7.0
 40
7.0
 40
7.0
 10
189.2964304246324
 20
-99.67281945552118
 30
0.0
 10
189.2964304246324
 20
-99.67281945552118
 30
0.0
 10
222.404684653642
 20
-106.1635704868469
 30
0.0
 10
222.404684653642
 20
-106.1635704868469
 30
0.0
 10
222.404684653642
 20
-106.1635704868469
 30
0.0
 10
220.3124134677246
 20
-118.8229126710734
 30
0.0
 10
220.3124134677246
 20
-118.8229126710734
 30
0.0
 10
220.3124134677246
 20
-118.8229126710734
 30
0.0
 10
181.334176189334
 20
-117.2730821629856
 30
0.0
 10
181.334176189334
 20
-117.2730821629856
 30
0.0
 10
181.334176189334
 20
-117.2730821629856
 30
0.0
 10
175.5223117840079
 20
-116.4109889428633
 30
0.0
 10
176.4522100888588
 20
-109.2478660632976
 30
0.0
 10
177.3821083937116
 20
-102.0847431837319
 30
0.0
 10
184.3563456801035
 20
-102.8402855564241
 30
0.0
 10
184.3563456801035
 20
-102.8402855564241
 30
0.0
 10
184.3563456801035
 20
-102.8402855564241
 30
0.0
 10
220.0799388915109
 20
-106.1635704868469
 30
0.0
 10
220.0799388915109
 20
-106.1635704868469
 30
0.0
 10
220.0799388915109
 20
-106.1635704868469
 30
0.0
 10
222.404684653642
 20
-106.2791587168205
 30
0.0
 10
222.404684653642
 20
-106.2791587168205
 30
0.0
  0
ELLIPSE
  5
1B5
330
79
100
AcDbEntity
  8
レイヤー 1
 62
   250
420
  2299925
370
    25
100
AcDbEllipse
 10
184.5016422902363
 20
-110.3375906392952
 30
0.0
 11
0.0000000000000001
 21
1.336728813225147
 31
0.0
210
0.0
220
0.0
230
1.0
 40
0.5869565217388799
 41
0.0
 42
6.283185307179586
  0
ELLIPSE
  5
1B6
330
79
100
AcDbEntity
  8
レイヤー 1
 62
   250
420
  2299925
370
    25
100
AcDbEllipse
 10
184.5016422902363
 20
-110.2794719952425
 30
0.0
 11
0.0000000000000002
 21
2.557220338343614
 31
0.0
210
0.0
220
0.0
230
1.0
 40
0.6249999999999921
 41
0.0
 42
6.283185307179586
  0
ELLIPSE
  5
1B7
330
79
100
AcDbEntity
  8
レイヤー 1
 62
   250
420
  2299925
370
    25
100
AcDbEllipse
 10
180.0555660201619
 20
-109.9961436054829
 30
0.0
 11
0.0
 21
0.7482775421859071
 31
0.0
210
0.0
220
0.0
230
1.0
 40
0.7766990291255976
 41
0.0
 42
6.283185307179586
  0
ELLIPSE
  5
1B8
330
79
100
AcDbEntity
  8
レイヤー 1
 62
   250
420
  2299925
370
    25
100
AcDbEllipse
 10
180.0265066981352
 20
-109.9307601309228
 30
0.0
 11
0.0000000000000001
 21
1.394847457278247
 31
0.0
210
0.0
220
0.0
230
1.0
 40
0.8125000000004025
 41
0.0
 42
6.283185307179586
  0
SPLINE
  5
1B9
330
79
100
AcDbEntity
  8
レイヤー 1
 62
   250
420
  2299925
370
    25
100
AcDbSpline
210
0.0
220
0.0
230
1.0
 70
     8
 71
     3
 72
    11
 73
     7
 74
     0
 42
0.0000000001
 43
0.0000000001
 40
0.0
 40
0.0
 40
0.0
 40
0.0
 40
1.0
 40
1.0
 40
1.0
 40
2.0
 40
2.0
 40
2.0
 40
2.0
 10
184.5016422902363
 20
-107.7222516568986
 30
0.0
 10
184.5016422902363
 20
-107.7222516568986
 30
0.0
 10
181.4213541554142
 20
-107.8820779280459
 30
0.0
 10
181.4213541554142
 20
-107.8820779280459
 30
0.0
 10
181.4213541554142
 20
-107.8820779280459
 30
0.0
 10
181.1023170236751
 20
-108.0055800466575
 30
0.0
 10
180.8695347421847
 20
-109.00086182607
 30
0.0
  0
SPLINE
  5
1BA
330
79
100
AcDbEntity
  8
レイヤー 1
 62
   250
420
  2299925
370
    25
100
AcDbSpline
210
0.0
220
0.0
230
1.0
 70
     8
 71
     3
 72
    11
 73
     7
 74
     0
 42
0.0000000001
 43
0.0000000001
 40
0.0
 40
0.0
 40
0.0
 40
0.0
 40
1.0
 40
1.0
 40
1.0
 40
2.0
 40
2.0
 40
2.0
 40
2.0
 10
184.5016422902363
 20
-112.8366923335861
 30
0.0
 10
184.5016422902363
 20
-112.8366923335861
 30
0.0
 10
181.2760575452815
 20
-112.4008025031872
 30
0.0
 10
181.2760575452815
 20
-112.4008025031872
 30
0.0
 10
181.2760575452815
 20
-112.4008025031872
 30
0.0
 10
181.0112813629508
 20
-112.280594625485
 30
0.0
 10
180.7569256620096
 20
-110.9968785101191
 30
0.0
  0
SPLINE
  5
1BB
330
79
100
AcDbEntity
  8
レイヤー 1
 62
   250
420
  2299925
370
    25
100
AcDbSpline
210
0.0
220
0.0
230
1.0
 70
     8
 71
     3
 72
    14
 73
    10
 74
     0
 42
0.0000000001
 43
0.0000000001
 40
0.0
 40
0.0
 40
0.0
 40
0.0
 40
1.0
 40
1.0
 40
1.0
 40
2.0
 40
2.0
 40
2.0
 40
3.0
 40
3.0
 40
3.0
 40
3.0
 10
180.0265066981354
 20
-108.5359126736445
 30
0.0
 10
180.0265066981354
 20
-108.5359126736445
 30
0.0
 10
178.5079483010575
 20
-108.7127641031137
 30
0.0
 10
178.5079483010575
 20
-108.7127641031137
 30
0.0
 10
178.5079483010575
 20
-108.7127641031137
 30
0.0
 10
177.8034685630979
 20
-110.294001656256
 30
0.0
 10
178.5880702578173
 20
-111.1803109780683
 30
0.0
 10
178.5880702578173
 20
-111.1803109780683
 30
0.0
 10
180.0265066981354
 20
-111.325607588201
 30
0.0
 10
180.0265066981354
 20
-111.325607588201
 30
0.0
  0
SPLINE
  5
1BC
330
79
100
AcDbEntity
  8
レイヤー 1
 62
   250
420
  2299925
370
    25
100
AcDbSpline
210
0.0
220
0.0
230
1.0
 70
     8
 71
     3
 72
    26
 73
    22
 74
     0
 42
0.0000000001
 43
0.0000000001
 40
0.0
 40
0.0
 40
0.0
 40
0.0
 40
1.0
 40
1.0
 40
1.0
 40
2.0
 40
2.0
 40
2.0
 40
3.0
 40
3.0
 40
3.0
 40
4.0
 40
4.0
 40
4.0
 40
5.0
 40
5.0
 40
5.0
 40
6.0
 40
6.0
 40
6.0
 40
7.0
 40
7.0
 40
7.0
 40
7.0
 10
186.9706863251258
 20
-103.0834917428004
 30
0.0
 10
186.9706863251258
 20
-103.0834917428004
 30
0.0
 10
185.9836677135929
 20
-99.23692962512101
 30
0.0
 10
182.9033795787715
 20
-99.17881098106789
 30
0.0
 10
179.8230914439508
 20
-99.1206923370148
 30
0.0
 10
177.4983456818204
 20
-101.1311513619344
 30
0.0
 10
177.4983456818204
 20
-101.1311513619344
 30
0.0
 10
177.4983456818204
 20
-101.1311513619344
 30
0.0
 10
174.0112270386241
 20
-104.3513703018092
 30
0.0
 10
173.546277886198
 20
-109.00086182607
 30
0.0
 10
173.3203342815474
 20
-111.2602978725785
 30
0.0
 10
173.6845552210448
 20
-113.2315140254325
 30
0.0
 10
174.1187125477983
 20
-114.6610657979407
 30
0.0
 10
174.6635004217644
 20
-116.4548912682904
 30
0.0
 10
175.7714749660777
 20
-118.04620308764
 30
0.0
 10
177.343859061093
 20
-119.067090889231
 30
0.0
 10
178.0148751308405
 20
-119.5027555098848
 30
0.0
 10
179.1401973763211
 20
-119.656915213237
 30
0.0
 10
179.8521507659748
 20
-119.6365736878181
 30
0.0
 10
181.886303307841
 20
-119.5784550437643
 30
0.0
 10
183.42644737525
 20
-118.9391884738539
 30
0.0
 10
184.5016422902363
 20
-117.3990251491042
 30
0.0
  0
SPLINE
  5
1BD
330
79
100
AcDbEntity
  8
レイヤー 1
 62
   250
420
  2299925
370
    25
100
AcDbSpline
210
0.0
220
0.0
230
1.0
 70
     8
 71
     3
 72
    23
 73
    19
 74
     0
 42
0.0000000001
 43
0.0000000001
 40
0.0
 40
0.0
 40
0.0
 40
0.0
 40
1.0
 40
1.0
 40
1.0
 40
2.0
 40
2.0
 40
2.0
 40
3.0
 40
3.0
 40
3.0
 40
4.0
 40
4.0
 40
4.0
 40
5.0
 40
5.0
 40
5.0
 40
6.0
 40
6.0
 40
6.0
 40
6.0
 10
187.3633057509059
 20
-103.1200162383451
 30
0.0
 10
187.3633057509059
 20
-103.1200162383451
 30
0.0
 10
186.2742609338603
 20
-96.97030250704498
 30
0.0
 10
181.7410066977063
 20
-96.85406521893877
 30
0.0
 10
177.2077524615517
 20
-96.73782793083192
 30
0.0
 10
174.0693456826759
 20
-101.0967262348272
 30
0.0
 10
174.0693456826759
 20
-101.0967262348272
 30
0.0
 10
174.0693456826759
 20
-101.0967262348272
 30
0.0
 10
171.4731868741373
 20
-104.5262477734767
 30
0.0
 10
171.2311222109937
 20
-109.4079531041977
 30
0.0
 10
170.9890575478514
 20
-114.2896584349194
 30
0.0
 10
172.1514304289172
 20
-117.0212347054228
 30
0.0
 10
172.1514304289172
 20
-117.0212347054228
 30
0.0
 10
172.1514304289172
 20
-117.0212347054228
 30
0.0
 10
173.5462778861948
 20
-120.6827092807783
 30
0.0
 10
177.8470575461364
 20
-120.6245906367246
 30
0.0
 10
182.1478372060786
 20
-120.5664719926715
 30
0.0
 10
184.8288648190385
 20
-117.4120359852402
 30
0.0
 10
184.8288648190385
 20
-117.4120359852402
 30
0.0
  0
LINE
  5
1BE
330
79
100
AcDbEntity
  8
レイヤー 1
 62
   250
420
  2299925
370
    25
100
AcDbLine
 10
176.6921896552659
 20
-93.19259064358192
 30
0.0
 11
175.5489072324432
 21
-99.49251400987209
 31
0.0
  0
LINE
  5
1BF
330
79
100
AcDbEntity
  8
レイヤー 1
 62
   250
420
  2299925
370
    25
100
AcDbLine
 10
175.8129050042741
 20
-93.19259064358192
 30
0.0
 11
174.4993934468074
 21
-100.5660674669792
 31
0.0
  0
SPLINE
  5
1C0
330
79
100
AcDbEntity
  8
レイヤー 1
 62
   250
420
  2299925
370
    25
100
AcDbSpline
210
0.0
220
0.0
230
1.0
 70
     8
 71
     3
 72
    44
 73
    40
 74
     0
 42
0.0000000001
 43
0.0000000001
 40
0.0
 40
0.0
 40
0.0
 40
0.0
 40
1.0
 40
1.0
 40
1.0
 40
2.0
 40
2.0
 40
2.0
 40
3.0
 40
3.0
 40
3.0
 40
4.0
 40
4.0
 40
4.0
 40
5.0
 40
5.0
 40
5.0
 40
6.0
 40
6.0
 40
6.0
 40
7.0
 40
7.0
 40
7.0
 40
8.0
 40
8.0
 40
8.0
 40
9.0
 40
9.0
 40
9.0
 40
10.0
 40
10.0
 40
10.0
 40
11.0
 40
11.0
 40
11.0
 40
12.0
 40
12.0
 40
12.0
 40
13.0
 40
13.0
 40
13.0
 40
13.0
 10
186.099905001701
 20
-117.462574362284
 30
0.0
 10
186.099905001701
 20
-117.462574362284
 30
0.0
 10
184.898786357935
 20
-123.3174211445266
 30
0.0
 10
181.6441422909524
 20
-123.4724041953342
 30
0.0
 10
178.3894982239686
 20
-123.6273872461425
 30
0.0
 10
178.2173011894616
 20
-122.6199974158862
 30
0.0
 10
178.2173011894616
 20
-122.6199974158862
 30
0.0
 10
178.2173011894616
 20
-122.6199974158862
 30
0.0
 10
175.2123456823901
 20
-121.8775020857365
 30
0.0
 10
171.8802100900028
 20
-123.4886141572807
 30
0.0
 10
171.8802100900028
 20
-123.4886141572807
 30
0.0
 10
170.7275236496125
 20
-123.4886141572807
 30
0.0
 10
170.7275236496125
 20
-123.4886141572807
 30
0.0
 10
170.7275236496125
 20
-123.4886141572807
 30
0.0
 10
166.2233287354844
 20
-125.1675313135554
 30
0.0
 10
162.9396253464746
 20
-130.4950736851043
 30
0.0
 10
162.9396253464746
 20
-130.4950736851043
 30
0.0
 10
164.1310575495663
 20
-130.6016245325183
 30
0.0
 10
164.1310575495663
 20
-130.6016245325183
 30
0.0
 10
164.1310575495663
 20
-130.6016245325183
 30
0.0
 10
164.3635321257794
 20
-134.282471989232
 30
0.0
 10
164.3635321257794
 20
-134.282471989232
 30
0.0
 10
164.3635321257794
 20
-134.282471989232
 30
0.0
 10
160.7601761944776
 20
-152.6479635100738
 30
0.0
 10
160.7601761944776
 20
-152.6479635100738
 30
0.0
 10
160.7601761944776
 20
-152.6479635100738
 30
0.0
 10
158.5516677204527
 20
-158.9247770678259
 30
0.0
 10
155.7619728058962
 20
-158.6923024916135
 30
0.0
 10
155.7619728058962
 20
-158.6923024916135
 30
0.0
 10
151.8873965356806
 20
-158.6535567289121
 30
0.0
 10
149.3689219600373
 20
-157.142471983527
 30
0.0
 10
149.3689219600373
 20
-157.142471983527
 30
0.0
 10
146.5017355200766
 20
-157.0649804581222
 30
0.0
 10
146.5017355200766
 20
-157.0649804581222
 30
0.0
 10
146.5017355200766
 20
-157.0649804581222
 30
0.0
 10
143.247091453094
 20
-157.2587092716338
 30
0.0
 10
140.7673626401541
 20
-159.3509804575506
 30
0.0
 10
140.7673626401541
 20
-159.3509804575506
 30
0.0
 10
139.0016029012284
 20
-159.3509804575506
 30
0.0
 10
139.0016029012284
 20
-159.3509804575506
 30
0.0
  0
ELLIPSE
  5
1C1
330
79
100
AcDbEntity
  8
レイヤー 1
 62
   250
420
  2299925
370
    25
100
AcDbEllipse
 10
157.1761931445263
 20
-144.9956753763943
 30
0.0
 11
0.0000000000000001
 21
1.220491525117824
 31
0.0
210
0.0
220
0.0
230
1.0
 40
0.6507936507939056
 41
0.0
 42
6.283185307179586
  0
ELLIPSE
  5
1C2
330
79
100
AcDbEntity
  8
レイヤー 1
 62
   250
420
  2299925
370
    25
100
AcDbEllipse
 10
156.9521193444666
 20
-145.0731669017989
 30
0.0
 11
0.0000000000000001
 21
2.421610168886541
 31
0.0
210
0.0
220
0.0
230
1.0
 40
0.5519999999999078
 41
0.0
 42
6.283185307179586
  0
LWPOLYLINE
  5
1C3
330
79
100
AcDbEntity
  8
レイヤー 1
 62
   250
420
  2299925
370
    25
100
AcDbPolyline
 90
        1
 70
     0
 43
0.0
 10
148.8382068950258
 20
-124.9134923596113
  0
LWPOLYLINE
  5
1C4
330
79
100
AcDbEntity
  8
レイヤー 1
 62
   250
420
  2299925
370
    25
100
AcDbPolyline
 90
        1
 70
     0
 43
0.0
 10
149.3689219600373
 20
-157.142471983527
  0
SPLINE
  5
1C5
330
79
100
AcDbEntity
  8
レイヤー 1
 62
   250
420
  2299925
370
    25
100
AcDbSpline
210
0.0
220
0.0
230
1.0
 70
     8
 71
     3
 72
    41
 73
    37
 74
     0
 42
0.0000000001
 43
0.0000000001
 40
0.0
 40
0.0
 40
0.0
 40
0.0
 40
1.0
 40
1.0
 40
1.0
 40
2.0
 40
2.0
 40
2.0
 40
3.0
 40
3.0
 40
3.0
 40
4.0
 40
4.0
 40
4.0
 40
5.0
 40
5.0
 40
5.0
 40
6.0
 40
6.0
 40
6.0
 40
7.0
 40
7.0
 40
7.0
 40
8.0
 40
8.0
 40
8.0
 40
9.0
 40
9.0
 40
9.0
 40
10.0
 40
10.0
 40
10.0
 40
11.0
 40
11.0
 40
11.0
 40
12.0
 40
12.0
 40
12.0
 40
12.0
 10
147.8578937778095
 20
-157.101633384007
 30
0.0
 10
147.8578937778095
 20
-157.101633384007
 30
0.0
 10
147.8578937778095
 20
-153.5749365075982
 30
0.0
 10
147.8578937778095
 20
-153.5749365075982
 30
0.0
 10
147.8578937778095
 20
-153.5749365075982
 30
0.0
 10
145.1068880627977
 20
-152.7642007981838
 30
0.0
 10
145.1068880627977
 20
-152.7642007981838
 30
0.0
 10
145.1068880627977
 20
-152.7642007981838
 30
0.0
 10
144.2932270460524
 20
-151.5243363916965
 30
0.0
 10
144.9131592492868
 20
-148.5021669009347
 30
0.0
 10
144.9131592492868
 20
-148.5021669009347
 30
0.0
 10
159.6365490761119
 20
-58.6894889572928
 30
0.0
 10
159.6365490761119
 20
-58.6894889572928
 30
0.0
 10
159.6365490761119
 20
-58.6894889572928
 30
0.0
 10
160.1014982285379
 20
-56.75220082218498
 30
0.0
 10
162.2712609398595
 20
-57.13965844920629
 30
0.0
 10
162.2712609398595
 20
-57.13965844920629
 30
0.0
 10
166.6010999218308
 20
-58.26328556756815
 30
0.0
 10
166.6010999218308
 20
-58.26328556756815
 30
0.0
 10
166.6010999218308
 20
-58.26328556756815
 30
0.0
 10
171.8317778866245
 20
-57.08842438282283
 30
0.0
 10
171.8317778866245
 20
-57.08842438282283
 30
0.0
 10
171.8317778866245
 20
-57.08842438282283
 30
0.0
 10
174.127464326729
 20
-57.44962455082218
 30
0.0
 10
173.8368711064635
 20
-60.64614997375166
 30
0.0
 10
173.8368711064635
 20
-60.64614997375166
 30
0.0
 10
172.5001422932384
 20
-73.1997770892578
 30
0.0
 10
172.5001422932384
 20
-73.1997770892578
 30
0.0
 10
172.5001422932384
 20
-73.1997770892578
 30
0.0
 10
170.5628541581293
 20
-82.63437030723926
 30
0.0
 10
170.5628541581293
 20
-82.63437030723926
 30
0.0
 10
170.1366507684078
 20
-87.12887878069118
 30
0.0
 10
163.0849219566073
 20
-91.44903132197802
 30
0.0
 10
163.0849219566073
 20
-91.44903132197802
 30
0.0
 10
163.0849219566073
 20
-91.44903132197802
 30
0.0
 10
161.4603986397143
 20
-99.39020803918049
 30
0.0
 10
159.0553626355815
 20
-100.7345278237738
 30
0.0
  0
SPLINE
  5
1C6
330
79
100
AcDbEntity
  8
レイヤー 1
 62
   250
420
  2299925
370
    25
100
AcDbSpline
210
0.0
220
0.0
230
1.0
 70
     8
 71
     3
 72
    11
 73
     7
 74
     0
 42
0.0000000001
 43
0.0000000001
 40
0.0
 40
0.0
 40
0.0
 40
0.0
 40
1.0
 40
1.0
 40
1.0
 40
2.0
 40
2.0
 40
2.0
 40
2.0
 10
162.9396253464746
 20
-130.4950736851043
 30
0.0
 10
162.9396253464746
 20
-130.4950736851043
 30
0.0
 10
161.9806677195939
 20
-123.3530498173208
 30
0.0
 10
158.4354304323459
 20
-119.3444219225983
 30
0.0
 10
158.4354304323459
 20
-119.3444219225983
 30
0.0
 10
160.0240067031344
 20
-113.6603447434501
 30
0.0
 10
158.280447381537
 20
-111.7324380965734
 30
0.0
  0
LINE
  5
1C7
330
79
100
AcDbEntity
  8
レイヤー 1
 62
   250
420
  2299925
370
    25
100
AcDbLine
 10
158.8035151780181
 20
-49.25844795596074
 30
0.0
 11
156.9824643310145
 21
-60.47179404159685
 31
0.0
  0
LWPOLYLINE
  5
1C8
330
79
100
AcDbEntity
  8
レイヤー 1
 62
   250
420
  2299925
370
    25
100
AcDbPolyline
 90
        4
 70
     0
 43
0.0
 10
155.4718612318499
 20
-60.47179404159685
 10
157.8929897545156
 20
-60.47179404159685
 10
156.3431592464279
 20
-70.06137031038592
 10
153.9989870831122
 20
-69.82583688094774
  0
LWPOLYLINE
  5
1C9
330
79
100
AcDbEntity
  8
レイヤー 1
 62
   250
420
  2299925
370
    25
100
AcDbPolyline
 90
        3
 70
     0
 43
0.0
 10
152.0278499254736
 20
-80.85198516521824
 10
153.5534643318682
 20
-80.85198516521824
 10
155.290135793927
 20
-69.95556655205821
  0
LINE
  5
1CA
330
79
100
AcDbEntity
  8
レイヤー 1
 62
   250
420
  2299925
370
    25
100
AcDbLine
 10
156.1557821972931
 20
-79.92216691808626
 30
0.0
 11
153.5534643318682
 21
-80.85198516521824
 31
0.0
  0
LWPOLYLINE
  5
1CB
330
79
100
AcDbEntity
  8
レイヤー 1
 62
   250
420
  2299925
370
    25
100
AcDbPolyline
 90
        4
 70
     0
 43
0.0
 10
156.9824643310145
 20
-75.40377585863854
 10
155.290135793927
 20
-75.40377585863854
 10
155.290135793927
 20
-75.93135335976505
 10
156.810013928166
 20
-75.93135335976505
  0
LWPOLYLINE
  5
1CC
330
79
100
AcDbEntity
  8
レイヤー 1
 62
   250
420
  2299925
370
    25
100
AcDbPolyline
 90
        4
 70
     0
 43
0.0
 10
157.647748647224
 20
-70.82117157350779
 10
156.1363000624704
 20
-70.82117157350779
 10
156.1363000624704
 20
-71.2140567507724
 10
157.583341241115
 20
-71.2140567507724
  0
LWPOLYLINE
  5
1CD
330
79
100
AcDbEntity
  8
レイヤー 1
 62
   250
420
  2299925
370
    25
100
AcDbPolyline
 90
        4
 70
     0
 43
0.0
 10
159.4577770801834
 20
-59.77999813245379
 10
158.2029558561283
 20
-59.15443810971953
 10
158.2029558561283
 20
-59.77999813245379
 10
159.4577770801834
 20
-60.47179404159685
  0
LWPOLYLINE
  5
1CE
330
79
100
AcDbEntity
  8
レイヤー 1
 62
   250
420
  2299925
370
    25
100
AcDbPolyline
 90
        4
 70
     0
 43
0.0
 10
161.2189836895109
 20
-57.13965844920629
 10
158.8035151780181
 20
-55.76418387328036
 10
158.8303664681559
 20
-54.86512099877879
 10
162.7943287363374
 20
-57.08842438282283
  0
LWPOLYLINE
  5
1CF
330
79
100
AcDbEntity
  8
レイヤー 1
 62
   250
420
  2299925
370
    25
100
AcDbPolyline
 90
        4
 70
     1
 43
0.0
 10
163.0849219566016
 20
-61.16921777023405
 10
163.0849219566016
 20
-62.15723471913931
 10
166.3976846676372
 20
-62.44782793940609
 10
166.3976846676372
 20
-61.57604827860703
  0
LWPOLYLINE
  5
1D0
330
79
100
AcDbEntity
  8
レイヤー 1
 62
   250
420
  2299925
370
    25
100
AcDbPolyline
 90
        4
 70
     1
 43
0.0
 10
164.7413033121194
 20
-71.9792855641408
 10
161.5157185671627
 20
-70.82117157350779
 10
161.5157185671627
 20
-71.74681098792774
 10
164.4797694138798
 20
-72.56047200467435
  0
SPLINE
  5
1D1
330
79
100
AcDbEntity
  8
レイヤー 1
 62
   250
420
  2299925
370
    25
100
AcDbSpline
210
0.0
220
0.0
230
1.0
 70
     8
 71
     3
 72
    20
 73
    16
 74
     0
 42
0.0000000001
 43
0.0000000001
 40
0.0
 40
0.0
 40
0.0
 40
0.0
 40
1.0
 40
1.0
 40
1.0
 40
2.0
 40
2.0
 40
2.0
 40
3.0
 40
3.0
 40
3.0
 40
4.0
 40
4.0
 40
4.0
 40
5.0
 40
5.0
 40
5.0
 40
5.0
 10
170.8728202597388
 20
-65.75318921910557
 30
0.0
 10
171.3377694121648
 20
-62.64384176225831
 30
0.0
 10
170.5822270394726
 20
-62.12817539711276
 30
0.0
 10
170.5822270394726
 20
-62.12817539711276
 30
0.0
 10
169.1873795821944
 20
-61.34357370239399
 30
0.0
 10
167.9668880570754
 20
-61.80852285481943
 30
0.0
 10
167.9668880570754
 20
-61.80852285481943
 30
0.0
 10
167.9668880570754
 20
-61.80852285481943
 30
0.0
 10
167.7925321249155
 20
-62.44782793940609
 30
0.0
 10
167.7925321249155
 20
-62.44782793940609
 30
0.0
 10
167.7925321249155
 20
-62.44782793940609
 30
0.0
 10
170.2335151751527
 20
-62.73842115967223
 30
0.0
 10
170.2335151751527
 20
-62.73842115967223
 30
0.0
 10
170.2335151751527
 20
-62.73842115967223
 30
0.0
 10
170.2335151751527
 20
-65.26658217599106
 30
0.0
 10
170.2335151751527
 20
-65.26658217599106
 30
0.0
  0
ELLIPSE
  5
1D2
330
79
100
AcDbEntity
  8
レイヤー 1
 62
   250
420
  2299925
370
    25
100
AcDbEllipse
 10
169.9719812769135
 20
-67.91098048041273
 30
0.0
 11
0.0000000000000001
 21
1.394847457278407
 31
0.0
210
0.0
220
0.0
230
1.0
 40
0.6458333333335467
 41
0.0
 42
6.283185307179586
  0
ELLIPSE
  5
1D3
330
79
100
AcDbEntity
  8
レイヤー 1
 62
   250
420
  2299925
370
    25
100
AcDbEllipse
 10
169.9719812769138
 20
-67.91098048041273
 30
0.0
 11
0.0000000000000002
 21
2.591122880706639
 31
0.0
210
0.0
220
0.0
230
1.0
 40
0.628037383177865
 41
0.0
 42
6.283185307179586
  0
SPLINE
  5
1D4
330
79
100
AcDbEntity
  8
レイヤー 1
 62
   250
420
  2299925
370
    25
100
AcDbSpline
210
0.0
220
0.0
230
1.0
 70
     8
 71
     3
 72
    14
 73
    10
 74
     0
 42
0.0000000001
 43
0.0000000001
 40
0.0
 40
0.0
 40
0.0
 40
0.0
 40
1.0
 40
1.0
 40
1.0
 40
2.0
 40
2.0
 40
2.0
 40
3.0
 40
3.0
 40
3.0
 40
3.0
 10
169.9719812769138
 20
-70.50210336111937
 30
0.0
 10
169.9719812769138
 20
-70.50210336111937
 30
0.0
 10
166.9648441270963
 20
-70.44882793740402
 30
0.0
 10
166.9648441270963
 20
-70.44882793740402
 30
0.0
 10
166.9648441270963
 20
-70.44882793740402
 30
0.0
 10
165.0656664208661
 20
-67.87141172219596
 30
0.0
 10
167.32758297249
 20
-65.26658217599106
 30
0.0
 10
167.32758297249
 20
-65.26658217599106
 30
0.0
 10
170.2335151751527
 20
-65.26658217599106
 30
0.0
 10
170.2335151751527
 20
-65.26658217599106
 30
0.0
  0
SPLINE
  5
1D5
330
79
100
AcDbEntity
  8
レイヤー 1
 62
   250
420
  2299925
370
    25
100
AcDbSpline
210
0.0
220
0.0
230
1.0
 70
     8
 71
     3
 72
    26
 73
    22
 74
     0
 42
0.0000000001
 43
0.0000000001
 40
0.0
 40
0.0
 40
0.0
 40
0.0
 40
1.0
 40
1.0
 40
1.0
 40
2.0
 40
2.0
 40
2.0
 40
3.0
 40
3.0
 40
3.0
 40
4.0
 40
4.0
 40
4.0
 40
5.0
 40
5.0
 40
5.0
 40
6.0
 40
6.0
 40
6.0
 40
7.0
 40
7.0
 40
7.0
 40
7.0
 10
169.4082907603686
 20
-70.44882793740402
 30
0.0
 10
169.4082907603686
 20
-70.44882793740402
 30
0.0
 10
169.0711422940875
 20
-72.32799742846068
 30
0.0
 10
169.0711422940875
 20
-72.32799742846068
 30
0.0
 10
168.7224304297677
 20
-73.66472624168581
 30
0.0
 10
167.4438202605962
 20
-73.49037030952587
 30
0.0
 10
167.4438202605962
 20
-73.49037030952587
 30
0.0
 10
167.4438202605962
 20
-73.49037030952587
 30
0.0
 10
166.2187861580166
 20
-72.56047200467435
 30
0.0
 10
166.2187861580166
 20
-72.56047200467435
 30
0.0
 10
166.2187861580166
 20
-72.56047200467435
 30
0.0
 10
165.5840236508913
 20
-73.02542115710044
 30
0.0
 10
165.5840236508913
 20
-73.02542115710044
 30
0.0
 10
165.5840236508913
 20
-73.02542115710044
 30
0.0
 10
167.2113456843838
 20
-74.187794038165
 30
0.0
 10
167.2113456843838
 20
-74.187794038165
 30
0.0
 10
167.2113456843838
 20
-74.187794038165
 30
0.0
 10
169.5360914465136
 20
-74.30403132627183
 30
0.0
 10
169.7104473786729
 20
-73.19977708925974
 30
0.0
 10
169.7104473786729
 20
-73.19977708925974
 30
0.0
 10
170.3014895844217
 20
-70.44882793740402
 30
0.0
 10
170.3014895844217
 20
-70.44882793740402
 30
0.0
  0
SPLINE
  5
1D6
330
79
100
AcDbEntity
  8
レイヤー 1
 62
   250
420
  2299925
370
    25
100
AcDbSpline
210
0.0
220
0.0
230
1.0
 70
     8
 71
     3
 72
    14
 73
    10
 74
     0
 42
0.0000000001
 43
0.0000000001
 40
0.0
 40
0.0
 40
0.0
 40
0.0
 40
1.0
 40
1.0
 40
1.0
 40
2.0
 40
2.0
 40
2.0
 40
3.0
 40
3.0
 40
3.0
 40
3.0
 10
148.8401530013321
 20
-100.3702431841545
 30
0.0
 10
148.8448094925826
 20
-100.3404302828546
 30
0.0
 10
151.0349897562313
 20
-100.3702431841545
 30
0.0
 10
151.0349897562313
 20
-100.3702431841545
 30
0.0
 10
151.0349897562313
 20
-100.3702431841545
 30
0.0
 10
149.5626507735489
 20
-109.9307601309228
 30
0.0
 10
149.5626507735489
 20
-109.9307601309228
 30
0.0
 10
149.5626507735489
 20
-109.9307601309228
 30
0.0
 10
147.4285487852492
 20
-109.4079531041977
 30
0.0
 10
147.4285487852492
 20
-109.4079531041977
 30
0.0
  0
LWPOLYLINE
  5
1D7
330
79
100
AcDbEntity
  8
レイヤー 1
 62
   250
420
  2299925
370
    25
100
AcDbPolyline
 90
        3
 70
     0
 43
0.0
 10
150.5897573824565
 20
-89.87676082053189
 10
152.0278499254736
 20
-89.87676082053189
 10
154.2661322950164
 20
-91.44903132197802
  0
LWPOLYLINE
  5
1D8
330
79
100
AcDbEntity
  8
レイヤー 1
 62
   250
420
  2299925
370
    25
100
AcDbPolyline
 90
        3
 70
     0
 43
0.0
 10
145.5718372152245
 20
-120.3484490680857
 10
147.4285487852492
 20
-120.6252752757207
 10
149.6134367355503
 20
-119.830474234728
  0
LINE
  5
1D9
330
79
100
AcDbEntity
  8
レイヤー 1
 62
   250
420
  2299925
370
    25
100
AcDbLine
 10
152.0278499254736
 20
-89.87676082053189
 30
0.0
 11
150.418867552996
 21
-100.3569930057984
 31
0.0
  0
LINE
  5
1DA
330
79
100
AcDbEntity
  8
レイヤー 1
 62
   250
420
  2299925
370
    25
100
AcDbLine
 10
148.9427185703139
 20
-109.84358216484
 30
0.0
 11
147.4285487852492
 21
-120.6252752757207
 31
0.0
  0
LWPOLYLINE
  5
1DB
330
79
100
AcDbEntity
  8
レイヤー 1
 62
   250
420
  2299925
370
    25
100
AcDbPolyline
 90
        4
 70
     0
 43
0.0
 10
153.627863091605
 20
-95.34247346278679
 10
152.2942270440503
 20
-94.70367538896637
 10
152.1615558556348
 20
-95.53155701080774
 10
153.4897304296861
 20
-96.1850827004943
  0
LWPOLYLINE
  5
1DC
330
79
100
AcDbEntity
  8
レイヤー 1
 62
   250
420
  2299925
370
    25
100
AcDbPolyline
 90
        4
 70
     0
 43
0.0
 10
152.8947094736199
 20
-99.74062454024915
 10
151.5580575527092
 20
-99.00445504890861
 10
151.3837016205486
 20
-100.0505906418669
 10
152.7318736667518
 20
-100.8080089543925
  0
LWPOLYLINE
  5
1DD
330
79
100
AcDbEntity
  8
レイヤー 1
 62
   250
420
  2299925
370
    25
100
AcDbPolyline
 90
        4
 70
     0
 43
0.0
 10
151.1856429351001
 20
-110.2400164174677
 10
149.4076677227354
 20
-110.3569635206468
 10
149.3108033159809
 20
-111.2965482661707
 10
151.0124409926899
 20
-111.2965482661707
  0
LWPOLYLINE
  5
1DE
330
79
100
AcDbEntity
  8
レイヤー 1
 62
   250
420
  2299925
370
    25
100
AcDbPolyline
 90
        4
 70
     0
 43
0.0
 10
150.464318718973
 20
-114.6400941358434
 10
148.9427185703139
 20
-114.8514719941013
 10
148.8652270449021
 20
-115.7619974176031
 10
150.3009598503185
 20
-115.6365832346408
  0
LWPOLYLINE
  5
1DF
330
79
100
AcDbEntity
  8
レイヤー 1
 62
   250
420
  2299925
370
    25
100
AcDbPolyline
 90
        4
 70
     0
 43
0.0
 10
147.2337982242154
 20
-134.3462691538702
 10
145.8043117914368
 20
-133.7400313114133
 10
145.5718372152245
 20
-134.6118109722124
 10
147.0781966202724
 20
-135.295438937921
  0
LWPOLYLINE
  5
1E0
330
79
100
AcDbEntity
  8
レイヤー 1
 62
   250
420
  2299925
370
    25
100
AcDbPolyline
 90
        4
 70
     0
 43
0.0
 10
146.5681411330598
 20
-138.4067774099166
 10
144.8550406052343
 20
-138.4067774099166
 10
144.8550406052343
 20
-139.164438089718
 10
146.4279553134746
 20
-139.2619109093924
  0
LWPOLYLINE
  5
1E1
330
79
100
AcDbEntity
  8
レイヤー 1
 62
   250
420
  2299925
370
    25
100
AcDbPolyline
 90
        5
 70
     0
 43
0.0
 10
142.2983388687336
 20
-139.6487601234836
 10
144.4288372155103
 20
-139.6487601234836
 10
143.3635880421213
 20
-149.1802177483543
 10
142.2309242639191
 20
-148.9283702906639
 10
140.9063214941095
 20
-148.5021669009347
  0
LINE
  5
1E2
330
79
100
AcDbEntity
  8
レイヤー 1
 62
   250
420
  2299925
370
    25
100
AcDbLine
 10
140.7673626401541
 20
-159.3509804575506
 30
0.0
 11
142.3664679323068
 21
-148.9585083854324
 31
0.0
  0
LINE
  5
1E3
330
79
100
AcDbEntity
  8
レイヤー 1
 62
   250
420
  2299925
370
    25
100
AcDbLine
 10
143.8404008534084
 20
-139.6487601234836
 30
0.0
 11
145.6105829779195
 21
-129.361760126049
 31
0.0
  0
LWPOLYLINE
  5
1E4
330
79
100
AcDbEntity
  8
レイヤー 1
 62
   250
420
  2299925
370
    25
100
AcDbPolyline
 90
        4
 70
     0
 43
0.0
 10
144.7928350000298
 20
-149.1802177483543
 10
143.1695999276886
 20
-149.5870482566028
 10
143.1695999276886
 20
-150.2263533411875
 10
144.7101785107043
 20
-149.8962685295622
  0
LWPOLYLINE
  5
1E5
330
79
100
AcDbEntity
  8
レイヤー 1
 62
   250
420
  2299925
370
    25
100
AcDbPolyline
 90
        4
 70
     0
 43
0.0
 10
145.1068880627977
 20
-152.7642007981838
 10
142.5690406058047
 20
-153.8297092724907
 10
142.8596338260715
 20
-154.4883872384277
 10
146.0412732649254
 20
-153.0395689828369
  0
LWPOLYLINE
  5
1E6
330
79
100
AcDbEntity
  8
レイヤー 1
 62
   250
420
  2299925
370
    25
100
AcDbPolyline
 90
        4
 70
     1
 43
0.0
 10
148.5552609432907
 20
-148.6087177483718
 10
148.3809050111313
 20
-149.7032855447713
 10
151.7711592475724
 20
-149.7032855447713
 10
151.7711592475724
 20
-148.9585083854324
  0
LWPOLYLINE
  5
1E7
330
79
100
AcDbEntity
  8
レイヤー 1
 62
   250
420
  2299925
370
    25
100
AcDbPolyline
 90
        8
 70
     1
 43
0.0
 10
153.0497694167439
 20
-149.1802177482587
 10
153.0497694167439
 20
-150.2263533411875
 10
154.5221083994269
 20
-150.2263533411875
 10
156.9521193444666
 20
-148.9585083854324
 10
157.2695148705177
 20
-147.4257349202774
 10
156.6305653540004
 20
-147.4212836156964
 10
156.3819050091318
 20
-148.5021669009347
 10
154.6383456875337
 20
-149.1802177483543
  0
SPLINE
  5
1E8
330
79
100
AcDbEntity
  8
レイヤー 1
 62
   250
420
  2299925
370
    25
100
AcDbSpline
210
0.0
220
0.0
230
1.0
 70
     8
 71
     3
 72
    35
 73
    31
 74
     0
 42
0.0000000001
 43
0.0000000001
 40
0.0
 40
0.0
 40
0.0
 40
0.0
 40
1.0
 40
1.0
 40
1.0
 40
2.0
 40
2.0
 40
2.0
 40
3.0
 40
3.0
 40
3.0
 40
4.0
 40
4.0
 40
4.0
 40
5.0
 40
5.0
 40
5.0
 40
6.0
 40
6.0
 40
6.0
 40
7.0
 40
7.0
 40
7.0
 40
8.0
 40
8.0
 40
8.0
 40
9.0
 40
9.0
 40
9.0
 40
10.0
 40
10.0
 40
10.0
 40
10.0
 10
157.7109457525418
 20
-143.0801198543502
 30
0.0
 10
157.7109457525418
 20
-143.0801198543502
 30
0.0
 10
157.9704812799211
 20
-139.2619109093924
 30
0.0
 10
157.9704812799211
 20
-139.2619109093924
 30
0.0
 10
157.9704812799211
 20
-139.2619109093924
 30
0.0
 10
156.9521193444666
 20
-137.7308448697268
 30
0.0
 10
156.9521193444666
 20
-137.7308448697268
 30
0.0
 10
156.9521193444666
 20
-137.7308448697268
 30
0.0
 10
154.6383456875331
 20
-138.621997411882
 30
0.0
 10
154.6383456875331
 20
-138.621997411882
 30
0.0
 10
154.6383456875331
 20
-138.621997411882
 30
0.0
 10
154.6383456875331
 20
-139.6487601234836
 30
0.0
 10
154.6383456875331
 20
-139.6487601234836
 30
0.0
 10
154.6383456875331
 20
-139.6487601234836
 30
0.0
 10
156.3819050091318
 20
-138.9319635134941
 30
0.0
 10
156.3819050091318
 20
-138.9319635134941
 30
0.0
 10
156.3819050091318
 20
-138.9319635134941
 30
0.0
 10
157.1761931445261
 20
-139.6487601234836
 30
0.0
 10
157.1761931445261
 20
-139.6487601234836
 30
0.0
 10
157.1761931445261
 20
-139.6487601234836
 30
0.0
 10
156.9521193444666
 20
-142.6515567329117
 30
0.0
 10
156.9521193444666
 20
-142.6515567329117
 30
0.0
 10
156.9521193444666
 20
-142.6515567329117
 30
0.0
 10
154.512421958752
 20
-142.3609635126462
 30
0.0
 10
154.512421958752
 20
-142.3609635126462
 30
0.0
 10
154.512421958752
 20
-142.3609635126462
 30
0.0
 10
152.5073287389143
 20
-144.191700800324
 30
0.0
 10
153.6987609420054
 20
-146.4583279184013
 30
0.0
 10
153.6987609420054
 20
-146.4583279184013
 30
0.0
 10
156.6305653540004
 20
-147.4212836156964
 30
0.0
 10
156.6305653540004
 20
-147.4212836156964
 30
0.0
  0
LWPOLYLINE
  5
1E9
330
79
100
AcDbEntity
  8
レイヤー 1
 62
   250
420
  2299925
370
    25
100
AcDbPolyline
 90
        4
 70
     1
 43
0.0
 10
149.6013965362496
 20
-139.3200295534456
 10
149.9432545137074
 20
-140.4038407357824
 10
153.2047524675528
 20
-139.833696635716
 10
153.2047524675528
 20
-139.2619109093924
  0
LWPOLYLINE
  5
1EA
330
79
100
AcDbEntity
  8
レイヤー 1
 62
   250
420
  2299925
370
    25
100
AcDbPolyline
 90
        4
 70
     1
 43
0.0
 10
155.9944473821093
 20
-100.7345278237738
 10
159.9077694150295
 20
-100.7345278237738
 10
159.9077694150295
 20
-101.5920650034843
 10
155.9944473821093
 20
-101.5920650034843
  0
LWPOLYLINE
  5
1EB
330
79
100
AcDbEntity
  8
レイヤー 1
 62
   250
420
  2299925
370
    25
100
AcDbPolyline
 90
        4
 70
     1
 43
0.0
 10
154.754582975638
 20
-111.325607588201
 10
154.754582975638
 20
-110.2400164174677
 10
158.280447381537
 20
-110.7828120028337
 10
158.280447381537
 20
-111.7324380965734
  0
LWPOLYLINE
  5
1EC
330
79
100
AcDbEntity
  8
レイヤー 1
 62
   250
420
  2299925
370
    25
100
AcDbPolyline
 90
        9
 70
     0
 43
0.0
 10
164.4797694138862
 20
-104.4965541099381
 10
164.789735515504
 20
-102.4722008107532
 10
164.4797694138862
 20
-101.1632964136287
 10
163.1624134820127
 20
-100.5660674669792
 10
161.1476338214995
 20
-100.7345278237738
 10
161.1476338214995
 20
-101.5920650034843
 10
163.1624134820121
 20
-101.4260652177942
 10
163.9373287360567
 20
-101.9685058956244
 10
163.7967324930863
 20
-104.1176008007339
  0
ELLIPSE
  5
1ED
330
79
100
AcDbEntity
  8
レイヤー 1
 62
   250
420
  2299925
370
    25
100
AcDbEllipse
 10
163.5111253463323
 20
-106.9085906401526
 30
0.0
 11
0.0000000000000001
 21
1.452966101331989
 31
0.0
210
0.0
220
0.0
230
1.0
 40
0.6666666666665932
 41
0.0
 42
6.283185307179586
  0
ELLIPSE
  5
1EE
330
79
100
AcDbEntity
  8
レイヤー 1
 62
   250
420
  2299925
370
    25
100
AcDbEllipse
 10
163.6079897530871
 20
-106.831099114748
 30
0.0
 11
0.0000000000000002
 21
2.731576270503876
 31
0.0
210
0.0
220
0.0
230
1.0
 40
0.6170212765957758
 41
0.0
 42
6.283185307179586
  0
LWPOLYLINE
  5
1EF
330
79
100
AcDbEntity
  8
レイヤー 1
 62
   250
420
  2299925
370
    25
100
AcDbPolyline
 90
        8
 70
     0
 43
0.0
 10
163.9373287360567
 20
-109.4079531041977
 10
163.6542623033697
 20
-110.9518405531266
 10
161.6900744993284
 20
-112.3911160625111
 10
159.2712630470405
 20
-111.7324380965734
 10
159.4428202626022
 20
-110.9862272570209
 10
161.4575999231154
 20
-111.3593326767968
 10
162.550753951465
 20
-110.5700652155056
 10
162.9396253464746
 20
-109.4079531041977
  0
LWPOLYLINE
  5
1F0
330
79
100
AcDbEntity
  8
レイヤー 1
 62
   250
420
  2299925
370
    25
100
AcDbPolyline
 90
        6
 70
     1
 43
0.0
 10
169.2842439889579
 20
-93.94813301627479
 10
169.2842439889579
 20
-93.19259064358192
 10
172.2289219543239
 20
-92.01084488116569
 10
174.8198833600826
 20
-94.33559064329674
 10
174.5924134791558
 20
-95.14925166004271
 10
172.0520636745199
 20
-93.01823471142261
  0
LWPOLYLINE
  5
1F1
330
79
100
AcDbEntity
  8
レイヤー 1
 62
   250
420
  2299925
370
    25
100
AcDbPolyline
 90
        6
 70
     1
 43
0.0
 10
168.8875395282201
 20
-99.04317199243067
 10
168.8875395282201
 20
-98.36318385700671
 10
171.5377496970496
 20
-97.29961267083254
 10
173.8696149622333
 20
-99.39188385674992
 10
173.6648920693985
 20
-100.1241787718219
 10
171.3785772452267
 20
-98.20626351806385
  0
LWPOLYLINE
  5
1F2
330
79
100
AcDbEntity
  8
レイヤー 1
 62
   250
420
  2299925
370
    25
100
AcDbPolyline
 90
        6
 70
     1
 43
0.0
 10
167.972895629677
 20
-103.8738514660892
 10
167.972895629677
 20
-103.3502606018127
 10
170.0135574596741
 20
-102.5313107884583
 10
171.8090937138643
 20
-104.1423596016147
 10
171.6514570863835
 20
-104.7062266862201
 10
169.8909946717703
 20
-103.2294319408265
  0
LWPOLYLINE
  5
1F3
330
79
100
AcDbEntity
  8
レイヤー 1
 62
   250
420
  2299925
370
    25
100
AcDbPolyline
 90
        6
 70
     1
 43
0.0
 10
171.1892583787191
 20
-111.0195083140086
 10
171.1892583786633
 20
-111.6478173511407
 10
168.7404641825775
 20
-112.6305571269455
 10
166.5858206777217
 20
-110.6972985509643
 10
166.7749846307606
 20
-110.0206580494553
 10
168.8875395281361
 20
-111.7928117441175
  0
LWPOLYLINE
  5
1F4
330
79
100
AcDbEntity
  8
レイヤー 1
 62
   250
420
  2299925
370
    25
100
AcDbPolyline
 90
        6
 70
     1
 43
0.0
 10
170.6252138359053
 20
-116.1419662426541
 10
170.6252138358463
 20
-116.8959370872124
 10
168.0539799299557
 20
-118.0752248181784
 10
165.791604249858
 20
-115.7553145270016
 10
165.9902264005487
 20
-114.9433459251897
 10
168.2084090427928
 20
-117.0699303587838
  0
LWPOLYLINE
  5
1F5
330
79
100
AcDbEntity
  8
レイヤー 1
 62
   250
420
  2299925
370
    25
100
AcDbPolyline
 90
        6
 70
     1
 43
0.0
 10
169.8587916035455
 20
-121.586633933887
 10
169.8587916034871
 20
-122.3406047784452
 10
167.2875576975959
 20
-123.5198925094112
 10
165.0251820174982
 20
-121.1999822182338
 10
165.2238041681895
 20
-120.3880136164226
 10
167.4419868104336
 20
-122.5145980500167
  0
SPLINE
  5
1F6
330
79
100
AcDbEntity
  8
レイヤー 1
 62
   250
420
  2299925
370
    25
100
AcDbSpline
210
0.0
220
0.0
230
1.0
 70
     8
 71
     3
 72
     8
 73
     4
 74
     0
 42
0.0000000001
 43
0.0000000001
 40
0.0
 40
0.0
 40
0.0
 40
0.0
 40
1.0
 40
1.0
 40
1.0
 40
1.0
 10
171.8090937138643
 20
-123.2399296191212
 30
0.0
 10
171.8027185645986
 20
-123.0655736869612
 30
0.0
 10
172.4934878384601
 20
-117.6880153002469
 30
0.0
 10
172.4934878384601
 20
-117.6880153002469
 30
0.0
  0
LINE
  5
1F7
330
79
100
AcDbEntity
  8
レイヤー 1
 62
   250
420
  2299925
370
    25
100
AcDbLine
 10
170.7275236496125
 20
-123.4886141572807
 30
0.0
 11
171.8090937138643
 21
-115.9470424844943
 31
0.0
  0
LINE
  5
1F8
330
79
100
AcDbEntity
  8
レイヤー 1
 62
   250
420
  2299925
370
    25
100
AcDbLine
 10
94.83910417705908
 20
-72.69168670913775
 30
0.0
 11
94.06903214335294
 21
-76.74250234304432
 31
0.0
  0
LINE
  5
1F9
330
79
100
AcDbEntity
  8
レイヤー 1
 62
   250
420
  2299925
370
    25
100
AcDbLine
 10
107.896791021564
 20
-74.91156053837929
 30
0.0
 11
106.8992758501928
 21
-79.24292323936501
 31
0.0
  0
ELLIPSE
  5
1FA
330
79
100
AcDbEntity
  8
レイヤー 1
 62
   250
420
  2299925
370
    25
100
AcDbEllipse
 10
97.26555756628371
 20
-53.41037878912082
 30
0.0
 11
0.0000000000000001
 21
1.365788135251697
 31
0.0
210
0.0
220
0.0
230
1.0
 40
0.6595744680851264
 41
0.0
 42
6.283185307179586
  0
ELLIPSE
  5
1FB
330
79
100
AcDbEntity
  8
レイヤー 1
 62
   250
420
  2299925
370
    25
100
AcDbEllipse
 10
99.04062600080074
 20
-53.41037878912082
 30
0.0
 11
0.0000000000000001
 21
1.365788135251697
 31
0.0
210
0.0
220
0.0
230
1.0
 40
0.6400915552911154
 41
0.0
 42
6.283185307179586
  0
ELLIPSE
  5
1FC
330
79
100
AcDbEntity
  8
レイヤー 1
 62
   250
420
  2299925
370
    25
100
AcDbEllipse
 10
101.1119130246237
 20
-53.54114573823967
 30
0.0
 11
0.0000000000000001
 21
1.49655508437053
 31
0.0
210
0.0
220
0.0
230
1.0
 40
0.5754914863935891
 41
0.0
 42
6.283185307179586
  0
ELLIPSE
  5
1FD
330
79
100
AcDbEntity
  8
レイヤー 1
 62
   250
420
  2299925
370
    25
100
AcDbEllipse
 10
102.8594770564099
 20
-53.54114573823967
 30
0.0
 11
0.0000000000000001
 21
1.49655508437053
 31
0.0
210
0.0
220
0.0
230
1.0
 40
0.5922330097091832
 41
0.0
 42
6.283185307179586
  0
ELLIPSE
  5
1FE
330
79
100
AcDbEntity
  8
レイヤー 1
 62
   250
420
  2299925
370
    25
100
AcDbEllipse
 10
104.7628626491547
 20
-53.54114573823967
 30
0.0
 11
0.0000000000000001
 21
1.49655508437053
 31
0.0
210
0.0
220
0.0
230
1.0
 40
0.6796116504861239
 41
0.0
 42
6.283185307179586
  0
ELLIPSE
  5
1FF
330
79
100
AcDbEntity
  8
レイヤー 1
 62
   250
420
  2299925
370
    25
100
AcDbEllipse
 10
106.9788183605943
 20
-53.54114573823967
 30
0.0
 11
0.0000000000000001
 21
1.49655508437053
 31
0.0
210
0.0
220
0.0
230
1.0
 40
0.6133904929772856
 41
0.0
 42
6.283185307179586
  0
ELLIPSE
  5
200
330
79
100
AcDbEntity
  8
レイヤー 1
 62
   250
420
  2299925
370
    25
100
AcDbEllipse
 10
108.8143988686368
 20
-53.68644234837289
 30
0.0
 11
0.0000000000000001
 21
1.351258474237299
 31
0.0
210
0.0
220
0.0
230
1.0
 40
0.6790764791249275
 41
0.0
 42
6.283185307179586
  0
ELLIPSE
  5
201
330
79
100
AcDbEntity
  8
レイヤー 1
 62
   250
420
  2299925
370
    25
100
AcDbEllipse
 10
110.9932639484591
 20
-53.81720929749381
 30
0.0
 11
0.0000000000000001
 21
1.482025423358539
 31
0.0
210
0.0
220
0.0
230
1.0
 40
0.6963738245762974
 41
0.0
 42
6.283185307179586
  0
ELLIPSE
  5
202
330
79
100
AcDbEntity
  8
レイヤー 1
 62
   250
420
  2299925
370
    25
100
AcDbEllipse
 10
113.4542446782363
 20
-53.96250590762576
 30
0.0
 11
0.0000000000000001
 21
1.627322033490165
 31
0.0
210
0.0
220
0.0
230
1.0
 40
0.7159109261760952
 41
0.0
 42
6.283185307179586
  0
ELLIPSE
  5
203
330
79
100
AcDbEntity
  8
レイヤー 1
 62
   250
420
  2299925
370
    25
100
AcDbEllipse
 10
95.68908934631867
 20
-56.97498895772074
 30
0.0
 11
0.0000000000000001
 21
1.172059321741846
 31
0.0
210
0.0
220
0.0
230
1.0
 40
0.7252066115530591
 41
0.0
 42
6.283185307179586
  0
ELLIPSE
  5
204
330
79
100
AcDbEntity
  8
レイヤー 1
 62
   250
420
  2299925
370
    25
100
AcDbEllipse
 10
97.49470525068767
 20
-56.72314150015731
 30
0.0
 11
0.0000000000000001
 21
1.423906779305278
 31
0.0
210
0.0
220
0.0
230
1.0
 40
0.6711329344011022
 41
0.0
 42
6.283185307179586
  0
ELLIPSE
  5
205
330
79
100
AcDbEntity
  8
レイヤー 1
 62
   250
420
  2299925
370
    25
100
AcDbEllipse
 10
99.35049715022277
 20
-56.72314150015731
 30
0.0
 11
0.0000000000000001
 21
1.423906779305278
 31
0.0
210
0.0
220
0.0
230
1.0
 40
0.6321770339948126
 41
0.0
 42
6.283185307179586
  0
ELLIPSE
  5
206
330
79
100
AcDbEntity
  8
レイヤー 1
 62
   250
420
  2299925
370
    25
100
AcDbEllipse
 10
101.3254104950452
 20
-57.12997200852869
 30
0.0
 11
0.0000000000000001
 21
1.540144067412441
 31
0.0
210
0.0
220
0.0
230
1.0
 40
0.6978257444457674
 41
0.0
 42
6.283185307179586
  0
ELLIPSE
  5
207
330
79
100
AcDbEntity
  8
レイヤー 1
 62
   250
420
  2299925
370
    25
100
AcDbEllipse
 10
103.4035855847652
 20
-57.23652285596017
 30
0.0
 11
0.0000000000000001
 21
1.433593219980956
 31
0.0
210
0.0
220
0.0
230
1.0
 40
0.699935585170492
 41
0.0
 42
6.283185307179586
  0
ELLIPSE
  5
208
330
79
100
AcDbEntity
  8
レイヤー 1
 62
   250
420
  2299925
370
    25
100
AcDbEllipse
 10
105.4131262493813
 20
-57.23652285596017
 30
0.0
 11
0.0000000000000001
 21
1.433593219980956
 31
0.0
210
0.0
220
0.0
230
1.0
 40
0.7018153694290864
 41
0.0
 42
6.283185307179586
  0
ELLIPSE
  5
209
330
79
100
AcDbEntity
  8
レイヤー 1
 62
   250
420
  2299925
370
    25
100
AcDbEllipse
 10
107.5525575637112
 20
-57.12997200852869
 30
0.0
 11
0.0000000000000001
 21
1.540144067412441
 31
0.0
210
0.0
220
0.0
230
1.0
 40
0.5849056603770145
 41
0.0
 42
6.283185307179586
  0
ELLIPSE
  5
20A
330
79
100
AcDbEntity
  8
レイヤー 1
 62
   250
420
  2299925
370
    25
100
AcDbEllipse
 10
109.4382875344934
 20
-57.23652285596017
 30
0.0
 11
0.0000000000000001
 21
1.433593219980956
 31
0.0
210
0.0
220
0.0
230
1.0
 40
0.6870086815628321
 41
0.0
 42
6.283185307179586
  0
ELLIPSE
  5
20B
330
79
100
AcDbEntity
  8
レイヤー 1
 62
   250
420
  2299925
370
    25
100
AcDbEllipse
 10
111.6208626474404
 20
-57.23652285596017
 30
0.0
 11
0.0000000000000001
 21
1.433593219980956
 31
0.0
210
0.0
220
0.0
230
1.0
 40
0.6283783783781999
 41
0.0
 42
6.283185307179586
  0
ELLIPSE
  5
20C
330
79
100
AcDbEntity
  8
レイヤー 1
 62
   250
420
  2299925
370
    25
100
AcDbEllipse
 10
113.8903235294076
 20
-57.53680251690247
 30
0.0
 11
0.0000000000000001
 21
1.540144067411639
 31
0.0
210
0.0
220
0.0
230
1.0
 40
0.7376889908993375
 41
0.0
 42
6.283185307179586
  0
ELLIPSE
  5
20D
330
79
100
AcDbEntity
  8
レイヤー 1
 62
   250
420
  2299925
370
    25
100
AcDbEllipse
 10
94.92264972787578
 20
-60.03620655599498
 30
0.0
 11
0.0000000000000001
 21
1.366090480053857
 31
0.0
210
0.0
220
0.0
230
1.0
 40
0.5610460138865311
 41
0.0
 42
6.283185307179586
  0
ELLIPSE
  5
20E
330
79
100
AcDbEntity
  8
レイヤー 1
 62
   250
420
  2299925
370
    25
100
AcDbEllipse
 10
96.53907451557889
 20
-60.2396218101818
 30
0.0
 11
0.0000000000000001
 21
1.162675225867045
 31
0.0
210
0.0
220
0.0
230
1.0
 40
0.4832076461620161
 41
0.0
 42
6.283185307179585
  0
ELLIPSE
  5
20F
330
79
100
AcDbEntity
  8
レイヤー 1
 62
   250
420
  2299925
370
    25
100
AcDbEllipse
 10
98.07560025811129
 20
-60.2671813438231
 30
0.0
 11
0.0000000000000001
 21
1.597065267881975
 31
0.0
210
0.0
220
0.0
230
1.0
 40
0.6042494080217357
 41
0.0
 42
6.283185307179586
  0
ELLIPSE
  5
210
330
79
100
AcDbEntity
  8
レイヤー 1
 62
   250
420
  2299925
370
    25
100
AcDbEllipse
 10
99.90915493160926
 20
-60.27655486578498
 30
0.0
 11
0.0000000000000001
 21
1.606438789844175
 31
0.0
210
0.0
220
0.0
230
1.0
 40
0.5406548548872898
 41
0.0
 42
6.283185307179585
  0
ELLIPSE
  5
211
330
79
100
AcDbEntity
  8
レイヤー 1
 62
   250
420
  2299925
370
    25
100
AcDbEllipse
 10
101.8593520566603
 20
-60.47059659800959
 30
0.0
 11
0.0000000000000001
 21
1.393650013695484
 31
0.0
210
0.0
220
0.0
230
1.0
 40
0.7176299572499345
 41
0.0
 42
6.283185307179586
  0
ELLIPSE
  5
212
330
79
100
AcDbEntity
  8
レイヤー 1
 62
   250
420
  2299925
370
    25
100
AcDbEllipse
 10
103.8230173819806
 20
-60.61709065172607
 30
0.0
 11
0.0000000000000001
 21
1.540144067411318
 31
0.0
210
0.0
220
0.0
230
1.0
 40
0.6256170094465041
 41
0.0
 42
6.283185307179586
  0
ELLIPSE
  5
213
330
79
100
AcDbEntity
  8
レイヤー 1
 62
   250
420
  2299925
370
    25
100
AcDbEllipse
 10
105.7191381442183
 20
-60.61709065172607
 30
0.0
 11
0.0000000000000001
 21
1.540144067411318
 31
0.0
210
0.0
220
0.0
230
1.0
 40
0.6055150660255057
 41
0.0
 42
6.283185307179586
  0
ELLIPSE
  5
214
330
79
100
AcDbEntity
  8
レイヤー 1
 62
   250
420
  2299925
370
    25
100
AcDbEllipse
 10
107.8105502501125
 20
-60.79144658388569
 30
0.0
 11
0.0000000000000001
 21
1.71449999957158
 31
0.0
210
0.0
220
0.0
230
1.0
 40
0.5855051728057017
 41
0.0
 42
6.283185307179586
  0
ELLIPSE
  5
215
330
79
100
AcDbEntity
  8
レイヤー 1
 62
   250
420
  2299925
370
    25
100
AcDbEllipse
 10
109.9367239784207
 20
-60.90768387199237
 30
0.0
 11
0.0000000000000001
 21
1.83073728767794
 31
0.0
210
0.0
220
0.0
230
1.0
 40
0.613045420191045
 41
0.0
 42
6.283185307179586
  0
ELLIPSE
  5
216
330
79
100
AcDbEntity
  8
レイヤー 1
 62
   250
420
  2299925
370
    25
100
AcDbEllipse
 10
112.2698541726748
 20
-61.02392116009857
 30
0.0
 11
0.0000000000000001
 21
1.71449999957174
 31
0.0
210
0.0
220
0.0
230
1.0
 40
0.7062146892812279
 41
0.0
 42
6.283185307179586
  0
ELLIPSE
  5
217
330
79
100
AcDbEntity
  8
レイヤー 1
 62
   250
420
  2299925
370
    25
100
AcDbEllipse
 10
114.6180091973544
 20
-61.37359598661198
 30
0.0
 11
0.0000000000000001
 21
1.715462961765264
 31
0.0
210
0.0
220
0.0
230
1.0
 40
0.6629988321282284
 41
0.0
 42
6.283185307179586
  0
ELLIPSE
  5
218
330
79
100
AcDbEntity
  8
レイヤー 1
 62
   250
420
  2299925
370
    25
100
AcDbEllipse
 10
94.65021858388636
 20
-63.39951077030231
 30
0.0
 11
0.0000000000000001
 21
1.242276051164594
 31
0.0
210
0.0
220
0.0
230
1.0
 40
0.5848000128353922
 41
0.0
 42
6.283185307179586
  0
ELLIPSE
  5
219
330
79
100
AcDbEntity
  8
レイヤー 1
 62
   250
420
  2299925
370
    25
100
AcDbEllipse
 10
96.49548553257741
 20
-63.50015860975871
 30
0.0
 11
0.0000000000000001
 21
1.342923890620685
 31
0.0
210
0.0
220
0.0
230
1.0
 40
0.8330955356733808
 41
0.0
 42
6.283185307179586
  0
ELLIPSE
  5
21A
330
79
100
AcDbEntity
  8
レイヤー 1
 62
   250
420
  2299925
370
    25
100
AcDbEllipse
 10
98.76695587093955
 20
-63.50015860975871
 30
0.0
 11
0.0000000000000001
 21
1.342923890620685
 31
0.0
210
0.0
220
0.0
230
1.0
 40
0.6780171459558423
 41
0.0
 42
6.283185307179586
  0
ELLIPSE
  5
21B
330
79
100
AcDbEntity
  8
レイヤー 1
 62
   250
420
  2299925
370
    25
100
AcDbEllipse
 10
100.5014458947695
 20
-63.90079404073552
 30
0.0
 11
0.0000000000000001
 21
1.394847457278247
 31
0.0
210
0.0
220
0.0
230
1.0
 40
0.5907202224700285
 41
0.0
 42
6.283185307179586
  0
ELLIPSE
  5
21C
330
79
100
AcDbEntity
  8
レイヤー 1
 62
   250
420
  2299925
370
    25
100
AcDbEllipse
 10
102.3644980399049
 20
-63.90079404073552
 30
0.0
 11
0.0000000000000001
 21
1.394847457278247
 31
0.0
210
0.0
220
0.0
230
1.0
 40
0.7449470832368875
 41
0.0
 42
6.283185307179586
  0
ELLIPSE
  5
21D
330
79
100
AcDbEntity
  8
レイヤー 1
 62
   250
420
  2299925
370
    25
100
AcDbEllipse
 10
104.3592876762129
 20
-64.01703132884219
 30
0.0
 11
0.0000000000000001
 21
1.278610169171566
 31
0.0
210
0.0
220
0.0
230
1.0
 40
0.7474538483196337
 41
0.0
 42
6.283185307179586
  0
ELLIPSE
  5
21E
330
79
100
AcDbEntity
  8
レイヤー 1
 62
   250
420
  2299925
370
    25
100
AcDbEllipse
 10
106.4055798426298
 20
-64.16232793897511
 30
0.0
 11
0.0000000000000001
 21
1.423906779304797
 31
0.0
210
0.0
220
0.0
230
1.0
 40
0.6969933760222108
 41
0.0
 42
6.283185307179586
  0
ELLIPSE
  5
21F
330
79
100
AcDbEntity
  8
レイヤー 1
 62
   250
420
  2299925
370
    25
100
AcDbEllipse
 10
108.624418892303
 20
-64.57012140954178
 30
0.0
 11
0.0000000000000001
 21
1.481062461164213
 31
0.0
210
0.0
220
0.0
230
1.0
 40
0.5495167580916919
 41
0.0
 42
6.283185307179585
  0
ELLIPSE
  5
220
330
79
100
AcDbEntity
  8
レイヤー 1
 62
   250
420
  2299925
370
    25
100
AcDbEllipse
 10
110.7756961058016
 20
-64.84158460861107
 30
0.0
 11
0.0000000000000001
 21
1.442073838308604
 31
0.0
210
0.0
220
0.0
230
1.0
 40
0.7237419904352201
 41
0.0
 42
6.283185307179586
  0
ELLIPSE
  5
221
330
79
100
AcDbEntity
  8
レイヤー 1
 62
   250
420
  2299925
370
    25
100
AcDbEllipse
 10
112.8811854527758
 20
-65.14670748989065
 30
0.0
 11
0.0000000000000001
 21
1.747196719588502
 31
0.0
210
0.0
220
0.0
230
1.0
 40
0.6077163177896657
 41
0.0
 42
6.283185307179586
  0
ELLIPSE
  5
222
330
79
100
AcDbEntity
  8
レイヤー 1
 62
   250
420
  2299925
370
    25
100
AcDbEllipse
 10
95.37670163455219
 20
-66.83578556542541
 30
0.0
 11
0.0000000000000001
 21
1.249550847145497
 31
0.0
210
0.0
220
0.0
230
1.0
 40
0.7906976744187359
 41
0.0
 42
6.283185307179586
  0
ELLIPSE
  5
223
330
79
100
AcDbEntity
  8
レイヤー 1
 62
   250
420
  2299925
370
    25
100
AcDbEllipse
 10
97.30733738684518
 20
-67.01014149758535
 30
0.0
 11
0.0000000000000001
 21
1.423906779305439
 31
0.0
210
0.0
220
0.0
230
1.0
 40
0.5395457641131751
 41
0.0
 42
6.283185307179585
  0
ELLIPSE
  5
224
330
79
100
AcDbEntity
  8
レイヤー 1
 62
   250
420
  2299925
370
    25
100
AcDbEllipse
 10
99.35049715022277
 20
-67.12637878569187
 30
0.0
 11
0.0000000000000001
 21
1.540144067411318
 31
0.0
210
0.0
220
0.0
230
1.0
 40
0.5844655597312482
 41
0.0
 42
6.283185307179586
  0
ELLIPSE
  5
225
330
79
100
AcDbEntity
  8
レイヤー 1
 62
   250
420
  2299925
370
    25
100
AcDbEllipse
 10
101.1119130246237
 20
-67.47509065001159
 30
0.0
 11
0.0000000000000001
 21
1.65638135551832
 31
0.0
210
0.0
220
0.0
230
1.0
 40
0.5199616061270947
 41
0.0
 42
6.283185307179585
  0
ELLIPSE
  5
226
330
79
100
AcDbEntity
  8
レイヤー 1
 62
   250
420
  2299925
370
    25
100
AcDbEllipse
 10
103.2582488917775
 20
-67.70756522622463
 30
0.0
 11
0.0000000000000001
 21
1.423906779305278
 31
0.0
210
0.0
220
0.0
230
1.0
 40
0.7732520137117044
 41
0.0
 42
6.283185307179586
  0
ELLIPSE
  5
227
330
79
100
AcDbEntity
  8
レイヤー 1
 62
   250
420
  2299925
370
    25
100
AcDbEllipse
 10
105.2550709065367
 20
-67.88192115838441
 30
0.0
 11
0.0000000000000001
 21
1.598262711464738
 31
0.0
210
0.0
220
0.0
230
1.0
 40
0.5306151525428334
 41
0.0
 42
6.283185307179585
  0
ELLIPSE
  5
228
330
79
100
AcDbEntity
  8
レイヤー 1
 62
   250
420
  2299925
370
    25
100
AcDbEllipse
 10
107.2841915844508
 20
-68.17251437865103
 30
0.0
 11
0.0000000000000001
 21
1.65638135551864
 31
0.0
210
0.0
220
0.0
230
1.0
 40
0.5304404923984548
 41
0.0
 42
6.283185307179585
  0
ELLIPSE
  5
229
330
79
100
AcDbEntity
  8
レイヤー 1
 62
   250
420
  2299925
370
    25
100
AcDbEllipse
 10
109.0620117812733
 20
-68.53575590398356
 30
0.0
 11
0.0000000000000001
 21
1.699970338557824
 31
0.0
210
0.0
220
0.0
230
1.0
 40
0.5289553791655112
 41
0.0
 42
6.283185307179585
  0
ELLIPSE
  5
22A
330
79
100
AcDbEntity
  8
レイヤー 1
 62
   250
420
  2299925
370
    25
100
AcDbEllipse
 10
111.4172067843378
 20
-68.86267327678368
 30
0.0
 11
0.0000000000000001
 21
1.736294491091492
 31
0.0
210
0.0
220
0.0
230
1.0
 40
0.6358446875007216
 41
0.0
 42
6.283185307179586
  0
ELLIPSE
  5
22B
330
79
100
AcDbEntity
  8
レイヤー 1
 62
   250
420
  2299925
370
    25
100
AcDbEllipse
 10
123.3802016275515
 20
-54.06905675505725
 30
0.0
 11
0.0000000000000001
 21
1.733872880921972
 31
0.0
210
0.0
220
0.0
230
1.0
 40
0.608938547486584
 41
0.0
 42
6.283185307179586
  0
ELLIPSE
  5
22C
330
79
100
AcDbEntity
  8
レイヤー 1
 62
   250
420
  2299925
370
    25
100
AcDbEllipse
 10
125.8599304404911
 20
-54.28215844991973
 30
0.0
 11
0.0000000000000001
 21
1.714499999571099
 31
0.0
210
0.0
220
0.0
230
1.0
 40
0.8305084745763567
 41
0.0
 42
6.283185307179586
  0
ELLIPSE
  5
22D
330
79
100
AcDbEntity
  8
レイヤー 1
 62
   250
420
  2299925
370
    25
100
AcDbEllipse
 10
128.7464897618028
 20
-54.28215844991973
 30
0.0
 11
0.0000000000000001
 21
1.714499999571099
 31
0.0
210
0.0
220
0.0
230
1.0
 40
0.6836158192087752
 41
0.0
 42
6.283185307179586
  0
ELLIPSE
  5
22E
330
79
100
AcDbEntity
  8
レイヤー 1
 62
   250
420
  2299925
370
    25
100
AcDbEllipse
 10
131.3618287441998
 20
-54.46846653527297
 30
0.0
 11
0.0000000000000001
 21
1.900808084924978
 31
0.0
210
0.0
220
0.0
230
1.0
 40
0.7592979386519372
 41
0.0
 42
6.283185307179586
  0
ELLIPSE
  5
22F
330
79
100
AcDbEntity
  8
レイヤー 1
 62
   250
420
  2299925
370
    25
100
AcDbEllipse
 10
134.1024008719816
 20
-54.46846653527297
 30
0.0
 11
0.0000000000000001
 21
1.900808084924978
 31
0.0
210
0.0
220
0.0
230
1.0
 40
0.6824952384272516
 41
0.0
 42
6.283185307179586
  0
ELLIPSE
  5
230
330
79
100
AcDbEntity
  8
レイヤー 1
 62
   250
420
  2299925
370
    25
100
AcDbEllipse
 10
136.7758584984319
 20
-54.46846653527297
 30
0.0
 11
0.0000000000000001
 21
1.900808084924978
 31
0.0
210
0.0
220
0.0
230
1.0
 40
0.723989533840609
 41
0.0
 42
6.283185307179586
  0
ELLIPSE
  5
231
330
79
100
AcDbEntity
  8
レイヤー 1
 62
   250
420
  2299925
370
    25
100
AcDbEllipse
 10
139.7115406065191
 20
-54.61634065322602
 30
0.0
 11
0.0000000000000001
 21
2.048682202878027
 31
0.0
210
0.0
220
0.0
230
1.0
 40
0.7612293144204369
 41
0.0
 42
6.283185307179586
  0
ELLIPSE
  5
232
330
79
100
AcDbEntity
  8
レイヤー 1
 62
   250
420
  2299925
370
    25
100
AcDbEllipse
 10
142.7627694193156
 20
-54.81975590741235
 30
0.0
 11
0.0000000000000001
 21
1.845266948691696
 31
0.0
210
0.0
220
0.0
230
1.0
 40
0.8083989501311378
 41
0.0
 42
6.283185307179586
  0
ELLIPSE
  5
233
330
79
100
AcDbEntity
  8
レイヤー 1
 62
   250
420
  2299925
370
    25
100
AcDbEllipse
 10
145.8527439948148
 20
-55.03145667077191
 30
0.0
 11
0.0000000000000001
 21
2.056967712050932
 31
0.0
210
0.0
220
0.0
230
1.0
 40
0.7769994162287977
 41
0.0
 42
6.283185307179586
  0
ELLIPSE
  5
234
330
79
100
AcDbEntity
  8
レイヤー 1
 62
   250
420
  2299925
370
    25
100
AcDbEllipse
 10
121.7625660347356
 20
-57.83934789036287
 30
0.0
 11
0.0000000000000001
 21
1.470073270164921
 31
0.0
210
0.0
220
0.0
230
1.0
 40
0.6325523521342337
 41
0.0
 42
6.283185307179586
  0
ELLIPSE
  5
235
330
79
100
AcDbEntity
  8
レイヤー 1
 62
   250
420
  2299925
370
    25
100
AcDbEllipse
 10
124.2418267739366
 20
-58.01370382252265
 30
0.0
 11
0.0000000000000001
 21
1.644429202324381
 31
0.0
210
0.0
220
0.0
230
1.0
 40
0.6835777365863815
 41
0.0
 42
6.283185307179586
  0
ELLIPSE
  5
236
330
79
100
AcDbEntity
  8
レイヤー 1
 62
   250
420
  2299925
370
    25
100
AcDbEllipse
 10
126.47017620305
 20
-58.15900043265556
 30
0.0
 11
0.0000000000000001
 21
1.789725812457612
 31
0.0
210
0.0
220
0.0
230
1.0
 40
0.6169963182773392
 41
0.0
 42
6.283185307179586
  0
ELLIPSE
  5
237
330
79
100
AcDbEntity
  8
レイヤー 1
 62
   250
420
  2299925
370
    25
100
AcDbEllipse
 10
129.0273965413941
 20
-58.47078886094411
 30
0.0
 11
0.0000000000000001
 21
1.805766004840707
 31
0.0
210
0.0
220
0.0
230
1.0
 40
0.8046259024904383
 41
0.0
 42
6.283185307179586
  0
ELLIPSE
  5
238
330
79
100
AcDbEntity
  8
レイヤー 1
 62
   250
420
  2299925
370
    25
100
AcDbEllipse
 10
131.9042694220307
 20
-58.70310810121297
 30
0.0
 11
0.0000000000000001
 21
1.767488496796615
 31
0.0
210
0.0
220
0.0
230
1.0
 40
0.8056102101289351
 41
0.0
 42
6.283185307179586
  0
ELLIPSE
  5
239
330
79
100
AcDbEntity
  8
レイヤー 1
 62
   250
420
  2299925
370
    25
100
AcDbEllipse
 10
134.664905014561
 20
-58.77635512807153
 30
0.0
 11
0.0000000000000001
 21
1.840735523654853
 31
0.0
210
0.0
220
0.0
230
1.0
 40
0.7261927615605203
 41
0.0
 42
6.283185307179586
  0
ELLIPSE
  5
23A
330
79
100
AcDbEntity
  8
レイヤー 1
 62
   250
420
  2299925
370
    25
100
AcDbEllipse
 10
137.6346063835431
 20
-58.77635512807153
 30
0.0
 11
0.0000000000000001
 21
1.840735523654853
 31
0.0
210
0.0
220
0.0
230
1.0
 40
0.8871304621290466
 41
0.0
 42
6.283185307179586
  0
ELLIPSE
  5
23B
330
79
100
AcDbEntity
  8
レイヤー 1
 62
   250
420
  2299925
370
    25
100
AcDbEllipse
 10
140.7875428233984
 20
-59.13022200802929
 30
0.0
 11
0.0000000000000001
 21
1.893699152068798
 31
0.0
210
0.0
220
0.0
230
1.0
 40
0.8026427441957778
 41
0.0
 42
6.283185307179586
  0
ELLIPSE
  5
23C
330
79
100
AcDbEntity
  8
レイヤー 1
 62
   250
420
  2299925
370
    25
100
AcDbEllipse
 10
143.6975109444714
 20
-59.33848048255418
 30
0.0
 11
0.0000000000000001
 21
2.005093219837882
 31
0.0
210
0.0
220
0.0
230
1.0
 40
0.6932367149932352
 41
0.0
 42
6.283185307179586
  0
ELLIPSE
  5
23D
330
79
100
AcDbEntity
  8
レイヤー 1
 62
   250
420
  2299925
370
    25
100
AcDbEllipse
 10
146.7923287403424
 20
-59.4695497764755
 30
0.0
 11
0.0000000000000001
 21
1.932747259573346
 31
0.0
210
0.0
220
0.0
230
1.0
 40
0.8820675080258968
 41
0.0
 42
6.283185307179586
  0
ELLIPSE
  5
23E
330
79
100
AcDbEntity
  8
レイヤー 1
 62
   250
420
  2299925
370
    25
100
AcDbEllipse
 10
120.2078923063103
 20
-61.67411850770766
 30
0.0
 11
0.0000000000000001
 21
1.725392262594804
 31
0.0
210
0.0
220
0.0
230
1.0
 40
0.5642121556918376
 41
0.0
 42
6.283185307179586
  0
ELLIPSE
  5
23F
330
79
100
AcDbEntity
  8
レイヤー 1
 62
   250
420
  2299925
370
    25
100
AcDbEllipse
 10
122.2807906108773
 20
-61.72444242743594
 30
0.0
 11
0.0000000000000001
 21
1.775716182323091
 31
0.0
210
0.0
220
0.0
230
1.0
 40
0.6191366771440002
 41
0.0
 42
6.283185307179586
  0
ELLIPSE
  5
240
330
79
100
AcDbEntity
  8
レイヤー 1
 62
   250
420
  2299925
370
    25
100
AcDbEllipse
 10
124.7556762034787
 20
-62.07020792545882
 30
0.0
 11
0.0000000000000001
 21
1.8305861152767
 31
0.0
210
0.0
220
0.0
230
1.0
 40
0.6190987408790606
 41
0.0
 42
6.283185307179586
  0
ELLIPSE
  5
241
330
79
100
AcDbEntity
  8
レイヤー 1
 62
   250
420
  2299925
370
    25
100
AcDbEllipse
 10
127.1966592537158
 20
-62.3170609902863
 30
0.0
 11
0.0000000000000001
 21
1.845266948688809
 31
0.0
210
0.0
220
0.0
230
1.0
 40
0.7086614173239861
 41
0.0
 42
6.283185307179586
  0
ELLIPSE
  5
242
330
79
100
AcDbEntity
  8
レイヤー 1
 62
   250
420
  2299925
370
    25
100
AcDbEllipse
 10
129.9330787445568
 20
-62.78266532433792
 30
0.0
 11
0.0000000000000001
 21
1.874981452345388
 31
0.0
210
0.0
220
0.0
230
1.0
 40
0.7620075376508458
 41
0.0
 42
6.283185307179586
  0
ELLIPSE
  5
243
330
79
100
AcDbEntity
  8
レイヤー 1
 62
   250
420
  2299925
370
    25
100
AcDbEllipse
 10
132.7321148080907
 20
-62.9327528843549
 30
0.0
 11
0.0000000000000001
 21
1.908831724256168
 31
0.0
210
0.0
220
0.0
230
1.0
 40
0.7178663506469058
 41
0.0
 42
6.283185307179586
  0
ELLIPSE
  5
244
330
79
100
AcDbEntity
  8
レイヤー 1
 62
   250
420
  2299925
370
    25
100
AcDbEllipse
 10
135.7193458813998
 20
-62.93350183023907
 30
0.0
 11
0.0000000000000001
 21
1.909580670140335
 31
0.0
210
0.0
220
0.0
230
1.0
 40
0.6652271439248576
 41
0.0
 42
6.283185307179586
  0
ELLIPSE
  5
245
330
79
100
AcDbEntity
  8
レイヤー 1
 62
   250
420
  2299925
370
    25
100
AcDbEllipse
 10
138.5297948441028
 20
-63.46490421033599
 30
0.0
 11
0.0000000000000001
 21
2.121330507943921
 31
0.0
210
0.0
220
0.0
230
1.0
 40
0.7260273972604904
 41
0.0
 42
6.283185307179586
  0
ELLIPSE
  5
246
330
79
100
AcDbEntity
  8
レイヤー 1
 62
   250
420
  2299925
370
    25
100
AcDbEllipse
 10
141.6682016229791
 20
-63.6301766129937
 30
0.0
 11
0.0000000000000001
 21
1.956058105286204
 31
0.0
210
0.0
220
0.0
230
1.0
 40
0.6982349509764997
 41
0.0
 42
6.283185307179586
  0
ELLIPSE
  5
247
330
79
100
AcDbEntity
  8
レイヤー 1
 62
   250
420
  2299925
370
    25
100
AcDbEllipse
 10
144.5838202663182
 20
-63.84147795309949
 30
0.0
 11
0.0000000000000001
 21
1.977231341394095
 31
0.0
210
0.0
220
0.0
230
1.0
 40
0.7838387322925655
 41
0.0
 42
6.283185307179586
  0
ELLIPSE
  5
248
330
79
100
AcDbEntity
  8
レイヤー 1
 62
   250
420
  2299925
370
    25
100
AcDbEllipse
 10
120.3822482384698
 20
-65.81870929449343
 30
0.0
 11
0.0000000000000001
 21
1.656381355517999
 31
0.0
210
0.0
220
0.0
230
1.0
 40
0.6929824561404385
 41
0.0
 42
6.283185307179586
  0
ELLIPSE
  5
249
330
79
100
AcDbEntity
  8
レイヤー 1
 62
   250
420
  2299925
370
    25
100
AcDbEllipse
 10
122.7205875141386
 20
-65.93494658259979
 30
0.0
 11
0.0000000000000001
 21
1.77261864362468
 31
0.0
210
0.0
220
0.0
230
1.0
 40
0.6716030319877905
 41
0.0
 42
6.283185307179586
  0
ELLIPSE
  5
24A
330
79
100
AcDbEntity
  8
レイヤー 1
 62
   250
420
  2299925
370
    25
100
AcDbEllipse
 10
125.2787439999579
 20
-65.93494658259979
 30
0.0
 11
0.0000000000000001
 21
1.77261864362468
 31
0.0
210
0.0
220
0.0
230
1.0
 40
0.6721311475411186
 41
0.0
 42
6.283185307179586
  0
ELLIPSE
  5
24B
330
79
100
AcDbEntity
  8
レイヤー 1
 62
   250
420
  2299925
370
    25
100
AcDbEllipse
 10
127.9182990840439
 20
-66.63781644275076
 30
0.0
 11
0.0000000000000001
 21
1.796231834140019
 31
0.0
210
0.0
220
0.0
230
1.0
 40
0.6444210812472753
 41
0.0
 42
6.283185307179586
  0
ELLIPSE
  5
24C
330
79
100
AcDbEntity
  8
レイヤー 1
 62
   250
420
  2299925
370
    25
100
AcDbEllipse
 10
130.4900490834008
 20
-67.06462772638753
 30
0.0
 11
0.0000000000000001
 21
1.798045550396146
 31
0.0
210
0.0
220
0.0
230
1.0
 40
0.7865319865330111
 41
0.0
 42
6.283185307179586
  0
ELLIPSE
  5
24D
330
79
100
AcDbEntity
  8
レイヤー 1
 62
   250
420
  2299925
370
    25
100
AcDbEllipse
 10
133.1766552040693
 20
-67.07915738739888
 30
0.0
 11
0.0000000000000001
 21
1.783515889384796
 31
0.0
210
0.0
220
0.0
230
1.0
 40
0.7134143237027751
 41
0.0
 42
6.283185307179586
  0
ELLIPSE
  5
24E
330
79
100
AcDbEntity
  8
レイヤー 1
 62
   250
420
  2299925
370
    25
100
AcDbEllipse
 10
136.0418236848259
 20
-67.53320929406484
 30
0.0
 11
0.0000000000000001
 21
1.946974575784301
 31
0.0
210
0.0
220
0.0
230
1.0
 40
0.8180808925437755
 41
0.0
 42
6.283185307179586
  0
ELLIPSE
  5
24F
330
79
100
AcDbEntity
  8
レイヤー 1
 62
   250
420
  2299925
370
    25
100
AcDbEllipse
 10
139.4697832405777
 20
-68.05627709054483
 30
0.0
 11
0.0000000000000001
 21
1.77261864362484
 31
0.0
210
0.0
220
0.0
230
1.0
 40
0.7433971133949772
 41
0.0
 42
6.283185307179586
  0
ELLIPSE
  5
250
330
79
100
AcDbEntity
  8
レイヤー 1
 62
   250
420
  2299925
370
    25
100
AcDbEllipse
 10
142.2425268839349
 20
-68.14345505662385
 30
0.0
 11
0.0000000000000001
 21
2.092271185917531
 31
0.0
210
0.0
220
0.0
230
1.0
 40
0.6954089270690261
 41
0.0
 42
6.283185307179586
  0
ELLIPSE
  5
251
330
79
100
AcDbEntity
  8
レイヤー 1
 62
   250
420
  2299925
370
    25
100
AcDbEllipse
 10
145.2449198424068
 20
-68.48248048026821
 30
0.0
 11
0.0000000000000001
 21
1.966347457135815
 31
0.0
210
0.0
220
0.0
230
1.0
 40
0.7869458128164386
 41
0.0
 42
6.283185307179586
  0
ELLIPSE
  5
252
330
79
100
AcDbEntity
  8
レイヤー 1
 62
   250
420
  2299925
370
    25
100
AcDbEllipse
 10
120.9771842812185
 20
-70.19213725950283
 30
0.0
 11
0.0000000000000001
 21
1.758088982612046
 31
0.0
210
0.0
220
0.0
230
1.0
 40
0.7414905289501807
 41
0.0
 42
6.283185307179586
  0
ELLIPSE
  5
253
330
79
100
AcDbEntity
  8
レイヤー 1
 62
   250
420
  2299925
370
    25
100
AcDbEllipse
 10
123.5400278986977
 20
-70.32290420862182
 30
0.0
 11
0.0000000000000001
 21
1.656381355518961
 31
0.0
210
0.0
220
0.0
230
1.0
 40
0.7339181286548075
 41
0.0
 42
6.283185307179586
  0
ELLIPSE
  5
254
330
79
100
AcDbEntity
  8
レイヤー 1
 62
   250
420
  2299925
370
    25
100
AcDbEllipse
 10
126.1359939997435
 20
-70.74063196275573
 30
0.0
 11
0.0000000000000001
 21
1.877958685971725
 31
0.0
210
0.0
220
0.0
230
1.0
 40
0.6112185686653247
 41
0.0
 42
6.283185307179586
  0
ELLIPSE
  5
255
330
79
100
AcDbEntity
  8
レイヤー 1
 62
   250
420
  2299925
370
    25
100
AcDbEllipse
 10
128.746489761803
 20
-70.91498789491551
 30
0.0
 11
0.0000000000000001
 21
2.052314618131186
 31
0.0
210
0.0
220
0.0
230
1.0
 40
0.7126843657813136
 41
0.0
 42
6.283185307179586
  0
ELLIPSE
  5
256
330
79
100
AcDbEntity
  8
レイヤー 1
 62
   250
420
  2299925
370
    25
100
AcDbEllipse
 10
131.5071253543329
 20
-71.38418050963514
 30
0.0
 11
0.0000000000000001
 21
1.903996639785989
 31
0.0
210
0.0
220
0.0
230
1.0
 40
0.6817149901423429
 41
0.0
 42
6.283185307179586
  0
ELLIPSE
  5
257
330
79
100
AcDbEntity
  8
レイヤー 1
 62
   250
420
  2299925
370
    25
100
AcDbEllipse
 10
134.0659040735989
 20
-71.58698471678107
 30
0.0
 11
0.0000000000000001
 21
2.106800846931929
 31
0.0
210
0.0
220
0.0
230
1.0
 40
0.6330874925604603
 41
0.0
 42
6.283185307179586
  0
ELLIPSE
  5
258
330
79
100
AcDbEntity
  8
レイヤー 1
 62
   250
420
  2299925
370
    25
100
AcDbEllipse
 10
136.7758584984319
 20
-71.82467605788528
 30
0.0
 11
0.0000000000000001
 21
1.86910950582772
 31
0.0
210
0.0
220
0.0
230
1.0
 40
0.7362678082983009
 41
0.0
 42
6.283185307179586
  0
ELLIPSE
  5
259
330
79
100
AcDbEntity
  8
レイヤー 1
 62
   250
420
  2299925
370
    25
100
AcDbEllipse
 10
139.7115406065191
 20
-72.1297989391639
 30
0.0
 11
0.0000000000000001
 21
2.174232387106012
 31
0.0
210
0.0
220
0.0
230
1.0
 40
0.7172724304957888
 41
0.0
 42
6.283185307179586
  0
ELLIPSE
  5
25A
330
79
100
AcDbEntity
  8
レイヤー 1
 62
   250
420
  2299925
370
    25
100
AcDbEllipse
 10
143.1792863683638
 20
-72.88738937747225
 30
0.0
 11
0.0000000000000001
 21
2.288421609596743
 31
0.0
210
0.0
220
0.0
230
1.0
 40
0.8338624338626544
 41
0.0
 42
6.283185307179586
  0
SPLINE
  5
25B
330
79
100
AcDbEntity
  8
レイヤー 1
 62
   250
420
  2299925
370
    25
100
AcDbSpline
210
0.0
220
0.0
230
1.0
 70
     8
 71
     3
 72
    11
 73
     7
 74
     0
 42
0.0000000001
 43
0.0000000001
 40
0.0
 40
0.0
 40
0.0
 40
0.0
 40
1.0
 40
1.0
 40
1.0
 40
2.0
 40
2.0
 40
2.0
 40
2.0
 10
172.0520636745199
 20
-87.97648465289901
 30
0.0
 10
172.0520636745199
 20
-87.97648465289901
 30
0.0
 10
177.440227037766
 20
-87.35175154242318
 30
0.0
 10
179.6487355117902
 20
-87.97648465289901
 30
0.0
 10
181.8572439858144
 20
-88.60121776337484
 30
0.0
 10
180.9874722940879
 20
-95.54292809058047
 30
0.0
 10
180.9874722940879
 20
-95.54292809058047
 30
0.0
  0
SPLINE
  5
25C
330
79
100
AcDbEntity
  8
レイヤー 1
 62
   250
420
  2299925
370
    25
100
AcDbSpline
210
0.0
220
0.0
230
1.0
 70
     8
 71
     3
 72
    11
 73
     7
 74
     0
 42
0.0000000001
 43
0.0000000001
 40
0.0
 40
0.0
 40
0.0
 40
0.0
 40
1.0
 40
1.0
 40
1.0
 40
2.0
 40
2.0
 40
2.0
 40
2.0
 10
173.8623021316214
 20
-76.10380659821621
 30
0.0
 10
173.8623021316214
 20
-76.10380659821621
 30
0.0
 10
175.4592653927711
 20
-77.92676013892341
 30
0.0
 10
175.5489072324432
 20
-79.92216691808626
 30
0.0
 10
175.6385490721154
 20
-81.91757369724911
 30
0.0
 10
175.8129050042741
 20
-87.71210435654536
 30
0.0
 10
175.8129050042741
 20
-87.71210435654536
 30
0.0
  0
SPLINE
  5
25D
330
79
100
AcDbEntity
  8
レイヤー 1
 62
   250
420
  2299925
370
    25
100
AcDbSpline
210
0.0
220
0.0
230
1.0
 70
     8
 71
     3
 72
    11
 73
     7
 74
     0
 42
0.0000000001
 43
0.0000000001
 40
0.0
 40
0.0
 40
0.0
 40
0.0
 40
1.0
 40
1.0
 40
1.0
 40
2.0
 40
2.0
 40
2.0
 40
2.0
 10
174.2744961036057
 20
-73.57506605098752
 30
0.0
 10
174.2744961036057
 20
-73.57506605098752
 30
0.0
 10
177.4087038421482
 20
-76.89999742731671
 30
0.0
 10
177.4983456818204
 20
-78.89540420647957
 30
0.0
 10
177.5879875214919
 20
-80.89081098564241
 30
0.0
 10
177.7891685569419
 20
-87.7243068285971
 30
0.0
 10
177.7891685569419
 20
-87.7243068285971
 30
0.0
  0
SPLINE
  5
25E
330
79
100
AcDbEntity
  8
レイヤー 1
 62
   250
420
  2299925
370
    25
100
AcDbSpline
210
0.0
220
0.0
230
1.0
 70
     8
 71
     3
 72
     8
 73
     4
 74
     0
 42
0.0000000001
 43
0.0000000001
 40
0.0
 40
0.0
 40
0.0
 40
0.0
 40
1.0
 40
1.0
 40
1.0
 40
1.0
 10
171.626864965213
 20
-82.09986225194732
 30
0.0
 10
171.626864965213
 20
-82.09986225194732
 30
0.0
 10
176.3116721722223
 20
-84.85914508689274
 30
0.0
 10
175.5489072324432
 20
-87.69882549268803
 30
0.0
  0
SPLINE
  5
25F
330
79
100
AcDbEntity
  8
レイヤー 1
 62
   250
420
  2299925
370
    25
100
AcDbSpline
210
0.0
220
0.0
230
1.0
 70
     8
 71
     3
 72
     8
 73
     4
 74
     0
 42
0.0000000001
 43
0.0000000001
 40
0.0
 40
0.0
 40
0.0
 40
0.0
 40
1.0
 40
1.0
 40
1.0
 40
1.0
 10
171.2311222109937
 20
-83.71925166290033
 30
0.0
 10
171.2311222109937
 20
-83.71925166290033
 30
0.0
 10
174.4721154435586
 20
-85.4039635887273
 30
0.0
 10
174.0866881902821
 20
-87.79687881144537
 30
0.0
  0
ENDBLK
  5
7C
330
79
100
AcDbEntity
  8
0
100
AcDbBlockEnd
  0
ENDSEC
  0
SECTION
  2
ENTITIES
  0
INSERT
  5
7A
330
70
100
AcDbEntity
  8
レイヤー 1
100
AcDbBlockReference
  2
Block_0
 10
0.0
 20
0.0
 30
0.0
  0
ENDSEC
  0
SECTION
  2
OBJECTS
  0
DICTIONARY
  5
C
330
0
100
AcDbDictionary
281
     1
  3
ACAD_COLOR
350
63
  3
ACAD_DETAILVIEWSTYLE
350
6A
  3
ACAD_GROUP
350
D
  3
ACAD_LAYOUT
350
62
  3
ACAD_MATERIAL
350
10
  3
ACAD_MLEADERSTYLE
350
66
  3
ACAD_MLINESTYLE
350
5F
  3
ACAD_PLOTSETTINGS
350
61
  3
ACAD_PLOTSTYLENAME
350
E
  3
ACAD_SCALELIST
350
42
  3
ACAD_SECTIONVIEWSTYLE
350
68
  3
ACAD_TABLESTYLE
350
64
  3
ACAD_VISUALSTYLE
350
29
  3
ACDB_RECOMPOSE_DATA
350
268
  3
AcDbVariableDictionary
350
260
  0
DICTIONARY
  5
63
102
{ACAD_REACTORS
330
C
102
}
330
C
100
AcDbDictionary
281
     1
  0
DICTIONARY
  5
6A
102
{ACAD_REACTORS
330
C
102
}
330
C
100
AcDbDictionary
281
     1
  3
Imperial24
350
6B
  0
DICTIONARY
  5
D
102
{ACAD_REACTORS
330
C
102
}
330
C
100
AcDbDictionary
281
     1
  0
DICTIONARY
  5
62
102
{ACAD_REACTORS
330
C
102
}
330
C
100
AcDbDictionary
281
     1
  3
Layout1
350
6F
  3
Layout2
350
77
  3
Model
350
73
  0
DICTIONARY
  5
10
102
{ACAD_REACTORS
330
C
102
}
330
C
100
AcDbDictionary
281
     1
  3
ByBlock
350
19
  3
ByLayer
350
11
  3
Global
350
21
  0
DICTIONARY
  5
66
102
{ACAD_REACTORS
330
C
102
}
330
C
100
AcDbDictionary
281
     1
  3
Standard
350
67
  0
DICTIONARY
  5
5F
102
{ACAD_REACTORS
330
C
102
}
330
C
100
AcDbDictionary
281
     1
  3
Standard
350
60
  0
DICTIONARY
  5
61
102
{ACAD_REACTORS
330
C
102
}
330
C
100
AcDbDictionary
281
     1
  0
ACDBDICTIONARYWDFLT
  5
E
102
{ACAD_REACTORS
330
C
102
}
330
C
100
AcDbDictionary
281
     1
  3
Normal
350
F
100
AcDbDictionaryWithDefault
340
F
  0
DICTIONARY
  5
42
102
{ACAD_REACTORS
330
C
102
}
330
C
100
AcDbDictionary
281
     1
  3
A0
350
43
  3
A1
350
44
  3
A2
350
45
  3
A3
350
46
  3
A4
350
47
  3
A5
350
48
  3
A6
350
49
  3
A7
350
4A
  3
A8
350
4B
  3
A9
350
4C
  3
B0
350
4D
  3
B1
350
4E
  3
B2
350
4F
  3
B3
350
50
  3
B4
350
51
  3
B5
350
52
  3
B6
350
53
  0
DICTIONARY
  5
68
102
{ACAD_REACTORS
330
C
102
}
330
C
100
AcDbDictionary
281
     1
  3
Imperial24
350
69
  0
DICTIONARY
  5
64
102
{ACAD_REACTORS
330
C
102
}
330
C
100
AcDbDictionary
281
     1
  3
Standard
350
65
  0
DICTIONARY
  5
29
102
{ACAD_REACTORS
330
C
102
}
330
C
100
AcDbDictionary
281
     1
  3
2dWireframe
350
2F
  3
Basic
350
2E
  3
Brighten
350
35
  3
ColorChange
350
39
  3
Conceptual
350
32
  3
Dim
350
34
  3
EdgeColorOff
350
41
  3
Facepattern
350
38
  3
Flat
350
2A
  3
FlatWithEdges
350
2B
  3
Gouraud
350
2C
  3
GouraudWithEdges
350
2D
  3
Hidden
350
31
  3
JitterOff
350
3F
  3
Linepattern
350
37
  3
OverhangOff
350
40
  3
Realistic
350
33
  3
Shaded
350
3E
  3
Shaded with edges
350
3D
  3
Shades of Gray
350
3A
  3
Sketchy
350
3B
  3
Thicken
350
36
  3
Wireframe
350
30
  3
X-Ray
350
3C
  0
XRECORD
  5
268
102
{ACAD_REACTORS
330
C
102
}
330
C
100
AcDbXrecord
280
     1
 90
        1
330
65
  0
DICTIONARY
  5
260
102
{ACAD_REACTORS
330
C
102
}
330
C
100
AcDbDictionary
281
     1
  3
CANNOSCALE
350
265
  3
CMLEADERSTYLE
350
262
  3
CTABLESTYLE
350
261
  3
CVIEWDETAILSTYLE
350
263
  3
CVIEWSECTIONSTYLE
350
264
  0
ACDBDETAILVIEWSTYLE
  5
6B
102
{ACAD_REACTORS
330
6A
102
}
330
6A
100
AcDbModelDocViewStyle
 70
     0
  3
Imperial24
290
     1
300
Imperial24
 90
        0
100
AcDbDetailViewStyle
 70
     0
 71
     0
 90
        3
 71
     1
340
55
 62
   256
 40
0.24
340
0
 62
   256
 40
0.24
300

 40
0.36
280
     3
 71
     2
340
5D
 90
       25
 62
   256
 71
     3
340
55
 62
   256
 40
0.24
 90
        1
 40
0.75
 90
        1
300
%<\AcVar ViewType \f "%tc1">% %<\AcVar ViewDetailId>%\PSCALE %<\AcVar ViewScale \f "%sn">%
 71
     4
340
5D
 90
       25
 62
   256
340
5D
 90
       25
 62
   256
280
     0
  0
LAYOUT
  5
6F
102
{ACAD_REACTORS
330
62
102
}
330
62
100
AcDbPlotSettings
  1

  2

  4

  6

 40
0.0
 41
0.0
 42
0.0
 43
0.0
 44
0.0
 45
0.0
 46
0.0
 47
0.0
 48
0.0
 49
0.0
140
0.0
141
0.0
142
1.0
143
1.0
 70
   688
 72
     0
 73
     0
 74
     5
  7

 75
    16
147
1.0
 76
     0
 77
     2
 78
   300
148
0.0
149
0.0
100
AcDbLayout
  1
Layout1
 70
     1
 71
     1
 10
0.0
 20
0.0
 11
12.0
 21
9.0
 12
0.0
 22
0.0
 32
0.0
 14
0.0
 24
0.0
 34
0.0
 15
0.0
 25
0.0
 35
0.0
146
0.0
 13
0.0
 23
0.0
 33
0.0
 16
1.0
 26
0.0
 36
0.0
 17
0.0
 27
1.0
 37
0.0
 76
     0
330
6C
  0
LAYOUT
  5
77
102
{ACAD_REACTORS
330
62
102
}
330
62
100
AcDbPlotSettings
  1

  2

  4

  6

 40
0.0
 41
0.0
 42
0.0
 43
0.0
 44
0.0
 45
0.0
 46
0.0
 47
0.0
 48
0.0
 49
0.0
140
0.0
141
0.0
142
1.0
143
1.0
 70
   688
 72
     0
 73
     0
 74
     5
  7

 75
    16
147
1.0
 76
     0
 77
     2
 78
   300
148
0.0
149
0.0
100
AcDbLayout
  1
Layout2
 70
     1
 71
     2
 10
0.0
 20
0.0
 11
12.0
 21
9.0
 12
0.0
 22
0.0
 32
0.0
 14
0.0
 24
0.0
 34
0.0
 15
0.0
 25
0.0
 35
0.0
146
0.0
 13
0.0
 23
0.0
 33
0.0
 16
1.0
 26
0.0
 36
0.0
 17
0.0
 27
1.0
 37
0.0
 76
     0
330
74
  0
LAYOUT
  5
73
102
{ACAD_REACTORS
330
62
102
}
330
62
100
AcDbPlotSettings
  1

  2

  4

  6

 40
0.0
 41
0.0
 42
0.0
 43
0.0
 44
0.0
 45
0.0
 46
0.0
 47
0.0
 48
0.0
 49
0.0
140
0.0
141
0.0
142
1.0
143
1.0
 70
  1712
 72
     0
 73
     0
 74
     0
  7

 75
     0
147
1.0
 76
     0
 77
     2
 78
   300
148
0.0
149
0.0
100
AcDbLayout
  1
Model
 70
     1
 71
     0
 10
0.0
 20
0.0
 11
12.0
 21
9.0
 12
0.0
 22
0.0
 32
0.0
 14
0.0
 24
0.0
 34
0.0
 15
0.0
 25
0.0
 35
0.0
146
0.0
 13
0.0
 23
0.0
 33
0.0
 16
1.0
 26
0.0
 36
0.0
 17
0.0
 27
1.0
 37
0.0
 76
     0
330
70
  0
MATERIAL
  5
19
102
{ACAD_XDICTIONARY
360
1A
102
}
102
{ACAD_REACTORS
330
10
102
}
330
10
100
AcDbMaterial
  1
ByBlock
 72
     0
 43
0.0208333333333333
 43
0.0
 43
0.0
 43
0.0
 43
0.0
 43
0.0208333333333333
 43
0.0
 43
0.0
 43
0.0
 43
0.0
 43
1.0
 43
0.0
 43
0.0
 43
0.0
 43
0.0
 43
1.0
 77
     0
 47
0.0208333333333333
 47
0.0
 47
0.0
 47
0.0
 47
0.0
 47
0.0208333333333333
 47
0.0
 47
0.0
 47
0.0
 47
0.0
 47
1.0
 47
0.0
 47
0.0
 47
0.0
 47
0.0
 47
1.0
171
     0
 49
0.0208333333333333
 49
0.0
 49
0.0
 49
0.0
 49
0.0
 49
0.0208333333333333
 49
0.0
 49
0.0
 49
0.0
 49
0.0
 49
1.0
 49
0.0
 49
0.0
 49
0.0
 49
0.0
 49
1.0
175
     0
142
0.0208333333333333
142
0.0
142
0.0
142
0.0
142
0.0
142
0.0208333333333333
142
0.0
142
0.0
142
0.0
142
0.0
142
1.0
142
0.0
142
0.0
142
0.0
142
0.0
142
1.0
179
     0
144
0.0208333333333333
144
0.0
144
0.0
144
0.0
144
0.0
144
0.0208333333333333
144
0.0
144
0.0
144
0.0
144
0.0
144
1.0
144
0.0
144
0.0
144
0.0
144
0.0
144
1.0
147
0.0208333333333333
147
0.0
147
0.0
147
0.0
147
0.0
147
0.0208333333333333
147
0.0
147
0.0
147
0.0
147
0.0
147
1.0
147
0.0
147
0.0
147
0.0
147
0.0
147
1.0
  0
MATERIAL
  5
11
102
{ACAD_XDICTIONARY
360
12
102
}
102
{ACAD_REACTORS
330
10
102
}
330
10
100
AcDbMaterial
  1
ByLayer
 72
     0
 43
0.0208333333333333
 43
0.0
 43
0.0
 43
0.0
 43
0.0
 43
0.0208333333333333
 43
0.0
 43
0.0
 43
0.0
 43
0.0
 43
1.0
 43
0.0
 43
0.0
 43
0.0
 43
0.0
 43
1.0
 77
     0
 47
0.0208333333333333
 47
0.0
 47
0.0
 47
0.0
 47
0.0
 47
0.0208333333333333
 47
0.0
 47
0.0
 47
0.0
 47
0.0
 47
1.0
 47
0.0
 47
0.0
 47
0.0
 47
0.0
 47
1.0
171
     0
 49
0.0208333333333333
 49
0.0
 49
0.0
 49
0.0
 49
0.0
 49
0.0208333333333333
 49
0.0
 49
0.0
 49
0.0
 49
0.0
 49
1.0
 49
0.0
 49
0.0
 49
0.0
 49
0.0
 49
1.0
175
     0
142
0.0208333333333333
142
0.0
142
0.0
142
0.0
142
0.0
142
0.0208333333333333
142
0.0
142
0.0
142
0.0
142
0.0
142
1.0
142
0.0
142
0.0
142
0.0
142
0.0
142
1.0
179
     0
144
0.0208333333333333
144
0.0
144
0.0
144
0.0
144
0.0
144
0.0208333333333333
144
0.0
144
0.0
144
0.0
144
0.0
144
1.0
144
0.0
144
0.0
144
0.0
144
0.0
144
1.0
147
0.0208333333333333
147
0.0
147
0.0
147
0.0
147
0.0
147
0.0208333333333333
147
0.0
147
0.0
147
0.0
147
0.0
147
1.0
147
0.0
147
0.0
147
0.0
147
0.0
147
1.0
  0
MATERIAL
  5
21
102
{ACAD_XDICTIONARY
360
22
102
}
102
{ACAD_REACTORS
330
10
102
}
330
10
100
AcDbMaterial
  1
Global
 72
     0
 43
0.0208333333333333
 43
0.0
 43
0.0
 43
0.0
 43
0.0
 43
0.0208333333333333
 43
0.0
 43
0.0
 43
0.0
 43
0.0
 43
1.0
 43
0.0
 43
0.0
 43
0.0
 43
0.0
 43
1.0
 77
     0
 47
0.0208333333333333
 47
0.0
 47
0.0
 47
0.0
 47
0.0
 47
0.0208333333333333
 47
0.0
 47
0.0
 47
0.0
 47
0.0
 47
1.0
 47
0.0
 47
0.0
 47
0.0
 47
0.0
 47
1.0
171
     0
 49
0.0208333333333333
 49
0.0
 49
0.0
 49
0.0
 49
0.0
 49
0.0208333333333333
 49
0.0
 49
0.0
 49
0.0
 49
0.0
 49
1.0
 49
0.0
 49
0.0
 49
0.0
 49
0.0
 49
1.0
175
     0
142
0.0208333333333333
142
0.0
142
0.0
142
0.0
142
0.0
142
0.0208333333333333
142
0.0
142
0.0
142
0.0
142
0.0
142
1.0
142
0.0
142
0.0
142
0.0
142
0.0
142
1.0
179
     0
144
0.0208333333333333
144
0.0
144
0.0
144
0.0
144
0.0
144
0.0208333333333333
144
0.0
144
0.0
144
0.0
144
0.0
144
1.0
144
0.0
144
0.0
144
0.0
144
0.0
144
1.0
147
0.0208333333333333
147
0.0
147
0.0
147
0.0
147
0.0
147
0.0208333333333333
147
0.0
147
0.0
147
0.0
147
0.0
147
1.0
147
0.0
147
0.0
147
0.0
147
0.0
147
1.0
  0
MLEADERSTYLE
  5
67
102
{ACAD_REACTORS
330
66
102
}
330
66
100
AcDbMLeaderStyle
179
     2
170
     2
171
     1
172
     0
 90
        2
 40
0.0
 41
0.0
173
     1
 91
-1056964608
340
5B
 92
       -2
290
     1
 42
0.09
291
     1
 43
0.36
  3
Standard
 44
0.18
300

342
55
174
     1
178
     6
175
     1
176
     0
 93
-1056964608
 45
0.18
292
     0
297
     0
 46
0.18
 94
-1056964608
 47
1.0
 49
1.0
140
1.0
293
     1
141
0.0
294
     1
177
     0
142
1.0
295
     1
296
     0
143
0.125
271
     0
272
     9
273
     9
298
     1
  0
MLINESTYLE
  5
60
102
{ACAD_REACTORS
330
5F
102
}
330
5F
100
AcDbMlineStyle
  2
STANDARD
 70
     0
  3

 62
   256
 51
90.0
 52
90.0
 71
     2
 49
0.5
 62
   256
  6
BYLAYER
 49
-0.5
 62
   256
  6
BYLAYER
  0
ACDBPLACEHOLDER
  5
F
102
{ACAD_REACTORS
330
E
102
}
330
E
  0
SCALE
  5
43
102
{ACAD_REACTORS
330
42
102
}
330
42
100
AcDbScale
 70
     0
300
1:1
140
1.0
141
1.0
290
     1
  0
SCALE
  5
44
102
{ACAD_REACTORS
330
42
102
}
330
42
100
AcDbScale
 70
     0
300
1/128" = 1'-0"
140
0.0078125
141
12.0
290
     0
  0
SCALE
  5
45
102
{ACAD_REACTORS
330
42
102
}
330
42
100
AcDbScale
 70
     0
300
1/64" = 1'-0"
140
0.015625
141
12.0
290
     0
  0
SCALE
  5
46
102
{ACAD_REACTORS
330
42
102
}
330
42
100
AcDbScale
 70
     0
300
1/32" = 1'-0"
140
0.03125
141
12.0
290
     0
  0
SCALE
  5
47
102
{ACAD_REACTORS
330
42
102
}
330
42
100
AcDbScale
 70
     0
300
1/16" = 1'-0"
140
0.0625
141
12.0
290
     0
  0
SCALE
  5
48
102
{ACAD_REACTORS
330
42
102
}
330
42
100
AcDbScale
 70
     0
300
3/32" = 1'-0"
140
0.09375
141
12.0
290
     0
  0
SCALE
  5
49
102
{ACAD_REACTORS
330
42
102
}
330
42
100
AcDbScale
 70
     0
300
1/8" = 1'-0"
140
0.125
141
12.0
290
     0
  0
SCALE
  5
4A
102
{ACAD_REACTORS
330
42
102
}
330
42
100
AcDbScale
 70
     0
300
3/16" = 1'-0"
140
0.1875
141
12.0
290
     0
  0
SCALE
  5
4B
102
{ACAD_REACTORS
330
42
102
}
330
42
100
AcDbScale
 70
     0
300
1/4" = 1'-0"
140
0.25
141
12.0
290
     0
  0
SCALE
  5
4C
102
{ACAD_REACTORS
330
42
102
}
330
42
100
AcDbScale
 70
     0
300
3/8" = 1'-0"
140
0.375
141
12.0
290
     0
  0
SCALE
  5
4D
102
{ACAD_REACTORS
330
42
102
}
330
42
100
AcDbScale
 70
     0
300
1/2" = 1'-0"
140
0.5
141
12.0
290
     0
  0
SCALE
  5
4E
102
{ACAD_REACTORS
330
42
102
}
330
42
100
AcDbScale
 70
     0
300
3/4" = 1'-0"
140
0.75
141
12.0
290
     0
  0
SCALE
  5
4F
102
{ACAD_REACTORS
330
42
102
}
330
42
100
AcDbScale
 70
     0
300
1" = 1'-0"
140
1.0
141
12.0
290
     0
  0
SCALE
  5
50
102
{ACAD_REACTORS
330
42
102
}
330
42
100
AcDbScale
 70
     0
300
1-1/2" = 1'-0"
140
1.5
141
12.0
290
     0
  0
SCALE
  5
51
102
{ACAD_REACTORS
330
42
102
}
330
42
100
AcDbScale
 70
     0
300
3" = 1'-0"
140
3.0
141
12.0
290
     0
  0
SCALE
  5
52
102
{ACAD_REACTORS
330
42
102
}
330
42
100
AcDbScale
 70
     0
300
6" = 1'-0"
140
6.0
141
12.0
290
     0
  0
SCALE
  5
53
102
{ACAD_REACTORS
330
42
102
}
330
42
100
AcDbScale
 70
     0
300
1'-0" = 1'-0"
140
12.0
141
12.0
290
     0
  0
ACDBSECTIONVIEWSTYLE
  5
69
102
{ACAD_REACTORS
330
68
102
}
330
68
100
AcDbModelDocViewStyle
 70
     0
  3
Imperial24
290
     1
300
Imperial24
 90
        0
100
AcDbSectionViewStyle
 70
     0
 71
     0
 90
       78
 71
     1
340
55
 62
   256
 40
0.24
340
0
340
0
 62
   256
 40
0.24
300
I, O, Q, S, X, Z
 40
0.48
 90
        3
 40
0.18
 90
        1
 71
     2
340
5D
 90
       25
 62
   256
340
5D
 90
       50
 62
   256
 40
0.24
 40
0.0
 40
0.24
 71
     3
340
55
 62
   256
 40
0.24
 90
        1
 40
0.75
 90
        1
300
%<\AcVar ViewType \f "%tc1">% %<\AcVar ViewSectionStartId>%-%<\AcVar ViewSectionEndId>%\PSCALE %<\AcVar ViewScale \f "%sn">%
 71
     4
 62
   256
 62
   257
300
ANSI31
 40
1.0
 90
        0
290
     0
290
     0
 90
        6
 40
0.0
 40
1.570796326794896
 40
0.2617993877991494
 40
1.308996938995747
 40
-0.2617993877991494
 40
1.832595714594046
  0
TABLESTYLE
  5
65
102
{ACAD_XDICTIONARY
360
266
102
}
102
{ACAD_REACTORS
330
64
102
}
330
64
100
AcDbTableStyle
280
     0
  3
Standard
 70
     0
 71
     0
 40
0.06
 41
0.06
280
     0
281
     0
  7
Standard
140
0.18
170
     2
 62
     0
 63
     7
283
     0
 90
      512
 91
        0
  1

274
    -2
284
     1
 64
     0
275
    -2
285
     1
 65
     0
276
    -2
286
     1
 66
     0
277
    -2
287
     1
 67
     0
278
    -2
288
     1
 68
     0
279
    -2
289
     1
 69
     0
  7
Standard
140
0.25
170
     5
 62
     0
 63
     7
283
     0
 90
      512
 91
        0
  1

274
    -2
284
     1
 64
     0
275
    -2
285
     1
 65
     0
276
    -2
286
     1
 66
     0
277
    -2
287
     1
 67
     0
278
    -2
288
     1
 68
     0
279
    -2
289
     1
 69
     0
  7
Standard
140
0.18
170
     5
 62
     0
 63
     7
283
     0
 90
      512
 91
        0
  1

274
    -2
284
     1
 64
     0
275
    -2
285
     1
 65
     0
276
    -2
286
     1
 66
     0
277
    -2
287
     1
 67
     0
278
    -2
288
     1
 68
     0
279
    -2
289
     1
 69
     0
  0
VISUALSTYLE
  5
2F
102
{ACAD_REACTORS
330
29
102
}
330
29
100
AcDbVisualStyle
  2
2dWireframe
 70
     4
177
     3
291
     0
 70
    58
 90
        0
176
     1
 90
        2
176
     1
 90
        0
176
     1
 90
        0
176
     1
 40
0.6
176
     1
 40
30.0
176
     1
 62
     7
420
 16777215
176
     1
 90
        1
176
     1
 90
        4
176
     1
 62
     7
176
     1
 62
   257
176
     1
 90
        1
176
     1
 90
        1
176
     1
 40
1.0
176
     1
 90
        0
176
     1
 62
   257
176
     1
 40
1.0
176
     1
 90
        1
176
     1
 90
        6
176
     1
 90
        2
176
     1
 62
     7
176
     1
 90
        5
176
     1
 90
        0
176
     1
 90
        0
176
     1
290
     0
176
     1
 90
        1
176
     1
 40
0.0
176
     1
 90
        0
176
     1
290
     1
176
     1
290
     1
176
     1
290
     0
176
     1
290
     0
176
     1
290
     0
176
     1
290
     0
176
     1
290
     0
176
     1
290
     0
176
     1
290
     0
176
     1
 90
       50
176
     1
 40
0.0
176
     1
 40
1.0
176
     1
 90
        0
176
     1
 62
    18
420
        0
176
     1
 90
       50
176
     1
 90
        3
176
     1
 62
     5
420
      255
176
     1
290
     0
176
     1
 90
       50
176
     1
 90
       50
176
     1
 90
       50
176
     1
290
     0
176
     1
 90
       50
176
     1
 62
   256
176
     0
 40
1.0
176
     0
 90
        2
176
     1
  1
strokes_ogs.tif
176
     1
290
     0
176
     1
 40
1.0
176
     1
 40
1.0
176
     1
  0
VISUALSTYLE
  5
2E
102
{ACAD_REACTORS
330
29
102
}
330
29
100
AcDbVisualStyle
  2
Basic
 70
     7
177
     3
291
     1
 70
    58
 90
        1
176
     1
 90
        0
176
     1
 90
        1
176
     1
 90
        0
176
     1
 40
0.6
176
     1
 40
30.0
176
     1
 62
     7
420
 16777215
176
     1
 90
        0
176
     1
 90
        4
176
     1
 62
     7
176
     1
 62
   257
176
     1
 90
        1
176
     1
 90
        1
176
     1
 40
1.0
176
     1
 90
        8
176
     1
 62
     7
176
     1
 40
1.0
176
     1
 90
        1
176
     1
 90
        6
176
     1
 90
        2
176
     1
 62
     7
176
     1
 90
        5
176
     1
 90
        0
176
     1
 90
        0
176
     1
290
     0
176
     1
 90
        1
176
     1
 40
0.0
176
     1
 90
        0
176
     1
290
     0
176
     1
290
     1
176
     1
290
     1
176
     1
290
     0
176
     1
290
     0
176
     1
290
     0
176
     1
290
     0
176
     1
290
     0
176
     1
290
     0
176
     1
 90
       50
176
     1
 40
0.0
176
     1
 40
1.0
176
     1
 90
        0
176
     1
 62
    18
420
        0
176
     1
 90
       50
176
     1
 90
        3
176
     1
 62
     5
420
      255
176
     1
290
     0
176
     1
 90
       50
176
     1
 90
       50
176
     1
 90
       50
176
     1
290
     0
176
     1
 90
       50
176
     1
 62
   256
176
     0
 40
1.0
176
     0
 90
        2
176
     1
  1
strokes_ogs.tif
176
     1
290
     0
176
     1
 40
1.0
176
     1
 40
1.0
176
     1
  0
VISUALSTYLE
  5
35
102
{ACAD_REACTORS
330
29
102
}
330
29
100
AcDbVisualStyle
  2
Brighten
 70
    12
177
     3
291
     1
 70
    58
 90
        2
176
     1
 90
        2
176
     1
 90
        0
176
     1
 90
        0
176
     1
 40
0.6
176
     1
 40
30.0
176
     1
 62
     7
420
 16777215
176
     1
 90
        1
176
     1
 90
        4
176
     1
 62
     7
176
     1
 62
   257
176
     1
 90
        1
176
     1
 90
        1
176
     1
 40
1.0
176
     1
 90
        8
176
     1
 62
     7
176
     1
 40
1.0
176
     1
 90
        1
176
     1
 90
        6
176
     1
 90
        2
176
     1
 62
     7
176
     1
 90
        5
176
     1
 90
        0
176
     1
 90
        0
176
     1
290
     0
176
     1
 90
        1
176
     1
 40
50.0
176
     1
 90
        0
176
     1
290
     0
176
     1
290
     1
176
     1
290
     1
176
     1
290
     0
176
     1
290
     0
176
     1
290
     0
176
     1
290
     0
176
     1
290
     0
176
     1
290
     0
176
     1
 90
       50
176
     1
 40
0.0
176
     1
 40
1.0
176
     1
 90
        0
176
     1
 62
    18
420
        0
176
     1
 90
       50
176
     1
 90
        3
176
     1
 62
     5
420
      255
176
     1
290
     0
176
     1
 90
       50
176
     1
 90
       50
176
     1
 90
       50
176
     1
290
     0
176
     1
 90
       50
176
     1
 62
   256
176
     0
 40
1.0
176
     0
 90
        2
176
     1
  1
strokes_ogs.tif
176
     1
290
     0
176
     1
 40
1.0
176
     1
 40
1.0
176
     1
  0
VISUALSTYLE
  5
39
102
{ACAD_REACTORS
330
29
102
}
330
29
100
AcDbVisualStyle
  2
ColorChange
 70
    16
177
     3
291
     1
 70
    58
 90
        2
176
     1
 90
        2
176
     1
 90
        3
176
     1
 90
        0
176
     1
 40
0.6
176
     1
 40
30.0
176
     1
 62
     8
420
  8421504
176
     1
 90
        1
176
     1
 90
        4
176
     1
 62
     7
176
     1
 62
   257
176
     1
 90
        1
176
     1
 90
        1
176
     1
 40
1.0
176
     1
 90
        8
176
     1
 62
     8
420
  8421504
176
     1
 40
1.0
176
     1
 90
        1
176
     1
 90
        6
176
     1
 90
        2
176
     1
 62
     7
176
     1
 90
        5
176
     1
 90
        0
176
     1
 90
        0
176
     1
290
     0
176
     1
 90
        1
176
     1
 40
0.0
176
     1
 90
        0
176
     1
290
     0
176
     1
290
     1
176
     1
290
     1
176
     1
290
     0
176
     1
290
     0
176
     1
290
     0
176
     1
290
     0
176
     1
290
     0
176
     1
290
     0
176
     1
 90
       50
176
     1
 40
0.0
176
     1
 40
1.0
176
     1
 90
        0
176
     1
 62
    18
420
        0
176
     1
 90
       50
176
     1
 90
        3
176
     1
 62
     5
420
      255
176
     1
290
     0
176
     1
 90
       50
176
     1
 90
       50
176
     1
 90
       50
176
     1
290
     0
176
     1
 90
       50
176
     1
 62
   256
176
     0
 40
1.0
176
     0
 90
        2
176
     1
  1
strokes_ogs.tif
176
     1
290
     0
176
     1
 40
1.0
176
     1
 40
1.0
176
     1
  0
VISUALSTYLE
  5
32
102
{ACAD_REACTORS
330
29
102
}
330
29
100
AcDbVisualStyle
  2
Conceptual
 70
     9
177
     3
291
     0
 70
    58
 90
        3
176
     1
 90
        2
176
     1
 90
        0
176
     1
 90
        0
176
     1
 40
0.6
176
     1
 40
30.0
176
     1
 62
     7
420
 16777215
176
     1
 90
        2
176
     1
 90
        2
176
     1
 62
     7
176
     1
 62
   257
176
     1
 90
        1
176
     1
 90
        1
176
     1
 40
179.0
176
     1
 90
        8
176
     1
 62
     7
176
     1
 40
1.0
176
     1
 90
        1
176
     1
 90
        6
176
     1
 90
        2
176
     1
 62
     7
176
     1
 90
        3
176
     1
 90
        0
176
     1
 90
        0
176
     1
290
     0
176
     1
 90
        1
176
     1
 40
0.0
176
     1
 90
        0
176
     1
290
     0
176
     1
290
     1
176
     1
290
     1
176
     1
290
     0
176
     1
290
     0
176
     1
290
     0
176
     1
290
     0
176
     1
290
     0
176
     1
290
     0
176
     1
 90
       50
176
     1
 40
0.0
176
     1
 40
1.0
176
     1
 90
        0
176
     1
 62
    18
420
        0
176
     1
 90
       50
176
     1
 90
        3
176
     1
 62
     5
420
      255
176
     1
290
     0
176
     1
 90
       50
176
     1
 90
       50
176
     1
 90
       50
176
     1
290
     0
176
     1
 90
       50
176
     1
 62
   256
176
     0
 40
1.0
176
     0
 90
        2
176
     1
  1
strokes_ogs.tif
176
     1
290
     0
176
     1
 40
1.0
176
     1
 40
1.0
176
     1
  0
VISUALSTYLE
  5
34
102
{ACAD_REACTORS
330
29
102
}
330
29
100
AcDbVisualStyle
  2
Dim
 70
    11
177
     3
291
     1
 70
    58
 90
        2
176
     1
 90
        2
176
     1
 90
        0
176
     1
 90
        0
176
     1
 40
0.6
176
     1
 40
30.0
176
     1
 62
     7
420
 16777215
176
     1
 90
        1
176
     1
 90
        4
176
     1
 62
     7
176
     1
 62
   257
176
     1
 90
        1
176
     1
 90
        1
176
     1
 40
1.0
176
     1
 90
        8
176
     1
 62
     7
176
     1
 40
1.0
176
     1
 90
        1
176
     1
 90
        6
176
     1
 90
        2
176
     1
 62
     7
176
     1
 90
        5
176
     1
 90
        0
176
     1
 90
        0
176
     1
290
     0
176
     1
 90
        1
176
     1
 40
-50.0
176
     1
 90
        0
176
     1
290
     0
176
     1
290
     1
176
     1
290
     1
176
     1
290
     0
176
     1
290
     0
176
     1
290
     0
176
     1
290
     0
176
     1
290
     0
176
     1
290
     0
176
     1
 90
       50
176
     1
 40
0.0
176
     1
 40
1.0
176
     1
 90
        0
176
     1
 62
    18
420
        0
176
     1
 90
       50
176
     1
 90
        3
176
     1
 62
     5
420
      255
176
     1
290
     0
176
     1
 90
       50
176
     1
 90
       50
176
     1
 90
       50
176
     1
290
     0
176
     1
 90
       50
176
     1
 62
   256
176
     0
 40
1.0
176
     0
 90
        2
176
     1
  1
strokes_ogs.tif
176
     1
290
     0
176
     1
 40
1.0
176
     1
 40
1.0
176
     1
  0
VISUALSTYLE
  5
41
102
{ACAD_REACTORS
330
29
102
}
330
29
100
AcDbVisualStyle
  2
EdgeColorOff
 70
    22
177
     3
291
     1
 70
    58
 90
        2
176
     0
 90
        2
176
     0
 90
        0
176
     0
 90
        0
176
     0
 40
0.6
176
     0
 40
30.0
176
     0
 62
     7
420
 16777215
176
     0
 90
        1
176
     0
 90
        4
176
     0
 62
     7
176
     0
 62
   257
176
     0
 90
        1
176
     0
 90
        1
176
     0
 40
1.0
176
     0
 90
        8
176
     2
 62
     7
176
     0
 40
1.0
176
     0
 90
        1
176
     0
 90
        6
176
     0
 90
        2
176
     0
 62
     7
176
     0
 90
        5
176
     0
 90
        0
176
     0
 90
        0
176
     0
290
     0
176
     0
 90
        1
176
     0
 40
0.0
176
     0
 90
        0
176
     0
290
     0
176
     0
290
     1
176
     0
290
     1
176
     0
290
     0
176
     0
290
     0
176
     0
290
     0
176
     0
290
     0
176
     0
290
     0
176
     0
290
     0
176
     0
 90
       50
176
     0
 40
0.0
176
     0
 40
1.0
176
     0
 90
        0
176
     0
 62
    18
420
        0
176
     0
 90
       50
176
     0
 90
        3
176
     0
 62
     5
420
      255
176
     0
290
     0
176
     0
 90
       50
176
     0
 90
       50
176
     0
 90
       50
176
     0
290
     0
176
     0
 90
       50
176
     0
 62
   256
176
     0
 40
1.0
176
     0
 90
        2
176
     0
  1
strokes_ogs.tif
176
     0
290
     0
176
     0
 40
1.0
176
     0
 40
1.0
176
     0
  0
VISUALSTYLE
  5
38
102
{ACAD_REACTORS
330
29
102
}
330
29
100
AcDbVisualStyle
  2
Facepattern
 70
    15
177
     3
291
     1
 70
    58
 90
        2
176
     1
 90
        2
176
     1
 90
        0
176
     1
 90
        0
176
     1
 40
0.6
176
     1
 40
30.0
176
     1
 62
     7
420
 16777215
176
     1
 90
        1
176
     1
 90
        4
176
     1
 62
     7
176
     1
 62
   257
176
     1
 90
        1
176
     1
 90
        1
176
     1
 40
1.0
176
     1
 90
        8
176
     1
 62
     7
176
     1
 40
1.0
176
     1
 90
        1
176
     1
 90
        6
176
     1
 90
        2
176
     1
 62
     7
176
     1
 90
        5
176
     1
 90
        0
176
     1
 90
        0
176
     1
290
     0
176
     1
 90
        1
176
     1
 40
0.0
176
     1
 90
        0
176
     1
290
     0
176
     1
290
     1
176
     1
290
     1
176
     1
290
     0
176
     1
290
     0
176
     1
290
     0
176
     1
290
     0
176
     1
290
     0
176
     1
290
     0
176
     1
 90
       50
176
     1
 40
0.0
176
     1
 40
1.0
176
     1
 90
        0
176
     1
 62
    18
420
        0
176
     1
 90
       50
176
     1
 90
        3
176
     1
 62
     5
420
      255
176
     1
290
     0
176
     1
 90
       50
176
     1
 90
       50
176
     1
 90
       50
176
     1
290
     0
176
     1
 90
       50
176
     1
 62
   256
176
     0
 40
1.0
176
     0
 90
        2
176
     1
  1
strokes_ogs.tif
176
     1
290
     0
176
     1
 40
1.0
176
     1
 40
1.0
176
     1
  0
VISUALSTYLE
  5
2A
102
{ACAD_REACTORS
330
29
102
}
330
29
100
AcDbVisualStyle
  2
Flat
 70
     0
177
     3
291
     1
 70
    58
 90
        2
176
     1
 90
        1
176
     1
 90
        1
176
     1
 90
        2
176
     1
 40
0.6
176
     1
 40
30.0
176
     1
 62
     7
420
 16777215
176
     1
 90
        0
176
     1
 90
        0
176
     1
 62
     7
176
     1
 62
   257
176
     1
 90
        1
176
     1
 90
        1
176
     1
 40
1.0
176
     1
 90
        8
176
     1
 62
     7
176
     1
 40
1.0
176
     1
 90
        1
176
     1
 90
        6
176
     1
 90
        2
176
     1
 62
     7
176
     1
 90
        5
176
     1
 90
        0
176
     1
 90
        0
176
     1
290
     0
176
     1
 90
       13
176
     1
 40
0.0
176
     1
 90
        0
176
     1
290
     0
176
     1
290
     1
176
     1
290
     1
176
     1
290
     0
176
     1
290
     0
176
     1
290
     0
176
     1
290
     0
176
     1
290
     0
176
     1
290
     0
176
     1
 90
       50
176
     1
 40
0.0
176
     1
 40
1.0
176
     1
 90
        0
176
     1
 62
    18
420
        0
176
     1
 90
       50
176
     1
 90
        3
176
     1
 62
     5
420
      255
176
     1
290
     0
176
     1
 90
       50
176
     1
 90
       50
176
     1
 90
       50
176
     1
290
     0
176
     1
 90
       50
176
     1
 62
   256
176
     0
 40
1.0
176
     0
 90
        2
176
     1
  1
strokes_ogs.tif
176
     1
290
     0
176
     1
 40
1.0
176
     1
 40
1.0
176
     1
  0
VISUALSTYLE
  5
2B
102
{ACAD_REACTORS
330
29
102
}
330
29
100
AcDbVisualStyle
  2
FlatWithEdges
 70
     1
177
     3
291
     1
 70
    58
 90
        2
176
     1
 90
        1
176
     1
 90
        1
176
     1
 90
        2
176
     1
 40
0.6
176
     1
 40
30.0
176
     1
 62
     7
420
 16777215
176
     1
 90
        1
176
     1
 90
        0
176
     1
 62
     7
176
     1
 62
   257
176
     1
 90
        1
176
     1
 90
        1
176
     1
 40
1.0
176
     1
 90
        0
176
     1
 62
   257
176
     1
 40
1.0
176
     1
 90
        1
176
     1
 90
        6
176
     1
 90
        2
176
     1
 62
     7
176
     1
 90
        5
176
     1
 90
        0
176
     1
 90
        0
176
     1
290
     0
176
     1
 90
       13
176
     1
 40
0.0
176
     1
 90
        0
176
     1
290
     0
176
     1
290
     1
176
     1
290
     1
176
     1
290
     0
176
     1
290
     0
176
     1
290
     0
176
     1
290
     0
176
     1
290
     0
176
     1
290
     0
176
     1
 90
       50
176
     1
 40
0.0
176
     1
 40
1.0
176
     1
 90
        0
176
     1
 62
    18
420
        0
176
     1
 90
       50
176
     1
 90
        3
176
     1
 62
     5
420
      255
176
     1
290
     0
176
     1
 90
       50
176
     1
 90
       50
176
     1
 90
       50
176
     1
290
     0
176
     1
 90
       50
176
     1
 62
   256
176
     0
 40
1.0
176
     0
 90
        2
176
     1
  1
strokes_ogs.tif
176
     1
290
     0
176
     1
 40
1.0
176
     1
 40
1.0
176
     1
  0
VISUALSTYLE
  5
2C
102
{ACAD_REACTORS
330
29
102
}
330
29
100
AcDbVisualStyle
  2
Gouraud
 70
     2
177
     3
291
     1
 70
    58
 90
        2
176
     1
 90
        2
176
     1
 90
        1
176
     1
 90
        2
176
     1
 40
0.6
176
     1
 40
30.0
176
     1
 62
     7
420
 16777215
176
     1
 90
        0
176
     1
 90
        0
176
     1
 62
     7
176
     1
 62
   257
176
     1
 90
        1
176
     1
 90
        1
176
     1
 40
1.0
176
     1
 90
        0
176
     1
 62
     7
176
     1
 40
1.0
176
     1
 90
        1
176
     1
 90
        6
176
     1
 90
        2
176
     1
 62
     7
176
     1
 90
        5
176
     1
 90
        0
176
     1
 90
        0
176
     1
290
     0
176
     1
 90
       13
176
     1
 40
0.0
176
     1
 90
        0
176
     1
290
     0
176
     1
290
     1
176
     1
290
     1
176
     1
290
     0
176
     1
290
     0
176
     1
290
     0
176
     1
290
     0
176
     1
290
     0
176
     1
290
     0
176
     1
 90
       50
176
     1
 40
0.0
176
     1
 40
1.0
176
     1
 90
        0
176
     1
 62
    18
420
        0
176
     1
 90
       50
176
     1
 90
        3
176
     1
 62
     5
420
      255
176
     1
290
     0
176
     1
 90
       50
176
     1
 90
       50
176
     1
 90
       50
176
     1
290
     0
176
     1
 90
       50
176
     1
 62
   256
176
     0
 40
1.0
176
     0
 90
        2
176
     1
  1
strokes_ogs.tif
176
     1
290
     0
176
     1
 40
1.0
176
     1
 40
1.0
176
     1
  0
VISUALSTYLE
  5
2D
102
{ACAD_REACTORS
330
29
102
}
330
29
100
AcDbVisualStyle
  2
GouraudWithEdges
 70
     3
177
     3
291
     1
 70
    58
 90
        2
176
     1
 90
        2
176
     1
 90
        1
176
     1
 90
        2
176
     1
 40
0.6
176
     1
 40
30.0
176
     1
 62
     7
420
 16777215
176
     1
 90
        1
176
     1
 90
        0
176
     1
 62
     7
176
     1
 62
   257
176
     1
 90
        1
176
     1
 90
        1
176
     1
 40
1.0
176
     1
 90
        0
176
     1
 62
   257
176
     1
 40
1.0
176
     1
 90
        1
176
     1
 90
        6
176
     1
 90
        2
176
     1
 62
     7
176
     1
 90
        5
176
     1
 90
        0
176
     1
 90
        0
176
     1
290
     0
176
     1
 90
       13
176
     1
 40
0.0
176
     1
 90
        0
176
     1
290
     0
176
     1
290
     1
176
     1
290
     1
176
     1
290
     0
176
     1
290
     0
176
     1
290
     0
176
     1
290
     0
176
     1
290
     0
176
     1
290
     0
176
     1
 90
       50
176
     1
 40
0.0
176
     1
 40
1.0
176
     1
 90
        0
176
     1
 62
    18
420
        0
176
     1
 90
       50
176
     1
 90
        3
176
     1
 62
     5
420
      255
176
     1
290
     0
176
     1
 90
       50
176
     1
 90
       50
176
     1
 90
       50
176
     1
290
     0
176
     1
 90
       50
176
     1
 62
   256
176
     0
 40
1.0
176
     0
 90
        2
176
     1
  1
strokes_ogs.tif
176
     1
290
     0
176
     1
 40
1.0
176
     1
 40
1.0
176
     1
  0
VISUALSTYLE
  5
31
102
{ACAD_REACTORS
330
29
102
}
330
29
100
AcDbVisualStyle
  2
Hidden
 70
     6
177
     3
291
     0
 70
    58
 90
        1
176
     1
 90
        2
176
     1
 90
        2
176
     1
 90
        0
176
     1
 40
0.6
176
     1
 40
30.0
176
     1
 62
     7
420
 16777215
176
     1
 90
        2
176
     1
 90
        2
176
     1
 62
     7
176
     1
 62
   257
176
     1
 90
        2
176
     1
 90
        1
176
     1
 40
40.0
176
     1
 90
        0
176
     1
 62
   257
176
     1
 40
1.0
176
     1
 90
        1
176
     1
 90
        6
176
     1
 90
        2
176
     1
 62
     7
176
     1
 90
        3
176
     1
 90
        0
176
     1
 90
        0
176
     1
290
     0
176
     1
 90
        1
176
     1
 40
0.0
176
     1
 90
        0
176
     1
290
     0
176
     1
290
     1
176
     1
290
     1
176
     1
290
     0
176
     1
290
     0
176
     1
290
     0
176
     1
290
     0
176
     1
290
     0
176
     1
290
     0
176
     1
 90
       50
176
     1
 40
0.0
176
     1
 40
1.0
176
     1
 90
        0
176
     1
 62
    18
420
        0
176
     1
 90
       50
176
     1
 90
        3
176
     1
 62
     5
420
      255
176
     1
290
     0
176
     1
 90
       50
176
     1
 90
       50
176
     1
 90
       50
176
     1
290
     0
176
     1
 90
       50
176
     1
 62
   256
176
     0
 40
1.0
176
     0
 90
        2
176
     1
  1
strokes_ogs.tif
176
     1
290
     0
176
     1
 40
1.0
176
     1
 40
1.0
176
     1
  0
VISUALSTYLE
  5
3F
102
{ACAD_REACTORS
330
29
102
}
330
29
100
AcDbVisualStyle
  2
JitterOff
 70
    20
177
     3
291
     1
 70
    58
 90
        2
176
     0
 90
        2
176
     0
 90
        0
176
     0
 90
        0
176
     0
 40
0.6
176
     0
 40
30.0
176
     0
 62
     7
420
 16777215
176
     0
 90
        1
176
     0
 90
        4
176
     0
 62
     7
176
     0
 62
   257
176
     0
 90
        1
176
     0
 90
        1
176
     0
 40
1.0
176
     0
 90
       10
176
     2
 62
     7
176
     0
 40
1.0
176
     0
 90
        1
176
     0
 90
        6
176
     0
 90
        2
176
     0
 62
     7
176
     0
 90
        5
176
     0
 90
        0
176
     0
 90
        0
176
     0
290
     0
176
     0
 90
        1
176
     0
 40
0.0
176
     0
 90
        0
176
     0
290
     0
176
     0
290
     1
176
     0
290
     1
176
     0
290
     0
176
     0
290
     0
176
     0
290
     0
176
     0
290
     0
176
     0
290
     0
176
     0
290
     0
176
     0
 90
       50
176
     0
 40
0.0
176
     0
 40
1.0
176
     0
 90
        0
176
     0
 62
    18
420
        0
176
     0
 90
       50
176
     0
 90
        3
176
     0
 62
     5
420
      255
176
     0
290
     0
176
     0
 90
       50
176
     0
 90
       50
176
     0
 90
       50
176
     0
290
     0
176
     0
 90
       50
176
     0
 62
   256
176
     0
 40
1.0
176
     0
 90
        2
176
     0
  1
strokes_ogs.tif
176
     0
290
     0
176
     0
 40
1.0
176
     0
 40
1.0
176
     0
  0
VISUALSTYLE
  5
37
102
{ACAD_REACTORS
330
29
102
}
330
29
100
AcDbVisualStyle
  2
Linepattern
 70
    14
177
     3
291
     1
 70
    58
 90
        2
176
     1
 90
        2
176
     1
 90
        0
176
     1
 90
        0
176
     1
 40
0.6
176
     1
 40
30.0
176
     1
 62
     7
420
 16777215
176
     1
 90
        1
176
     1
 90
        4
176
     1
 62
     7
176
     1
 62
   257
176
     1
 90
        7
176
     1
 90
        7
176
     1
 40
1.0
176
     1
 90
        8
176
     1
 62
     7
176
     1
 40
1.0
176
     1
 90
        1
176
     1
 90
        6
176
     1
 90
        2
176
     1
 62
     7
176
     1
 90
        5
176
     1
 90
        0
176
     1
 90
        0
176
     1
290
     0
176
     1
 90
        1
176
     1
 40
0.0
176
     1
 90
        0
176
     1
290
     0
176
     1
290
     1
176
     1
290
     1
176
     1
290
     0
176
     1
290
     0
176
     1
290
     0
176
     1
290
     0
176
     1
290
     0
176
     1
290
     0
176
     1
 90
       50
176
     1
 40
0.0
176
     1
 40
1.0
176
     1
 90
        0
176
     1
 62
    18
420
        0
176
     1
 90
       50
176
     1
 90
        3
176
     1
 62
     5
420
      255
176
     1
290
     0
176
     1
 90
       50
176
     1
 90
       50
176
     1
 90
       50
176
     1
290
     0
176
     1
 90
       50
176
     1
 62
   256
176
     0
 40
1.0
176
     0
 90
        2
176
     1
  1
strokes_ogs.tif
176
     1
290
     0
176
     1
 40
1.0
176
     1
 40
1.0
176
     1
  0
VISUALSTYLE
  5
40
102
{ACAD_REACTORS
330
29
102
}
330
29
100
AcDbVisualStyle
  2
OverhangOff
 70
    21
177
     3
291
     1
 70
    58
 90
        2
176
     0
 90
        2
176
     0
 90
        0
176
     0
 90
        0
176
     0
 40
0.6
176
     0
 40
30.0
176
     0
 62
     7
420
 16777215
176
     0
 90
        1
176
     0
 90
        4
176
     0
 62
     7
176
     0
 62
   257
176
     0
 90
        1
176
     0
 90
        1
176
     0
 40
1.0
176
     0
 90
        9
176
     2
 62
     7
176
     0
 40
1.0
176
     0
 90
        1
176
     0
 90
        6
176
     0
 90
        2
176
     0
 62
     7
176
     0
 90
        5
176
     0
 90
        0
176
     0
 90
        0
176
     0
290
     0
176
     0
 90
        1
176
     0
 40
0.0
176
     0
 90
        0
176
     0
290
     0
176
     0
290
     1
176
     0
290
     1
176
     0
290
     0
176
     0
290
     0
176
     0
290
     0
176
     0
290
     0
176
     0
290
     0
176
     0
290
     0
176
     0
 90
       50
176
     0
 40
0.0
176
     0
 40
1.0
176
     0
 90
        0
176
     0
 62
    18
420
        0
176
     0
 90
       50
176
     0
 90
        3
176
     0
 62
     5
420
      255
176
     0
290
     0
176
     0
 90
       50
176
     0
 90
       50
176
     0
 90
       50
176
     0
290
     0
176
     0
 90
       50
176
     0
 62
   256
176
     0
 40
1.0
176
     0
 90
        2
176
     0
  1
strokes_ogs.tif
176
     0
290
     0
176
     0
 40
1.0
176
     0
 40
1.0
176
     0
  0
VISUALSTYLE
  5
33
102
{ACAD_REACTORS
330
29
102
}
330
29
100
AcDbVisualStyle
  2
Realistic
 70
     8
177
     3
291
     0
 70
    58
 90
        2
176
     1
 90
        3
176
     1
 90
        0
176
     1
 90
        2
176
     1
 40
0.6
176
     1
 40
30.0
176
     1
 62
     7
420
 16777215
176
     1
 90
        0
176
     1
 90
        0
176
     1
 62
     7
176
     1
 62
   257
176
     1
 90
        1
176
     1
 90
        1
176
     1
 40
1.0
176
     1
 90
        8
176
     1
 62
   257
176
     1
 40
1.0
176
     1
 90
        1
176
     1
 90
        6
176
     1
 90
        2
176
     1
 62
     7
176
     1
 90
        3
176
     1
 90
        0
176
     1
 90
        0
176
     1
290
     0
176
     1
 90
       13
176
     1
 40
0.0
176
     1
 90
        0
176
     1
290
     0
176
     1
290
     1
176
     1
290
     1
176
     1
290
     0
176
     1
290
     0
176
     1
290
     0
176
     1
290
     0
176
     1
290
     0
176
     1
290
     0
176
     1
 90
       50
176
     1
 40
0.0
176
     1
 40
1.0
176
     1
 90
        0
176
     1
 62
    18
420
        0
176
     1
 90
       50
176
     1
 90
        3
176
     1
 62
     5
420
      255
176
     1
290
     0
176
     1
 90
       50
176
     1
 90
       50
176
     1
 90
       50
176
     1
290
     0
176
     1
 90
       50
176
     1
 62
   256
176
     0
 40
1.0
176
     0
 90
        2
176
     1
  1
strokes_ogs.tif
176
     1
290
     0
176
     1
 40
1.0
176
     1
 40
1.0
176
     1
  0
VISUALSTYLE
  5
3E
102
{ACAD_REACTORS
330
29
102
}
330
29
100
AcDbVisualStyle
  2
Shaded
 70
    27
177
     3
291
     0
 70
    58
 90
        2
176
     1
 90
        2
176
     1
 90
        1
176
     1
 90
        2
176
     1
 40
0.6
176
     1
 40
30.0
176
     1
 62
     7
420
 16777215
176
     1
 90
        0
176
     1
 90
        4
176
     1
 62
     7
176
     1
 62
   257
176
     1
 90
        1
176
     1
 90
        1
176
     1
 40
1.0
176
     1
 90
        8
176
     1
 62
   257
176
     1
 40
1.0
176
     1
 90
        1
176
     1
 90
        6
176
     1
 90
        2
176
     1
 62
     8
420
  7895160
176
     1
 90
        3
176
     1
 90
        0
176
     1
 90
        0
176
     1
290
     0
176
     1
 90
        5
176
     1
 40
0.0
176
     1
 90
        0
176
     1
290
     0
176
     1
290
     1
176
     1
290
     1
176
     1
290
     0
176
     1
290
     0
176
     1
290
     0
176
     1
290
     0
176
     1
290
     0
176
     1
290
     0
176
     1
 90
       50
176
     1
 40
0.0
176
     1
 40
1.0
176
     1
 90
        0
176
     1
 62
    18
420
        0
176
     1
 90
       50
176
     1
 90
        3
176
     1
 62
     5
420
      255
176
     1
290
     0
176
     1
 90
       50
176
     1
 90
       50
176
     1
 90
       50
176
     1
290
     0
176
     1
 90
       50
176
     1
 62
   256
176
     0
 40
1.0
176
     0
 90
        2
176
     1
  1
strokes_ogs.tif
176
     1
290
     0
176
     1
 40
1.0
176
     1
 40
1.0
176
     1
  0
VISUALSTYLE
  5
3D
102
{ACAD_REACTORS
330
29
102
}
330
29
100
AcDbVisualStyle
  2
Shaded with edges
 70
    26
177
     3
291
     0
 70
    58
 90
        2
176
     1
 90
        2
176
     1
 90
        1
176
     1
 90
        2
176
     1
 40
0.6
176
     1
 40
30.0
176
     1
 62
     7
420
 16777215
176
     1
 90
        1
176
     1
 90
        2
176
     1
 62
     7
176
     1
 62
   257
176
     1
 90
        2
176
     1
 90
        1
176
     1
 40
1.0
176
     1
 90
        8
176
     1
 62
   257
176
     1
 40
1.0
176
     1
 90
        1
176
     1
 90
        6
176
     1
 90
        2
176
     1
 62
     7
176
     1
 90
        3
176
     1
 90
        0
176
     1
 90
        0
176
     1
290
     0
176
     1
 90
        5
176
     1
 40
0.0
176
     1
 90
        0
176
     1
290
     0
176
     1
290
     1
176
     1
290
     1
176
     1
290
     0
176
     1
290
     0
176
     1
290
     0
176
     1
290
     0
176
     1
290
     0
176
     1
290
     0
176
     1
 90
       50
176
     1
 40
0.0
176
     1
 40
1.0
176
     1
 90
        0
176
     1
 62
    18
420
        0
176
     1
 90
       50
176
     1
 90
        3
176
     1
 62
     5
420
      255
176
     1
290
     0
176
     1
 90
       50
176
     1
 90
       50
176
     1
 90
       50
176
     1
290
     0
176
     1
 90
       50
176
     1
 62
   256
176
     0
 40
1.0
176
     0
 90
        2
176
     1
  1
strokes_ogs.tif
176
     1
290
     0
176
     1
 40
1.0
176
     1
 40
1.0
176
     1
  0
VISUALSTYLE
  5
3A
102
{ACAD_REACTORS
330
29
102
}
330
29
100
AcDbVisualStyle
  2
Shades of Gray
 70
    23
177
     3
291
     0
 70
    58
 90
        2
176
     1
 90
        2
176
     1
 90
        3
176
     1
 90
        0
176
     1
 40
0.6
176
     1
 40
30.0
176
     1
 62
     7
420
 16777215
176
     1
 90
        2
176
     1
 90
        2
176
     1
 62
     7
176
     1
 62
     7
176
     1
 90
        1
176
     1
 90
        1
176
     1
 40
40.0
176
     1
 90
        8
176
     1
 62
     7
176
     1
 40
1.0
176
     1
 90
        1
176
     1
 90
        6
176
     1
 90
        2
176
     1
 62
     7
176
     1
 90
        3
176
     1
 90
        0
176
     1
 90
        0
176
     1
290
     0
176
     1
 90
        1
176
     1
 40
0.0
176
     1
 90
        0
176
     1
290
     0
176
     1
290
     1
176
     1
290
     1
176
     1
290
     0
176
     1
290
     0
176
     1
290
     0
176
     1
290
     0
176
     1
290
     0
176
     1
290
     0
176
     1
 90
       50
176
     1
 40
0.0
176
     1
 40
1.0
176
     1
 90
        0
176
     1
 62
    18
420
        0
176
     1
 90
       50
176
     1
 90
        3
176
     1
 62
     5
420
      255
176
     1
290
     0
176
     1
 90
       50
176
     1
 90
       50
176
     1
 90
       50
176
     1
290
     0
176
     1
 90
       50
176
     1
 62
   256
176
     0
 40
1.0
176
     0
 90
        2
176
     1
  1
strokes_ogs.tif
176
     1
290
     0
176
     1
 40
1.0
176
     1
 40
1.0
176
     1
  0
VISUALSTYLE
  5
3B
102
{ACAD_REACTORS
330
29
102
}
330
29
100
AcDbVisualStyle
  2
Sketchy
 70
    24
177
     3
291
     0
 70
    58
 90
        1
176
     1
 90
        2
176
     1
 90
        2
176
     1
 90
        0
176
     1
 40
0.6
176
     1
 40
30.0
176
     1
 62
     7
420
 16777215
176
     1
 90
        2
176
     1
 90
        2
176
     1
 62
     7
176
     1
 62
     7
176
     1
 90
        1
176
     1
 90
        1
176
     1
 40
40.0
176
     1
 90
       11
176
     1
 62
     7
176
     1
 40
1.0
176
     1
 90
        1
176
     1
 90
        6
176
     1
 90
        2
176
     1
 62
     7
176
     1
 90
        6
176
     1
 90
        0
176
     1
 90
        0
176
     1
290
     0
176
     1
 90
        1
176
     1
 40
0.0
176
     1
 90
        0
176
     1
290
     0
176
     1
290
     1
176
     1
290
     1
176
     1
290
     0
176
     1
290
     0
176
     1
290
     0
176
     1
290
     0
176
     1
290
     0
176
     1
290
     0
176
     1
 90
       50
176
     1
 40
0.0
176
     1
 40
1.0
176
     1
 90
        0
176
     1
 62
    18
420
        0
176
     1
 90
       50
176
     1
 90
        3
176
     1
 62
     5
420
      255
176
     1
290
     0
176
     1
 90
       50
176
     1
 90
       50
176
     1
 90
       50
176
     1
290
     0
176
     1
 90
       50
176
     1
 62
   256
176
     0
 40
1.0
176
     0
 90
        2
176
     1
  1
strokes_ogs.tif
176
     1
290
     0
176
     1
 40
1.0
176
     1
 40
1.0
176
     1
  0
VISUALSTYLE
  5
36
102
{ACAD_REACTORS
330
29
102
}
330
29
100
AcDbVisualStyle
  2
Thicken
 70
    13
177
     3
291
     1
 70
    58
 90
        2
176
     1
 90
        2
176
     1
 90
        0
176
     1
 90
        0
176
     1
 40
0.6
176
     1
 40
30.0
176
     1
 62
     7
420
 16777215
176
     1
 90
        1
176
     1
 90
        4
176
     1
 62
     7
176
     1
 62
   257
176
     1
 90
        1
176
     1
 90
        1
176
     1
 40
1.0
176
     1
 90
       12
176
     1
 62
     7
176
     1
 40
1.0
176
     1
 90
        1
176
     1
 90
        6
176
     1
 90
        2
176
     1
 62
     7
176
     1
 90
        5
176
     1
 90
        0
176
     1
 90
        0
176
     1
290
     0
176
     1
 90
        1
176
     1
 40
0.0
176
     1
 90
        0
176
     1
290
     0
176
     1
290
     1
176
     1
290
     1
176
     1
290
     0
176
     1
290
     0
176
     1
290
     0
176
     1
290
     0
176
     1
290
     0
176
     1
290
     0
176
     1
 90
       50
176
     1
 40
0.0
176
     1
 40
1.0
176
     1
 90
        0
176
     1
 62
    18
420
        0
176
     1
 90
       50
176
     1
 90
        3
176
     1
 62
     5
420
      255
176
     1
290
     0
176
     1
 90
       50
176
     1
 90
       50
176
     1
 90
       50
176
     1
290
     0
176
     1
 90
       50
176
     1
 62
   256
176
     0
 40
1.0
176
     0
 90
        2
176
     1
  1
strokes_ogs.tif
176
     1
290
     0
176
     1
 40
1.0
176
     1
 40
1.0
176
     1
  0
VISUALSTYLE
  5
30
102
{ACAD_REACTORS
330
29
102
}
330
29
100
AcDbVisualStyle
  2
Wireframe
 70
     5
177
     3
291
     0
 70
    58
 90
        0
176
     1
 90
        2
176
     1
 90
        0
176
     1
 90
        0
176
     1
 40
0.6
176
     1
 40
30.0
176
     1
 62
     7
420
 16777215
176
     1
 90
        1
176
     1
 90
        4
176
     1
 62
     7
176
     1
 62
   257
176
     1
 90
        1
176
     1
 90
        1
176
     1
 40
1.0
176
     1
 90
        0
176
     1
 62
   257
176
     1
 40
1.0
176
     1
 90
        1
176
     1
 90
        6
176
     1
 90
        2
176
     1
 62
     7
176
     1
 90
        3
176
     1
 90
        0
176
     1
 90
        0
176
     1
290
     0
176
     1
 90
        1
176
     1
 40
0.0
176
     1
 90
        0
176
     1
290
     0
176
     1
290
     1
176
     1
290
     1
176
     1
290
     0
176
     1
290
     0
176
     1
290
     0
176
     1
290
     0
176
     1
290
     0
176
     1
290
     0
176
     1
 90
       50
176
     1
 40
0.0
176
     1
 40
1.0
176
     1
 90
        0
176
     1
 62
    18
420
        0
176
     1
 90
       50
176
     1
 90
        3
176
     1
 62
     5
420
      255
176
     1
290
     0
176
     1
 90
       50
176
     1
 90
       50
176
     1
 90
       50
176
     1
290
     0
176
     1
 90
       50
176
     1
 62
   256
176
     0
 40
1.0
176
     0
 90
        2
176
     1
  1
strokes_ogs.tif
176
     1
290
     0
176
     1
 40
1.0
176
     1
 40
1.0
176
     1
  0
VISUALSTYLE
  5
3C
102
{ACAD_REACTORS
330
29
102
}
330
29
100
AcDbVisualStyle
  2
X-Ray
 70
    25
177
     3
291
     0
 70
    58
 90
        2
176
     1
 90
        2
176
     1
 90
        1
176
     1
 90
        1
176
     1
 40
0.5
176
     1
 40
30.0
176
     1
 62
     7
420
 16777215
176
     1
 90
        1
176
     1
 90
        0
176
     1
 62
     7
176
     1
 62
   257
176
     1
 90
        1
176
     1
 90
        1
176
     1
 40
1.0
176
     1
 90
        8
176
     1
 62
     7
176
     1
 40
1.0
176
     1
 90
        1
176
     1
 90
        6
176
     1
 90
        2
176
     1
 62
     7
176
     1
 90
        3
176
     1
 90
        0
176
     1
 90
        0
176
     1
290
     0
176
     1
 90
       13
176
     1
 40
0.0
176
     1
 90
        0
176
     1
290
     0
176
     1
290
     1
176
     1
290
     1
176
     1
290
     0
176
     1
290
     0
176
     1
290
     0
176
     1
290
     0
176
     1
290
     0
176
     1
290
     0
176
     1
 90
       50
176
     1
 40
0.0
176
     1
 40
1.0
176
     1
 90
        0
176
     1
 62
    18
420
        0
176
     1
 90
       50
176
     1
 90
        3
176
     1
 62
     5
420
      255
176
     1
290
     0
176
     1
 90
       50
176
     1
 90
       50
176
     1
 90
       50
176
     1
290
     0
176
     1
 90
       50
176
     1
 62
   256
176
     0
 40
1.0
176
     0
 90
        2
176
     1
  1
strokes_ogs.tif
176
     1
290
     0
176
     1
 40
1.0
176
     1
 40
1.0
176
     1
  0
DICTIONARYVAR
  5
265
102
{ACAD_REACTORS
330
260
102
}
330
260
100
DictionaryVariables
280
     0
  1
1:1
  0
DICTIONARYVAR
  5
262
102
{ACAD_REACTORS
330
260
102
}
330
260
100
DictionaryVariables
280
     0
  1
STANDARD
  0
DICTIONARYVAR
  5
261
102
{ACAD_REACTORS
330
260
102
}
330
260
100
DictionaryVariables
280
     0
  1
STANDARD
  0
DICTIONARYVAR
  5
263
102
{ACAD_REACTORS
330
260
102
}
330
260
100
DictionaryVariables
280
     0
  1
Imperial24
  0
DICTIONARYVAR
  5
264
102
{ACAD_REACTORS
330
260
102
}
330
260
100
DictionaryVariables
280
     0
  1
Imperial24
  0
DICTIONARY
  5
1A
330
19
100
AcDbDictionary
280
     1
281
     1
  3
BUMPTILE
360
1C
  3
DIFFUSETILE
360
1B
  3
OPACITYTILE
360
1F
  3
REFLECTIONTILE
360
1E
  3
REFRACTIONTILE
360
20
  3
SPECULARTILE
360
1D
  0
DICTIONARY
  5
12
330
11
100
AcDbDictionary
280
     1
281
     1
  3
BUMPTILE
360
14
  3
DIFFUSETILE
360
13
  3
OPACITYTILE
360
17
  3
REFLECTIONTILE
360
16
  3
REFRACTIONTILE
360
18
  3
SPECULARTILE
360
15
  0
DICTIONARY
  5
22
330
21
100
AcDbDictionary
280
     1
281
     1
  3
BUMPTILE
360
24
  3
DIFFUSETILE
360
23
  3
OPACITYTILE
360
27
  3
REFLECTIONTILE
360
26
  3
REFRACTIONTILE
360
28
  3
SPECULARTILE
360
25
  0
DICTIONARY
  5
266
330
65
100
AcDbDictionary
280
     1
281
     1
  3
ACAD_ROUNDTRIP_2008_TABLESTYLE_CELLSTYLEMAP
360
267
  0
XRECORD
  5
1C
102
{ACAD_REACTORS
330
1A
102
}
330
1A
100
AcDbXrecord
280
     1
270
     1
271
     1
  0
XRECORD
  5
1B
102
{ACAD_REACTORS
330
1A
102
}
330
1A
100
AcDbXrecord
280
     1
270
     1
271
     1
  0
XRECORD
  5
1F
102
{ACAD_REACTORS
330
1A
102
}
330
1A
100
AcDbXrecord
280
     1
270
     1
271
     1
  0
XRECORD
  5
1E
102
{ACAD_REACTORS
330
1A
102
}
330
1A
100
AcDbXrecord
280
     1
270
     1
271
     1
  0
XRECORD
  5
20
102
{ACAD_REACTORS
330
1A
102
}
330
1A
100
AcDbXrecord
280
     1
270
     1
271
     1
  0
XRECORD
  5
1D
102
{ACAD_REACTORS
330
1A
102
}
330
1A
100
AcDbXrecord
280
     1
270
     1
271
     1
  0
XRECORD
  5
14
102
{ACAD_REACTORS
330
12
102
}
330
12
100
AcDbXrecord
280
     1
270
     1
271
     1
  0
XRECORD
  5
13
102
{ACAD_REACTORS
330
12
102
}
330
12
100
AcDbXrecord
280
     1
270
     1
271
     1
  0
XRECORD
  5
17
102
{ACAD_REACTORS
330
12
102
}
330
12
100
AcDbXrecord
280
     1
270
     1
271
     1
  0
XRECORD
  5
16
102
{ACAD_REACTORS
330
12
102
}
330
12
100
AcDbXrecord
280
     1
270
     1
271
     1
  0
XRECORD
  5
18
102
{ACAD_REACTORS
330
12
102
}
330
12
100
AcDbXrecord
280
     1
270
     1
271
     1
  0
XRECORD
  5
15
102
{ACAD_REACTORS
330
12
102
}
330
12
100
AcDbXrecord
280
     1
270
     1
271
     1
  0
XRECORD
  5
24
102
{ACAD_REACTORS
330
22
102
}
330
22
100
AcDbXrecord
280
     1
270
     1
271
     1
  0
XRECORD
  5
23
102
{ACAD_REACTORS
330
22
102
}
330
22
100
AcDbXrecord
280
     1
270
     1
271
     1
  0
XRECORD
  5
27
102
{ACAD_REACTORS
330
22
102
}
330
22
100
AcDbXrecord
280
     1
270
     1
271
     1
  0
XRECORD
  5
26
102
{ACAD_REACTORS
330
22
102
}
330
22
100
AcDbXrecord
280
     1
270
     1
271
     1
  0
XRECORD
  5
28
102
{ACAD_REACTORS
330
22
102
}
330
22
100
AcDbXrecord
280
     1
270
     1
271
     1
  0
XRECORD
  5
25
102
{ACAD_REACTORS
330
22
102
}
330
22
100
AcDbXrecord
280
     1
270
     1
271
     1
  0
CELLSTYLEMAP
  5
267
102
{ACAD_REACTORS
330
266
102
}
330
266
100
AcDbCellStyleMap
 90
        3
300
CELLSTYLE
  1
TABLEFORMAT_BEGIN
 90
        5
170
     1
 91
        0
 92
    32768
 62
   257
 93
        1
300
CONTENTFORMAT
  1
CONTENTFORMAT_BEGIN
 90
        0
 91
        0
 92
      512
 93
        0
300

 40
0.0
140
1.0
 94
        5
 62
     0
340
55
144
0.25
309
CONTENTFORMAT_END
171
     0
 94
        0
309
TABLEFORMAT_END
  1
CELLSTYLE_BEGIN
 90
        1
 91
        1
300
_TITLE
309
CELLSTYLE_END
300
CELLSTYLE
  1
TABLEFORMAT_BEGIN
 90
        5
170
     1
 91
        0
 92
        0
 62
   257
 93
        1
300
CONTENTFORMAT
  1
CONTENTFORMAT_BEGIN
 90
        0
 91
        0
 92
      512
 93
        0
300

 40
0.0
140
1.0
 94
        5
 62
     0
340
55
144
0.18
309
CONTENTFORMAT_END
171
     0
 94
        0
309
TABLEFORMAT_END
  1
CELLSTYLE_BEGIN
 90
        2
 91
        1
300
_HEADER
309
CELLSTYLE_END
300
CELLSTYLE
  1
TABLEFORMAT_BEGIN
 90
        5
170
     1
 91
        0
 92
        0
 62
   257
 93
        1
300
CONTENTFORMAT
  1
CONTENTFORMAT_BEGIN
 90
        0
 91
        0
 92
      512
 93
        0
300

 40
0.0
140
1.0
 94
        2
 62
     0
340
55
144
0.18
309
CONTENTFORMAT_END
171
     0
 94
        0
309
TABLEFORMAT_END
  1
CELLSTYLE_BEGIN
 90
        3
 91
        2
300
_DATA
309
CELLSTYLE_END
  0
ENDSEC
  0
EOF
