  0
SECTION
  2
HEADER
  9
$ACADVER
  1
AC1032
  9
$ACADMAINTVER
 90
      228
  9
$DWGCODEPAGE
  3
ANSI_932
  9
$REQUIREDVERSIONS
160
                 0
  9
$INSBASE
 10
0.0
 20
0.0
 30
0.0
  9
$EXTMIN
 10
1.000000000000000E+20
 20
1.000000000000000E+20
 30
1.000000000000000E+20
  9
$EXTMAX
 10
-1.000000000000000E+20
 20
-1.000000000000000E+20
 30
-1.000000000000000E+20
  9
$LIMMIN
 10
0.0
 20
0.0
  9
$LIMMAX
 10
12.0
 20
9.0
  9
$ORTHOMODE
 70
     0
  9
$REGENMODE
 70
     1
  9
$FILLMODE
 70
     1
  9
$QTEXTMODE
 70
     0
  9
$MIRRTEXT
 70
     0
  9
$LTSCALE
 40
1.0
  9
$ATTMODE
 70
     1
  9
$TEXTSIZE
 40
0.2
  9
$TRACEWID
 40
0.05
  9
$TEXTSTYLE
  7
Standard
  9
$CLAYER
  8
0
  9
$CELTYPE
  6
ByLayer
  9
$CECOLOR
 62
   256
  9
$CELTSCALE
 40
1.0
  9
$DISPSILH
 70
     0
  9
$DIMSCALE
 40
1.0
  9
$DIMASZ
 40
0.18
  9
$DIMEXO
 40
0.0625
  9
$DIMDLI
 40
0.38
  9
$DIMRND
 40
0.0
  9
$DIMDLE
 40
0.0
  9
$DIMEXE
 40
0.18
  9
$DIMTP
 40
0.0
  9
$DIMTM
 40
0.0
  9
$DIMTXT
 40
0.18
  9
$DIMCEN
 40
0.09
  9
$DIMTSZ
 40
0.0
  9
$DIMTOL
 70
     0
  9
$DIMLIM
 70
     0
  9
$DIMTIH
 70
     1
  9
$DIMTOH
 70
     1
  9
$DIMSE1
 70
     0
  9
$DIMSE2
 70
     0
  9
$DIMTAD
 70
     0
  9
$DIMZIN
 70
     0
  9
$DIMBLK
  1

  9
$DIMASO
 70
     1
  9
$DIMSHO
 70
     1
  9
$DIMPOST
  1

  9
$DIMAPOST
  1

  9
$DIMALT
 70
     0
  9
$DIMALTD
 70
     2
  9
$DIMALTF
 40
25.4
  9
$DIMLFAC
 40
1.0
  9
$DIMTOFL
 70
     0
  9
$DIMTVP
 40
0.0
  9
$DIMTIX
 70
     0
  9
$DIMSOXD
 70
     0
  9
$DIMSAH
 70
     0
  9
$DIMBLK1
  1

  9
$DIMBLK2
  1

  9
$DIMSTYLE
  2
Standard
  9
$DIMCLRD
 70
     0
  9
$DIMCLRE
 70
     0
  9
$DIMCLRT
 70
     0
  9
$DIMTFAC
 40
1.0
  9
$DIMGAP
 40
0.09
  9
$DIMJUST
 70
     0
  9
$DIMSD1
 70
     0
  9
$DIMSD2
 70
     0
  9
$DIMTOLJ
 70
     1
  9
$DIMTZIN
 70
     0
  9
$DIMALTZ
 70
     0
  9
$DIMALTTZ
 70
     0
  9
$DIMUPT
 70
     0
  9
$DIMDEC
 70
     4
  9
$DIMTDEC
 70
     4
  9
$DIMALTU
 70
     2
  9
$DIMALTTD
 70
     2
  9
$DIMTXSTY
  7
Standard
  9
$DIMAUNIT
 70
     0
  9
$DIMADEC
 70
     0
  9
$DIMALTRND
 40
0.0
  9
$DIMAZIN
 70
     0
  9
$DIMDSEP
 70
    46
  9
$DIMATFIT
 70
     3
  9
$DIMFRAC
 70
     0
  9
$DIMLDRBLK
  1

  9
$DIMLUNIT
 70
     2
  9
$DIMLWD
 70
    -2
  9
$DIMLWE
 70
    -2
  9
$DIMTMOVE
 70
     0
  9
$DIMFXL
 40
1.0
  9
$DIMFXLON
 70
     0
  9
$DIMJOGANG
 40
0.7853981633974483
  9
$DIMTFILL
 70
     0
  9
$DIMTFILLCLR
 70
     0
  9
$DIMARCSYM
 70
     0
  9
$DIMLTYPE
  6

  9
$DIMLTEX1
  6

  9
$DIMLTEX2
  6

  9
$DIMTXTDIRECTION
 70
     0
  9
$LUNITS
 70
     2
  9
$LUPREC
 70
     4
  9
$SKETCHINC
 40
0.1
  9
$FILLETRAD
 40
0.0
  9
$AUNITS
 70
     0
  9
$AUPREC
 70
     0
  9
$MENU
  1
.
  9
$ELEVATION
 40
0.0
  9
$PELEVATION
 40
0.0
  9
$THICKNESS
 40
0.0
  9
$LIMCHECK
 70
     0
  9
$CHAMFERA
 40
0.0
  9
$CHAMFERB
 40
0.0
  9
$CHAMFERC
 40
0.0
  9
$CHAMFERD
 40
0.0
  9
$SKPOLY
 70
     0
  9
$TDCREATE
 40
2460188.885798611
  9
$TDUCREATE
 40
2460188.510798611
  9
$TDUPDATE
 40
2460188.885798611
  9
$TDUUPDATE
 40
2460188.510798611
  9
$TDINDWG
 40
0.0000115741
  9
$TDUSRTIMER
 40
0.0000115741
  9
$USRTIMER
 70
     1
  9
$ANGBASE
 50
0.0
  9
$ANGDIR
 70
     0
  9
$PDMODE
 70
     0
  9
$PDSIZE
 40
0.0
  9
$PLINEWID
 40
0.0
  9
$SPLFRAME
 70
     0
  9
$SPLINETYPE
 70
     6
  9
$SPLINESEGS
 70
     8
  9
$HANDSEED
  5
1C4
  9
$SURFTAB1
 70
     6
  9
$SURFTAB2
 70
     6
  9
$SURFTYPE
 70
     6
  9
$SURFU
 70
     6
  9
$SURFV
 70
     6
  9
$UCSBASE
  2

  9
$UCSNAME
  2

  9
$UCSORG
 10
0.0
 20
0.0
 30
0.0
  9
$UCSXDIR
 10
1.0
 20
0.0
 30
0.0
  9
$UCSYDIR
 10
0.0
 20
1.0
 30
0.0
  9
$UCSORTHOREF
  2

  9
$UCSORTHOVIEW
 70
     0
  9
$UCSORGTOP
 10
0.0
 20
0.0
 30
0.0
  9
$UCSORGBOTTOM
 10
0.0
 20
0.0
 30
0.0
  9
$UCSORGLEFT
 10
0.0
 20
0.0
 30
0.0
  9
$UCSORGRIGHT
 10
0.0
 20
0.0
 30
0.0
  9
$UCSORGFRONT
 10
0.0
 20
0.0
 30
0.0
  9
$UCSORGBACK
 10
0.0
 20
0.0
 30
0.0
  9
$PUCSBASE
  2

  9
$PUCSNAME
  2

  9
$PUCSORG
 10
0.0
 20
0.0
 30
0.0
  9
$PUCSXDIR
 10
1.0
 20
0.0
 30
0.0
  9
$PUCSYDIR
 10
0.0
 20
1.0
 30
0.0
  9
$PUCSORTHOREF
  2

  9
$PUCSORTHOVIEW
 70
     0
  9
$PUCSORGTOP
 10
0.0
 20
0.0
 30
0.0
  9
$PUCSORGBOTTOM
 10
0.0
 20
0.0
 30
0.0
  9
$PUCSORGLEFT
 10
0.0
 20
0.0
 30
0.0
  9
$PUCSORGRIGHT
 10
0.0
 20
0.0
 30
0.0
  9
$PUCSORGFRONT
 10
0.0
 20
0.0
 30
0.0
  9
$PUCSORGBACK
 10
0.0
 20
0.0
 30
0.0
  9
$USERI1
 70
     0
  9
$USERI2
 70
     0
  9
$USERI3
 70
     0
  9
$USERI4
 70
     0
  9
$USERI5
 70
     0
  9
$USERR1
 40
0.0
  9
$USERR2
 40
0.0
  9
$USERR3
 40
0.0
  9
$USERR4
 40
0.0
  9
$USERR5
 40
0.0
  9
$WORLDVIEW
 70
     1
  9
$SHADEDGE
 70
     3
  9
$SHADEDIF
 70
    70
  9
$TILEMODE
 70
     1
  9
$MAXACTVP
 70
    64
  9
$PINSBASE
 10
0.0
 20
0.0
 30
0.0
  9
$PLIMCHECK
 70
     0
  9
$PEXTMIN
 10
1.000000000000000E+20
 20
1.000000000000000E+20
 30
1.000000000000000E+20
  9
$PEXTMAX
 10
-1.000000000000000E+20
 20
-1.000000000000000E+20
 30
-1.000000000000000E+20
  9
$PLIMMIN
 10
0.0
 20
0.0
  9
$PLIMMAX
 10
12.0
 20
9.0
  9
$UNITMODE
 70
     0
  9
$VISRETAIN
 70
     1
  9
$PLINEGEN
 70
     0
  9
$PSLTSCALE
 70
     1
  9
$TREEDEPTH
 70
  3020
  9
$CMLSTYLE
  2
Standard
  9
$CMLJUST
 70
     0
  9
$CMLSCALE
 40
1.0
  9
$PROXYGRAPHICS
 70
     1
  9
$MEASUREMENT
 70
     0
  9
$CELWEIGHT
370
    -1
  9
$ENDCAPS
280
     0
  9
$JOINSTYLE
280
     0
  9
$LWDISPLAY
290
     1
  9
$INSUNITS
 70
     4
  9
$HYPERLINKBASE
  1

  9
$STYLESHEET
  1

  9
$XEDIT
290
     1
  9
$CEPSNTYPE
380
     0
  9
$PSTYLEMODE
290
     1
  9
$FINGERPRINTGUID
  2
{9A4D77FB-C11C-8849-855C-9772934687B4}
  9
$VERSIONGUID
  2
{A217EF41-71F5-7E4F-B7A6-0B8C29E44E47}
  9
$EXTNAMES
290
     1
  9
$PSVPSCALE
 40
0.0
  9
$OLESTARTUP
290
     0
  9
$SORTENTS
280
   127
  9
$INDEXCTL
280
     0
  9
$HIDETEXT
280
     1
  9
$XCLIPFRAME
280
     2
  9
$HALOGAP
280
     0
  9
$OBSCOLOR
 70
   257
  9
$OBSLTYPE
280
     0
  9
$INTERSECTIONDISPLAY
280
     0
  9
$INTERSECTIONCOLOR
 70
   257
  9
$DIMASSOC
280
     2
  9
$PROJECTNAME
  1

  9
$CAMERADISPLAY
290
     0
  9
$LENSLENGTH
 40
50.0
  9
$CAMERAHEIGHT
 40
0.0
  9
$STEPSPERSEC
 40
2.0
  9
$STEPSIZE
 40
6.0
  9
$3DDWFPREC
 40
2.0
  9
$PSOLWIDTH
 40
0.25
  9
$PSOLHEIGHT
 40
4.0
  9
$LOFTANG1
 40
1.570796326794896
  9
$LOFTANG2
 40
1.570796326794896
  9
$LOFTMAG1
 40
0.0
  9
$LOFTMAG2
 40
0.0
  9
$LOFTPARAM
 70
     7
  9
$LOFTNORMALS
280
     1
  9
$LATITUDE
 40
37.795
  9
$LONGITUDE
 40
-122.394
  9
$NORTHDIRECTION
 40
0.0
  9
$TIMEZONE
 70
 -8000
  9
$LIGHTGLYPHDISPLAY
280
     1
  9
$TILEMODELIGHTSYNCH
280
     1
  9
$CMATERIAL
347
11
  9
$SOLIDHIST
280
     0
  9
$SHOWHIST
280
     1
  9
$DWFFRAME
280
     2
  9
$DGNFRAME
280
     0
  9
$REALWORLDSCALE
290
     1
  9
$INTERFERECOLOR
 62
     1
  9
$INTERFEREOBJVS
345
33
  9
$INTERFEREVPVS
346
30
  9
$CSHADOW
280
     0
  9
$SHADOWPLANELOCATION
 40
0.0
  0
ENDSEC
  0
SECTION
  2
CLASSES
  0
CLASS
  1
ACDBDICTIONARYWDFLT
  2
AcDbDictionaryWithDefault
  3
ObjectDBX Classes
 90
        0
 91
        1
280
     0
281
     0
  0
CLASS
  1
MATERIAL
  2
AcDbMaterial
  3
ObjectDBX Classes
 90
     1153
 91
        3
280
     0
281
     0
  0
CLASS
  1
VISUALSTYLE
  2
AcDbVisualStyle
  3
ObjectDBX Classes
 90
     4095
 91
       24
280
     0
281
     0
  0
CLASS
  1
SCALE
  2
AcDbScale
  3
ObjectDBX Classes
 90
     1153
 91
       17
280
     0
281
     0
  0
CLASS
  1
TABLESTYLE
  2
AcDbTableStyle
  3
ObjectDBX Classes
 90
     4095
 91
        1
280
     0
281
     0
  0
CLASS
  1
MLEADERSTYLE
  2
AcDbMLeaderStyle
  3
ACDB_MLEADERSTYLE_CLASS
 90
     4095
 91
        1
280
     0
281
     0
  0
CLASS
  1
ACDBSECTIONVIEWSTYLE
  2
AcDbSectionViewStyle
  3
ObjectDBX Classes
 90
     1025
 91
        1
280
     0
281
     0
  0
CLASS
  1
ACDBDETAILVIEWSTYLE
  2
AcDbDetailViewStyle
  3
ObjectDBX Classes
 90
     1025
 91
        1
280
     0
281
     0
  0
CLASS
  1
DICTIONARYVAR
  2
AcDbDictionaryVar
  3
ObjectDBX Classes
 90
        0
 91
        5
280
     0
281
     0
  0
CLASS
  1
CELLSTYLEMAP
  2
AcDbCellStyleMap
  3
ObjectDBX Classes
 90
     1152
 91
        1
280
     0
281
     0
  0
ENDSEC
  0
SECTION
  2
TABLES
  0
TABLE
  2
VPORT
  5
8
330
0
100
AcDbSymbolTable
 70
     1
  0
VPORT
  5
57
330
8
100
AcDbSymbolTableRecord
100
AcDbViewportTableRecord
  2
*Active
 70
     0
 10
0.0
 20
0.0
 11
1.0
 21
1.0
 12
0.0
 22
0.0
 13
0.0
 23
0.0
 14
1.0
 24
1.0
 15
0.0
 25
0.0
 16
0.0
 26
0.0
 36
1.0
 17
148.5000119155985
 27
-104.9999970067687
 37
0.0
 40
214.1999938938081
 41
1.414285868084602
 42
50.0
 43
0.0
 44
0.0
 50
0.0
 51
0.0
 71
     0
 72
   100
 73
     1
 74
     1
 75
     0
 76
     0
 77
     0
 78
     0
281
     0
 65
     1
110
0.0
120
0.0
130
0.0
111
1.0
121
0.0
131
0.0
112
0.0
122
1.0
132
0.0
 79
     0
146
0.0
 60
     3
 61
     5
292
     1
282
     1
141
0.0
142
0.0
 63
   250
421
  3355443
  0
ENDTAB
  0
TABLE
  2
LTYPE
  5
5
330
0
100
AcDbSymbolTable
 70
     1
  0
LTYPE
  5
5B
330
5
100
AcDbSymbolTableRecord
100
AcDbLinetypeTableRecord
  2
ByBlock
 70
     0
  3

 72
    65
 73
     0
 40
0.0
  0
LTYPE
  5
5C
330
5
100
AcDbSymbolTableRecord
100
AcDbLinetypeTableRecord
  2
ByLayer
 70
     0
  3

 72
    65
 73
     0
 40
0.0
  0
LTYPE
  5
5D
330
5
100
AcDbSymbolTableRecord
100
AcDbLinetypeTableRecord
  2
Continuous
 70
     0
  3
Solid line
 72
    65
 73
     0
 40
0.0
  0
ENDTAB
  0
TABLE
  2
LAYER
  5
2
330
0
100
AcDbSymbolTable
 70
     2
  0
LAYER
  5
54
330
2
100
AcDbSymbolTableRecord
100
AcDbLayerTableRecord
  2
0
 70
     0
 62
     7
  6
Continuous
370
    -3
390
F
347
21
348
0
  0
LAYER
  5
78
330
2
100
AcDbSymbolTableRecord
100
AcDbLayerTableRecord
  2
レイヤー 1
 70
     0
 62
     7
  6
Continuous
370
     0
390
F
347
21
348
0
  0
ENDTAB
  0
TABLE
  2
STYLE
  5
3
330
0
100
AcDbSymbolTable
 70
     2
  0
STYLE
  5
55
330
3
100
AcDbSymbolTableRecord
100
AcDbTextStyleTableRecord
  2
Standard
 70
     0
 40
0.0
 41
1.0
 50
0.0
 71
     0
 42
0.2
  3
txt
  4

  0
STYLE
  5
5A
330
3
100
AcDbSymbolTableRecord
100
AcDbTextStyleTableRecord
  2
Annotative
 70
     0
 40
0.0
 41
1.0
 50
0.0
 71
     0
 42
0.2
  3
txt
  4

1001
AcadAnnotative
1000
AnnotativeData
1002
{
1070
     1
1070
     1
1002
}
  0
ENDTAB
  0
TABLE
  2
VIEW
  5
6
330
0
100
AcDbSymbolTable
 70
     0
  0
ENDTAB
  0
TABLE
  2
UCS
  5
7
330
0
100
AcDbSymbolTable
 70
     0
  0
ENDTAB
  0
TABLE
  2
APPID
  5
9
330
0
100
AcDbSymbolTable
 70
     2
  0
APPID
  5
56
330
9
100
AcDbSymbolTableRecord
100
AcDbRegAppTableRecord
  2
ACAD
 70
     0
  0
APPID
  5
5E
330
9
100
AcDbSymbolTableRecord
100
AcDbRegAppTableRecord
  2
AcadAnnotative
 70
     0
  0
ENDTAB
  0
TABLE
  2
DIMSTYLE
  5
A
330
0
100
AcDbSymbolTable
 70
     2
100
AcDbDimStyleTable
 71
     0
  0
DIMSTYLE
105
58
330
A
100
AcDbSymbolTableRecord
100
AcDbDimStyleTableRecord
  2
Standard
 70
     0
340
55
  0
DIMSTYLE
105
59
330
A
100
AcDbSymbolTableRecord
100
AcDbDimStyleTableRecord
  2
Annotative
 70
     0
340
55
1001
AcadAnnotative
1000
AnnotativeData
1002
{
1070
     1
1070
     1
1002
}
  0
ENDTAB
  0
TABLE
  2
BLOCK_RECORD
  5
1
330
0
100
AcDbSymbolTable
 70
     2
  0
BLOCK_RECORD
  5
70
330
1
100
AcDbSymbolTableRecord
100
AcDbBlockTableRecord
  2
*Model_Space
340
73
 70
     0
280
     1
281
     0
  0
BLOCK_RECORD
  5
6C
330
1
100
AcDbSymbolTableRecord
100
AcDbBlockTableRecord
  2
*Paper_Space
340
6F
 70
     0
280
     1
281
     0
  0
BLOCK_RECORD
  5
74
330
1
100
AcDbSymbolTableRecord
100
AcDbBlockTableRecord
  2
*Paper_Space0
340
77
 70
     0
280
     1
281
     0
  0
BLOCK_RECORD
  5
79
330
1
100
AcDbSymbolTableRecord
100
AcDbBlockTableRecord
  2
Block_0
340
0
102
{BLKREFS
331
7A
102
}
 70
     0
280
     1
281
     0
  0
ENDTAB
  0
ENDSEC
  0
SECTION
  2
BLOCKS
  0
BLOCK
  5
71
330
70
100
AcDbEntity
  8
0
100
AcDbBlockBegin
  2
*Model_Space
 70
     0
 10
0.0
 20
0.0
 30
0.0
  3
*Model_Space
  1

  0
ENDBLK
  5
72
330
70
100
AcDbEntity
  8
0
100
AcDbBlockEnd
  0
BLOCK
  5
6D
330
6C
100
AcDbEntity
 67
     1
  8
0
100
AcDbBlockBegin
  2
*Paper_Space
 70
     0
 10
0.0
 20
0.0
 30
0.0
  3
*Paper_Space
  1

  0
ENDBLK
  5
6E
330
6C
100
AcDbEntity
 67
     1
  8
0
100
AcDbBlockEnd
  0
BLOCK
  5
75
330
74
100
AcDbEntity
 67
     1
  8
0
100
AcDbBlockBegin
  2
*Paper_Space0
 70
     0
 10
0.0
 20
0.0
 30
0.0
  3
*Paper_Space0
  1

  0
ENDBLK
  5
76
330
74
100
AcDbEntity
 67
     1
  8
0
100
AcDbBlockEnd
  0
BLOCK
  5
7B
330
79
100
AcDbEntity
  8
0
100
AcDbBlockBegin
  2
Block_0
 70
     0
 10
0.0
 20
0.0
 30
0.0
  3
Block_0
  1

  0
SPLINE
  5
7D
330
79
100
AcDbEntity
  8
レイヤー 1
 62
   250
420
  2299925
370
    20
100
AcDbSpline
210
0.0
220
0.0
230
1.0
 70
    11
 71
     3
 72
    32
 73
    28
 74
     0
 42
0.0000000001
 43
0.0000000001
 40
0.0
 40
0.0
 40
0.0
 40
0.0
 40
1.0
 40
1.0
 40
1.0
 40
2.0
 40
2.0
 40
2.0
 40
3.0
 40
3.0
 40
3.0
 40
4.0
 40
4.0
 40
4.0
 40
5.0
 40
5.0
 40
5.0
 40
6.0
 40
6.0
 40
6.0
 40
7.0
 40
7.0
 40
7.0
 40
8.0
 40
8.0
 40
8.0
 40
9.0
 40
9.0
 40
9.0
 40
9.0
 10
94.58601990882097
 20
-69.29748205746746
 30
0.0
 10
94.58601990882097
 20
-69.29748205746746
 30
0.0
 10
94.61023601051072
 20
-67.89698417646206
 30
0.0
 10
96.7412529591305
 20
-67.96156044763238
 30
0.0
 10
98.87226990775026
 20
-68.02613671880237
 30
0.0
 10
158.0887105709115
 20
-72.48189942955223
 30
0.0
 10
158.0887105709115
 20
-72.48189942955223
 30
0.0
 10
158.0887105709115
 20
-72.48189942955223
 30
0.0
 10
159.6624249921275
 20
-72.53760613472876
 30
0.0
 10
160.171215886457
 20
-73.99425428661991
 30
0.0
 10
160.2432571845673
 20
-74.20050566596181
 30
0.0
 10
160.2598759986257
 20
-74.423556656544
 30
0.0
 10
160.233459346727
 20
-74.64042468234898
 30
0.0
 10
160.233459346727
 20
-74.64042468234898
 30
0.0
 10
155.9576936222901
 20
-109.742407894813
 30
0.0
 10
155.9576936222901
 20
-109.742407894813
 30
0.0
 10
155.9576936222901
 20
-109.742407894813
 30
0.0
 10
155.4410834529269
 20
-112.3429957739368
 30
0.0
 10
151.56650718271
 20
-111.5270238681517
 30
0.0
 10
151.56650718271
 20
-111.5270238681517
 30
0.0
 10
93.24808029051203
 20
-93.87985228437234
 30
0.0
 10
93.24808029051203
 20
-93.87985228437234
 30
0.0
 10
93.24808029051203
 20
-93.87985228437234
 30
0.0
 10
92.18862584162385
 20
-93.71134857678772
 30
0.0
 10
92.23705804500177
 20
-91.85478078064134
 30
0.0
 10
92.23705804500177
 20
-91.85478078064134
 30
0.0
 10
94.58601990882097
 20
-69.29748205746746
 30
0.0
 10
94.58601990882097
 20
-69.29748205746746
 30
0.0
  0
SPLINE
  5
7E
330
79
100
AcDbEntity
  8
レイヤー 1
 62
   250
420
  2299925
370
    20
100
AcDbSpline
210
0.0
220
0.0
230
1.0
 70
    11
 71
     3
 72
    56
 73
    52
 74
     0
 42
0.0000000001
 43
0.0000000001
 40
0.0
 40
0.0
 40
0.0
 40
0.0
 40
1.0
 40
1.0
 40
1.0
 40
2.0
 40
2.0
 40
2.0
 40
3.0
 40
3.0
 40
3.0
 40
4.0
 40
4.0
 40
4.0
 40
5.0
 40
5.0
 40
5.0
 40
6.0
 40
6.0
 40
6.0
 40
7.0
 40
7.0
 40
7.0
 40
8.0
 40
8.0
 40
8.0
 40
9.0
 40
9.0
 40
9.0
 40
10.0
 40
10.0
 40
10.0
 40
11.0
 40
11.0
 40
11.0
 40
12.0
 40
12.0
 40
12.0
 40
13.0
 40
13.0
 40
13.0
 40
14.0
 40
14.0
 40
14.0
 40
15.0
 40
15.0
 40
15.0
 40
16.0
 40
16.0
 40
16.0
 40
17.0
 40
17.0
 40
17.0
 40
17.0
 10
94.27121058686605
 20
-85.75232315504822
 30
0.0
 10
94.27121058686605
 20
-85.75232315504822
 30
0.0
 10
93.54472753620036
 20
-84.78367908749367
 30
0.0
 10
93.54472753620036
 20
-84.78367908749367
 30
0.0
 10
93.54472753620036
 20
-84.78367908749367
 30
0.0
 10
94.27121058686605
 20
-77.56728078421291
 30
0.0
 10
94.27121058686605
 20
-77.56728078421291
 30
0.0
 10
94.27121058686605
 20
-77.56728078421291
 30
0.0
 10
95.48201567130915
 20
-76.84079773354723
 30
0.0
 10
95.48201567130915
 20
-76.84079773354723
 30
0.0
 10
95.48201567130915
 20
-76.84079773354723
 30
0.0
 10
95.75807906347417
 20
-73.25197363540737
 30
0.0
 10
95.75807906347417
 20
-73.25197363540737
 30
0.0
 10
95.75807906347417
 20
-73.25197363540737
 30
0.0
 10
95.77260889157562
 20
-73.06308587008484
 30
0.0
 10
95.77260889157562
 20
-73.06308587008484
 30
0.0
 10
95.77260889157562
 20
-73.06308587008484
 30
0.0
 10
96.06320211184208
 20
-72.14287400590818
 30
0.0
 10
97.46773600979585
 20
-72.23973841266367
 30
0.0
 10
97.46773600979585
 20
-72.23973841266367
 30
0.0
 10
115.2907868527975
 20
-73.54740790386195
 30
0.0
 10
115.2907868527975
 20
-73.54740790386195
 30
0.0
 10
115.2907868527975
 20
-73.54740790386195
 30
0.0
 10
116.7921851575067
 20
-73.54740790386195
 30
0.0
 10
116.9374817676401
 20
-75.1456706153267
 30
0.0
 10
116.9374817676401
 20
-75.1456706153267
 30
0.0
 10
116.453159733863
 20
-80.76380620714271
 30
0.0
 10
116.453159733863
 20
-80.76380620714271
 30
0.0
 10
116.453159733863
 20
-80.76380620714271
 30
0.0
 10
117.2280749879066
 20
-81.3934248510529
 30
0.0
 10
117.2280749879066
 20
-81.3934248510529
 30
0.0
 10
117.2280749879066
 20
-81.3934248510529
 30
0.0
 10
116.5984563439961
 20
-88.65825535771124
 30
0.0
 10
116.5984563439961
 20
-88.65825535771124
 30
0.0
 10
116.5984563439961
 20
-88.65825535771124
 30
0.0
 10
115.0970580392868
 20
-89.82244669567952
 30
0.0
 10
115.0970580392868
 20
-89.82244669567952
 30
0.0
 10
115.0970580392868
 20
-89.82244669567952
 30
0.0
 10
114.8064648190203
 20
-94.32482315290451
 30
0.0
 10
114.8064648190203
 20
-94.32482315290451
 30
0.0
 10
114.8064648190203
 20
-94.32482315290451
 30
0.0
 10
114.5158715987542
 20
-95.72935705085829
 30
0.0
 10
112.6754478704006
 20
-95.29346722045875
 30
0.0
 10
112.6754478704006
 20
-95.29346722045875
 30
0.0
 10
94.75553262064348
 20
-90.69240789957518
 30
0.0
 10
94.75553262064348
 20
-90.69240789957518
 30
0.0
 10
94.75553262064348
 20
-90.69240789957518
 30
0.0
 10
93.83532075646682
 20
-90.6439756961976
 30
0.0
 10
93.88375295984442
 20
-89.19100959486593
 30
0.0
 10
93.88375295984442
 20
-89.19100959486593
 30
0.0
 10
94.27121058686605
 20
-85.75232315504822
 30
0.0
 10
94.27121058686605
 20
-85.75232315504822
 30
0.0
  0
SPLINE
  5
7F
330
79
100
AcDbEntity
  8
レイヤー 1
 62
   250
420
  2299925
370
    20
100
AcDbSpline
210
0.0
220
0.0
230
1.0
 70
     8
 71
     3
 72
    41
 73
    37
 74
     0
 42
0.0000000001
 43
0.0000000001
 40
0.0
 40
0.0
 40
0.0
 40
0.0
 40
1.0
 40
1.0
 40
1.0
 40
2.0
 40
2.0
 40
2.0
 40
3.0
 40
3.0
 40
3.0
 40
4.0
 40
4.0
 40
4.0
 40
5.0
 40
5.0
 40
5.0
 40
6.0
 40
6.0
 40
6.0
 40
7.0
 40
7.0
 40
7.0
 40
8.0
 40
8.0
 40
8.0
 40
9.0
 40
9.0
 40
9.0
 40
10.0
 40
10.0
 40
10.0
 40
11.0
 40
11.0
 40
11.0
 40
12.0
 40
12.0
 40
12.0
 40
12.0
 10
95.73215375698969
 20
-73.58900261970418
 30
0.0
 10
95.73215375698969
 20
-73.58900261970418
 30
0.0
 10
96.01476990846386
 20
-72.91778925995209
 30
0.0
 10
96.64438855237435
 20
-72.8209248531966
 30
0.0
 10
96.64438855237435
 20
-72.8209248531966
 30
0.0
 10
115.726676683197
 20
-74.27389095452794
 30
0.0
 10
115.726676683197
 20
-74.27389095452794
 30
0.0
 10
115.726676683197
 20
-74.27389095452794
 30
0.0
 10
116.2109987169741
 20
-74.12859434439487
 30
0.0
 10
116.2109987169741
 20
-75.04880620857152
 30
0.0
 10
116.2109987169741
 20
-75.04880620857152
 30
0.0
 10
115.6298122764415
 20
-81.15126383416464
 30
0.0
 10
115.6298122764415
 20
-81.15126383416464
 30
0.0
 10
115.6298122764415
 20
-81.15126383416464
 30
0.0
 10
116.5500241406181
 20
-81.82931468145275
 30
0.0
 10
116.5500241406181
 20
-81.82931468145275
 30
0.0
 10
116.5500241406181
 20
-81.82931468145275
 30
0.0
 10
116.0172699034631
 20
-87.93177230704587
 30
0.0
 10
116.0172699034631
 20
-87.93177230704587
 30
0.0
 10
116.0172699034631
 20
-87.93177230704587
 30
0.0
 10
114.3705749886205
 20
-89.62689942526706
 30
0.0
 10
114.3705749886205
 20
-89.62689942526706
 30
0.0
 10
114.3705749886205
 20
-89.62689942526706
 30
0.0
 10
114.1284139717316
 20
-93.50147569548465
 30
0.0
 10
114.1284139717316
 20
-93.50147569548465
 30
0.0
 10
114.1284139717316
 20
-93.50147569548465
 30
0.0
 10
113.8378207514655
 20
-94.85757739006114
 30
0.0
 10
113.1113377007998
 20
-94.85757739006114
 30
0.0
 10
113.1113377007998
 20
-94.85757739006114
 30
0.0
 10
94.54250410387867
 20
-90.09510452452957
 30
0.0
 10
94.54250410387867
 20
-90.09510452452957
 30
0.0
 10
94.45192431441705
 20
-90.07187292049675
 30
0.0
 10
94.36944289862031
 20
-90.02601920413111
 30
0.0
 10
94.30526179437563
 20
-89.95801044335093
 30
0.0
 10
94.16368072403214
 20
-89.80798570854247
 30
0.0
 10
93.93310460658151
 20
-89.50150560018441
 30
0.0
 10
93.89752838771963
 20
-89.06875267247242
 30
0.0
  0
SPLINE
  5
80
330
79
100
AcDbEntity
  8
レイヤー 1
 62
   250
420
  2299925
370
    20
100
AcDbSpline
210
0.0
220
0.0
230
1.0
 70
     9
 71
     3
 72
    89
 73
    85
 74
     0
 42
0.0000000001
 43
0.0000000001
 40
0.0
 40
0.0
 40
0.0
 40
0.0
 40
1.0
 40
1.0
 40
1.0
 40
2.0
 40
2.0
 40
2.0
 40
3.0
 40
3.0
 40
3.0
 40
4.0
 40
4.0
 40
4.0
 40
5.0
 40
5.0
 40
5.0
 40
6.0
 40
6.0
 40
6.0
 40
7.0
 40
7.0
 40
7.0
 40
8.0
 40
8.0
 40
8.0
 40
9.0
 40
9.0
 40
9.0
 40
10.0
 40
10.0
 40
10.0
 40
11.0
 40
11.0
 40
11.0
 40
12.0
 40
12.0
 40
12.0
 40
13.0
 40
13.0
 40
13.0
 40
14.0
 40
14.0
 40
14.0
 40
15.0
 40
15.0
 40
15.0
 40
16.0
 40
16.0
 40
16.0
 40
17.0
 40
17.0
 40
17.0
 40
18.0
 40
18.0
 40
18.0
 40
19.0
 40
19.0
 40
19.0
 40
20.0
 40
20.0
 40
20.0
 40
21.0
 40
21.0
 40
21.0
 40
22.0
 40
22.0
 40
22.0
 40
23.0
 40
23.0
 40
23.0
 40
24.0
 40
24.0
 40
24.0
 40
25.0
 40
25.0
 40
25.0
 40
26.0
 40
26.0
 40
26.0
 40
27.0
 40
27.0
 40
27.0
 40
28.0
 40
28.0
 40
28.0
 40
28.0
 10
120.751626936925
 20
-75.97183636247844
 30
0.0
 10
120.7617861558384
 20
-75.88766399266787
 30
0.0
 10
120.7761928992097
 20
-75.80536357612729
 30
0.0
 10
120.7973512823895
 20
-75.72326290384239
 30
0.0
 10
120.925025784091
 20
-75.227848753613
 30
0.0
 10
121.457553729431
 20
-73.67491933741071
 30
0.0
 10
123.0883715966105
 20
-73.83800112412841
 30
0.0
 10
125.0256597317193
 20
-74.03172993763938
 30
0.0
 10
152.0508292164884
 20
-76.25961129301463
 30
0.0
 10
152.0508292164884
 20
-76.25961129301463
 30
0.0
 10
152.0508292164884
 20
-76.25961129301463
 30
0.0
 10
154.1818461651085
 20
-76.45334010652529
 30
0.0
 10
154.1818461651085
 20
-78.2937638348789
 30
0.0
 10
154.1818461651085
 20
-78.2937638348789
 30
0.0
 10
153.4830000131578
 20
-84.67073497142644
 30
0.0
 10
153.4830000131578
 20
-84.67073497142644
 30
0.0
 10
153.4337084439233
 20
-85.12052054069711
 30
0.0
 10
153.5363130179036
 20
-85.57386739291979
 30
0.0
 10
153.7744771202817
 20
-85.95859401983844
 30
0.0
 10
153.7744771202817
 20
-85.95859401983844
 30
0.0
 10
154.3130362224553
 20
-86.82857410796499
 30
0.0
 10
154.3130362224553
 20
-86.82857410796499
 30
0.0
 10
154.5423417863346
 20
-87.19899078807769
 30
0.0
 10
154.6462187988197
 20
-87.63342352066322
 30
0.0
 10
154.6092758854556
 20
-88.06750275269809
 30
0.0
 10
154.6092758854556
 20
-88.06750275269809
 30
0.0
 10
153.9682681957887
 20
-95.59934310627699
 30
0.0
 10
153.9682681957887
 20
-95.59934310627699
 30
0.0
 10
153.9192709280664
 20
-96.17506100201781
 30
0.0
 10
153.6269318197458
 20
-96.70251314872444
 30
0.0
 10
153.1646925205282
 20
-97.04919262313726
 30
0.0
 10
153.1646925205282
 20
-97.04919262313726
 30
0.0
 10
151.8786840152245
 20
-98.01369900211568
 30
0.0
 10
151.8786840152245
 20
-98.01369900211568
 30
0.0
 10
151.432151215926
 20
-98.34859860158925
 30
0.0
 10
151.1434606100316
 20
-98.85279386674133
 30
0.0
 10
151.0806730664266
 20
-99.40741716858255
 30
0.0
 10
151.0806730664266
 20
-99.40741716858255
 30
0.0
 10
150.6726254385608
 20
-103.0118378814052
 30
0.0
 10
150.6726254385608
 20
-103.0118378814052
 30
0.0
 10
150.6176609113544
 20
-103.4973578717281
 30
0.0
 10
150.3939051203877
 20
-103.9501530066268
 30
0.0
 10
150.0304583798134
 20
-104.2767371872306
 30
0.0
 10
149.4919139221167
 20
-104.760659811376
 30
0.0
 10
148.6092750298267
 20
-105.3431676665031
 30
0.0
 10
147.5543641146498
 20
-105.2415142103889
 30
0.0
 10
147.4527133395869
 20
-105.231718925827
 30
0.0
 10
147.3518178210941
 20
-105.2087497751394
 30
0.0
 10
147.2532010005732
 20
-105.1822252509996
 30
0.0
 10
147.2532010005732
 20
-105.1822252509996
 30
0.0
 10
119.4946487816164
 20
-97.7161318955563
 30
0.0
 10
119.4946487816164
 20
-97.7161318955563
 30
0.0
 10
119.3959180854573
 20
-97.68957674279603
 30
0.0
 10
119.2971763455063
 20
-97.67029258464654
 30
0.0
 10
119.1956725043816
 20
-97.65804935226425
 30
0.0
 10
118.8561192190968
 20
-97.61709297335599
 30
0.0
 10
117.891299813594
 20
-97.38099264085866
 30
0.0
 10
118.0514224453271
 20
-96.01995027112538
 30
0.0
 10
118.0514224453271
 20
-96.01995027112538
 30
0.0
 10
118.5803497726671
 20
-90.12232116258816
 30
0.0
 10
118.5803497726671
 20
-90.12232116258816
 30
0.0
 10
118.6144924892998
 20
-89.74162410072192
 30
0.0
 10
118.5403109986589
 20
-89.35903068925599
 30
0.0
 10
118.3663635694265
 20
-89.01868047274954
 30
0.0
 10
118.3663635694265
 20
-89.01868047274954
 30
0.0
 10
118.3147970893093
 20
-88.91778411141965
 30
0.0
 10
118.3147970893093
 20
-88.91778411141965
 30
0.0
 10
118.1315193429276
 20
-88.55917794553882
 30
0.0
 10
118.0592067982948
 20
-88.15410841877683
 30
0.0
 10
118.1070820176797
 20
-87.75423709210359
 30
0.0
 10
118.1070820176797
 20
-87.75423709210359
 30
0.0
 10
118.6296147783755
 20
-83.38985253294502
 30
0.0
 10
118.6296147783755
 20
-83.38985253294502
 30
0.0
 10
118.6935512554734
 20
-82.85583171281331
 30
0.0
 10
118.9670804050077
 20
-82.36910642952441
 30
0.0
 10
119.3899896526049
 20
-82.03682059212692
 30
0.0
 10
119.3899896526049
 20
-82.03682059212692
 30
0.0
 10
119.4259503324307
 20
-82.00856577226376
 30
0.0
 10
119.4259503324307
 20
-82.00856577226376
 30
0.0
 10
119.8483320571724
 20
-81.67669441710946
 30
0.0
 10
120.1217280579007
 20
-81.19074953300376
 30
0.0
 10
120.1860941334651
 20
-80.65745606212255
 30
0.0
 10
120.1860941334651
 20
-80.65745606212255
 30
0.0
 10
120.751626936925
 20
-75.97183636247844
 30
0.0
 10
120.751626936925
 20
-75.97183636247844
 30
0.0
  0
LINE
  5
81
330
79
100
AcDbEntity
  8
レイヤー 1
 62
   250
420
  2299925
370
    20
100
AcDbLine
 10
119.3002292964633
 20
-69.58388213198226
 30
0.0
 11
115.6076369082521
 21
-100.6458601003903
 31
0.0
  0
LINE
  5
82
330
79
100
AcDbEntity
  8
レイヤー 1
 62
   250
420
  2299925
370
    20
100
AcDbLine
 10
119.7259748617063
 20
-69.55232562077845
 30
0.0
 11
116.0227056182169
 21
-100.7714600030996
 31
0.0
  0
ELLIPSE
  5
83
330
79
100
AcDbEntity
  8
レイヤー 1
 62
   250
420
  2299925
370
    20
100
AcDbEllipse
 10
94.80016621983541
 20
-75.87211687938012
 30
0.0
 11
0.0
 21
0.6125433183773185
 31
0.0
210
0.0
220
0.0
230
1.0
 40
0.4154913993161767
 41
0.0
 42
6.283185307179585
  0
ELLIPSE
  5
84
330
79
100
AcDbEntity
  8
レイヤー 1
 62
   250
420
  2299925
370
    20
100
AcDbEllipse
 10
93.54472753620044
 20
-86.37218578541549
 30
0.0
 11
0.0
 21
0.5229982236111436
 31
0.0
210
0.0
220
0.0
230
1.0
 40
0.5714264119000966
 41
0.0
 42
6.283185307179586
  0
ELLIPSE
  5
85
330
79
100
AcDbEntity
  8
レイヤー 1
 62
   250
420
  2299925
370
    20
100
AcDbEllipse
 10
96.87040550147179
 20
-69.9634248539114
 30
0.0
 11
0.0000000000000001
 21
0.9686440675543119
 31
0.0
210
0.0
220
0.0
230
1.0
 40
0.4000000000002319
 41
0.0
 42
6.283185307179585
  0
ELLIPSE
  5
86
330
79
100
AcDbEntity
  8
レイヤー 1
 62
   250
420
  2299925
370
    20
100
AcDbEllipse
 10
100.8418461784451
 20
-70.46821422021806
 30
0.0
 11
0.0000000000000001
 21
0.9158885994399291
 31
0.0
210
0.0
220
0.0
230
1.0
 40
0.7403202176585264
 41
0.0
 42
6.283185307179586
  0
ELLIPSE
  5
87
330
79
100
AcDbEntity
  8
レイヤー 1
 62
   250
420
  2299925
370
    20
100
AcDbEllipse
 10
105.4913377027063
 20
-70.96435705705096
 30
0.0
 11
0.0000000000000001
 21
1.000932203139634
 31
0.0
210
0.0
220
0.0
230
1.0
 40
0.6774193548386606
 41
0.0
 42
6.283185307179586
  0
ELLIPSE
  5
88
330
79
100
AcDbEntity
  8
レイヤー 1
 62
   250
420
  2299925
370
    20
100
AcDbEllipse
 10
109.9814065575148
 20
-71.30136447222018
 30
0.0
 11
0.0000000000000001
 21
1.039130740252567
 31
0.0
210
0.0
220
0.0
230
1.0
 40
0.7146618704378959
 41
0.0
 42
6.283185307179586
  0
ELLIPSE
  5
89
330
79
100
AcDbEntity
  8
レイヤー 1
 62
   250
420
  2299925
370
    20
100
AcDbEllipse
 10
115.80739702216
 20
-71.85228078564164
 30
0.0
 11
0.0000000000000001
 21
1.130084745480124
 31
0.0
210
0.0
220
0.0
230
1.0
 40
0.6571428571428287
 41
0.0
 42
6.283185307179586
  0
ELLIPSE
  5
8A
330
79
100
AcDbEntity
  8
レイヤー 1
 62
   250
420
  2299925
370
    20
100
AcDbEllipse
 10
117.3854796488848
 20
-79.90413459718827
 30
0.0
 11
0.0
 21
0.6901588981325667
 31
0.0
210
0.0
220
0.0
230
1.0
 40
0.508771929824594
 41
0.0
 42
6.283185307179585
  0
ELLIPSE
  5
8B
330
79
100
AcDbEntity
  8
レイヤー 1
 62
   250
420
  2299925
370
    20
100
AcDbEllipse
 10
115.8961893950203
 20
-90.81348840802027
 30
0.0
 11
0.0
 21
0.7749152540437383
 31
0.0
210
0.0
220
0.0
230
1.0
 40
0.6080582537564111
 41
0.0
 42
6.283185307179586
  0
ELLIPSE
  5
8C
330
79
100
AcDbEntity
  8
レイヤー 1
 62
   250
420
  2299925
370
    20
100
AcDbEllipse
 10
97.01570211160413
 20
-74.79050112389053
 30
0.0
 11
0.0000000000000001
 21
1.21080508444311
 31
0.0
210
0.0
220
0.0
230
1.0
 40
0.6800000000000717
 41
0.0
 42
6.283185307179586
  0
ELLIPSE
  5
8D
330
79
100
AcDbEntity
  8
レイヤー 1
 62
   250
420
  2299925
370
    20
100
AcDbEllipse
 10
98.7754055009946
 20
-74.8550773950607
 30
0.0
 11
0.0000000000000001
 21
1.275381355613595
 31
0.0
210
0.0
220
0.0
230
1.0
 40
0.6075949367088879
 41
0.0
 42
6.283185307179586
  0
ELLIPSE
  5
8E
330
79
100
AcDbEntity
  8
レイヤー 1
 62
   250
420
  2299925
370
    20
100
AcDbEllipse
 10
100.5673970259704
 20
-75.00037400519417
 30
0.0
 11
0.0000000000000001
 21
1.291525423405936
 31
0.0
210
0.0
220
0.0
230
1.0
 40
0.6375000000000908
 41
0.0
 42
6.283185307179586
  0
ELLIPSE
  5
8F
330
79
100
AcDbEntity
  8
レイヤー 1
 62
   250
420
  2299925
370
    20
100
AcDbEllipse
 10
102.4078207543241
 20
-75.16133066094283
 30
0.0
 11
0.0000000000000001
 21
1.323329536814588
 31
0.0
210
0.0
220
0.0
230
1.0
 40
0.6709770347363833
 41
0.0
 42
6.283185307179586
  0
ELLIPSE
  5
90
330
79
100
AcDbEntity
  8
レイヤー 1
 62
   250
420
  2299925
370
    20
100
AcDbEllipse
 10
104.3727688480902
 20
-75.33939942883806
 30
0.0
 11
0.0000000000000001
 21
1.307669491198517
 31
0.0
210
0.0
220
0.0
230
1.0
 40
0.6507817317806081
 41
0.0
 42
6.283185307179586
  0
ELLIPSE
  5
91
330
79
100
AcDbEntity
  8
レイヤー 1
 62
   250
420
  2299925
370
    20
100
AcDbEllipse
 10
106.3429372787636
 20
-75.53312824234895
 30
0.0
 11
0.0000000000000001
 21
1.501398304709251
 31
0.0
210
0.0
220
0.0
230
1.0
 40
0.6370967741937018
 41
0.0
 42
6.283185307179586
  0
ELLIPSE
  5
92
330
79
100
AcDbEntity
  8
レイヤー 1
 62
   250
420
  2299925
370
    20
100
AcDbEllipse
 10
108.3821348418131
 20
-75.71071298806735
 30
0.0
 11
0.0000000000000001
 21
1.517542372501832
 31
0.0
210
0.0
220
0.0
230
1.0
 40
0.564494680851131
 41
0.0
 42
6.283185307179586
  0
ELLIPSE
  5
93
330
79
100
AcDbEntity
  8
レイヤー 1
 62
   250
420
  2299925
370
    20
100
AcDbEllipse
 10
110.5444309217811
 20
-76.0981706150889
 30
0.0
 11
0.0000000000000001
 21
1.582118643672237
 31
0.0
210
0.0
220
0.0
230
1.0
 40
0.7040816326530784
 41
0.0
 42
6.283185307179586
  0
ELLIPSE
  5
94
330
79
100
AcDbEntity
  8
レイヤー 1
 62
   250
420
  2299925
370
    20
100
AcDbEllipse
 10
112.8691766839118
 20
-76.24346722522237
 30
0.0
 11
0.0000000000000001
 21
1.727415253805228
 31
0.0
210
0.0
220
0.0
230
1.0
 40
0.7009345794393181
 41
0.0
 42
6.283185307179586
  0
ELLIPSE
  5
95
330
79
100
AcDbEntity
  8
レイヤー 1
 62
   250
420
  2299925
370
    20
100
AcDbEllipse
 10
95.91790550170948
 20
-78.22111552981245
 30
0.0
 11
0.0000000000000001
 21
0.9928601692431035
 31
0.0
210
0.0
220
0.0
230
1.0
 40
0.5691056910576015
 41
0.0
 42
6.283185307179586
  0
ELLIPSE
  5
96
330
79
100
AcDbEntity
  8
レイヤー 1
 62
   250
420
  2299925
370
    20
100
AcDbEllipse
 10
97.48388007758858
 20
-78.12425112305679
 30
0.0
 11
0.0000000000000001
 21
1.089724575998751
 31
0.0
210
0.0
220
0.0
230
1.0
 40
0.7111111111111308
 41
0.0
 42
6.283185307179586
  0
ELLIPSE
  5
97
330
79
100
AcDbEntity
  8
レイヤー 1
 62
   250
420
  2299925
370
    20
100
AcDbEllipse
 10
99.34044787373501
 20
-78.34219603825673
 30
0.0
 11
0.0000000000000001
 21
1.307669491198357
 31
0.0
210
0.0
220
0.0
230
1.0
 40
0.6296296296299159
 41
0.0
 42
6.283185307179586
  0
ELLIPSE
  5
98
330
79
100
AcDbEntity
  8
レイヤー 1
 62
   250
420
  2299925
370
    20
100
AcDbEllipse
 10
101.1162953309179
 20
-78.46933057212329
 30
0.0
 11
0.0000000000000001
 21
1.434804025065074
 31
0.0
210
0.0
220
0.0
230
1.0
 40
0.5288326300983318
 41
0.0
 42
6.283185307179585
  0
ELLIPSE
  5
99
330
79
100
AcDbEntity
  8
レイヤー 1
 62
   250
420
  2299925
370
    20
100
AcDbEllipse
 10
103.0697275338193
 20
-78.68122146190085
 30
0.0
 11
0.0000000000000001
 21
1.452966101331668
 31
0.0
210
0.0
220
0.0
230
1.0
 40
0.644444444444453
 41
0.0
 42
6.283185307179586
  0
ELLIPSE
  5
9A
330
79
100
AcDbEntity
  8
レイヤー 1
 62
   250
420
  2299925
370
    20
100
AcDbEllipse
 10
105.2710786990423
 20
-79.10096722450797
 30
0.0
 11
0.0000000000000001
 21
1.61440677925748
 31
0.0
210
0.0
220
0.0
230
1.0
 40
0.5564333986290887
 41
0.0
 42
6.283185307179586
  0
ELLIPSE
  5
9B
330
79
100
AcDbEntity
  8
レイヤー 1
 62
   250
420
  2299925
370
    20
100
AcDbEllipse
 10
107.3625360602883
 20
-79.39156044477498
 30
0.0
 11
0.0000000000000001
 21
1.582118643672077
 31
0.0
210
0.0
220
0.0
230
1.0
 40
0.6444515306122779
 41
0.0
 42
6.283185307179586
  0
ELLIPSE
  5
9C
330
79
100
AcDbEntity
  8
レイヤー 1
 62
   250
420
  2299925
370
    20
100
AcDbEllipse
 10
109.4143461763007
 20
-79.79112612264053
 30
0.0
 11
0.0000000000000001
 21
1.666874999583971
 31
0.0
210
0.0
220
0.0
230
1.0
 40
0.5133171912831611
 41
0.0
 42
6.283185307179585
  0
ELLIPSE
  5
9D
330
79
100
AcDbEntity
  8
レイヤー 1
 62
   250
420
  2299925
370
    20
100
AcDbEllipse
 10
111.3193461758244
 20
-80.09281838951446
 30
0.0
 11
0.0000000000000001
 21
1.623487817391338
 31
0.0
210
0.0
220
0.0
230
1.0
 40
0.6463642013670562
 41
0.0
 42
6.283185307179586
  0
ELLIPSE
  5
9E
330
79
100
AcDbEntity
  8
レイヤー 1
 62
   250
420
  2299925
370
    20
100
AcDbEllipse
 10
113.7409563447104
 20
-80.34406044453655
 30
0.0
 11
0.0000000000000001
 21
1.662838982635705
 31
0.0
210
0.0
220
0.0
230
1.0
 40
0.6504854368930256
 41
0.0
 42
6.283185307179586
  0
ELLIPSE
  5
9F
330
79
100
AcDbEntity
  8
レイヤー 1
 62
   250
420
  2299925
370
    20
100
AcDbEllipse
 10
96.32957923041958
 20
-81.44992908832804
 30
0.0
 11
0.0000000000000001
 21
1.105868643791332
 31
0.0
210
0.0
220
0.0
230
1.0
 40
0.6204379562042869
 41
0.0
 42
6.283185307179586
  0
ELLIPSE
  5
A0
330
79
100
AcDbEntity
  8
レイヤー 1
 62
   250
420
  2299925
370
    20
100
AcDbEllipse
 10
98.08121058591392
 20
-81.69209010521669
 30
0.0
 11
0.0000000000000001
 21
1.34802966068013
 31
0.0
210
0.0
220
0.0
230
1.0
 40
0.658682634730616
 41
0.0
 42
6.283185307179586
  0
ELLIPSE
  5
A1
330
79
100
AcDbEntity
  8
レイヤー 1
 62
   250
420
  2299925
370
    20
100
AcDbEllipse
 10
100.0346427888154
 20
-82.04322357970481
 30
0.0
 11
0.0000000000000001
 21
1.448930084383964
 31
0.0
210
0.0
220
0.0
230
1.0
 40
0.6016713091920624
 41
0.0
 42
6.283185307179586
  0
ELLIPSE
  5
A2
330
79
100
AcDbEntity
  8
レイヤー 1
 62
   250
420
  2299925
370
    20
100
AcDbEllipse
 10
101.8508504154799
 20
-82.34188883386764
 30
0.0
 11
0.0000000000000001
 21
1.497362287761226
 31
0.0
210
0.0
220
0.0
230
1.0
 40
0.4905660377358046
 41
0.0
 42
6.283185307179585
  0
ELLIPSE
  5
A3
330
79
100
AcDbEntity
  8
レイヤー 1
 62
   250
420
  2299925
370
    20
100
AcDbEllipse
 10
103.6832021099372
 20
-82.68495027446004
 30
0.0
 11
0.0000000000000001
 21
1.582118643672318
 31
0.0
210
0.0
220
0.0
230
1.0
 40
0.5918367346939148
 41
0.0
 42
6.283185307179586
  0
ELLIPSE
  5
A4
330
79
100
AcDbEntity
  8
レイヤー 1
 62
   250
420
  2299925
370
    20
100
AcDbEllipse
 10
105.7334987195941
 20
-83.05222781674098
 30
0.0
 11
0.0000000000000001
 21
1.602298728413004
 31
0.0
210
0.0
220
0.0
230
1.0
 40
0.5743073047859884
 41
0.0
 42
6.283185307179586
  0
ELLIPSE
  5
A5
330
79
100
AcDbEntity
  8
レイヤー 1
 62
   250
420
  2299925
370
    20
100
AcDbEllipse
 10
107.7676512614582
 20
-83.4034806107015
 30
0.0
 11
0.0000000000000001
 21
1.711390505484968
 31
0.0
210
0.0
220
0.0
230
1.0
 40
0.5376983576965458
 41
0.0
 42
6.283185307179585
  0
ELLIPSE
  5
A6
330
79
100
AcDbEntity
  8
レイヤー 1
 62
   250
420
  2299925
370
    20
100
AcDbEllipse
 10
109.8502360067004
 20
-83.80090896062151
 30
0.0
 11
0.0000000000000001
 21
1.757685380916698
 31
0.0
210
0.0
220
0.0
230
1.0
 40
0.5327210103328074
 41
0.0
 42
6.283185307179585
  0
ELLIPSE
  5
A7
330
79
100
AcDbEntity
  8
レイヤー 1
 62
   250
420
  2299925
370
    20
100
AcDbEllipse
 10
112.0619732942831
 20
-84.09553819783599
 30
0.0
 11
0.0000000000000001
 21
1.753649363968353
 31
0.0
210
0.0
220
0.0
230
1.0
 40
0.6352128883774542
 41
0.0
 42
6.283185307179586
  0
ELLIPSE
  5
A8
330
79
100
AcDbEntity
  8
レイヤー 1
 62
   250
420
  2299925
370
    20
100
AcDbEllipse
 10
95.32864702728035
 20
-84.67067061294647
 30
0.0
 11
0.0000000000000001
 21
1.178516948857867
 31
0.0
210
0.0
220
0.0
230
1.0
 40
0.5000000000003064
 41
0.0
 42
6.283185307179585
  0
ELLIPSE
  5
A9
330
79
100
AcDbEntity
  8
レイヤー 1
 62
   250
420
  2299925
370
    20
100
AcDbEllipse
 10
96.80582923030073
 20
-84.93216972475222
 30
0.0
 11
0.0000000000000001
 21
1.440016060663279
 31
0.0
210
0.0
220
0.0
230
1.0
 40
0.4708633922983445
 41
0.0
 42
6.283185307179585
  0
ELLIPSE
  5
AA
330
79
100
AcDbEntity
  8
レイヤー 1
 62
   250
420
  2299925
370
    20
100
AcDbEllipse
 10
98.54131651800249
 20
-85.22864995602715
 30
0.0
 11
0.0000000000000001
 21
1.427740995405629
 31
0.0
210
0.0
220
0.0
230
1.0
 40
0.5597173144878229
 41
0.0
 42
6.283185307179586
  0
ELLIPSE
  5
AB
330
79
100
AcDbEntity
  8
レイヤー 1
 62
   250
420
  2299925
370
    20
100
AcDbEllipse
 10
100.4221004158371
 20
-85.74727813386383
 30
0.0
 11
0.0000000000000001
 21
1.651739936027674
 31
0.0
210
0.0
220
0.0
230
1.0
 40
0.5082467929137707
 41
0.0
 42
6.283185307179585
  0
ELLIPSE
  5
AC
330
79
100
AcDbEntity
  8
レイヤー 1
 62
   250
420
  2299925
370
    20
100
AcDbEllipse
 10
102.246380076398
 20
-86.25278925661872
 30
0.0
 11
0.0000000000000001
 21
1.598262711464738
 31
0.0
210
0.0
220
0.0
230
1.0
 40
0.5151515151515227
 41
0.0
 42
6.283185307179585
  0
ELLIPSE
  5
AD
330
79
100
AcDbEntity
  8
レイヤー 1
 62
   250
420
  2299925
370
    20
100
AcDbEllipse
 10
104.1467518989943
 20
-86.64991593109901
 30
0.0
 11
0.0000000000000001
 21
1.717746206346721
 31
0.0
210
0.0
220
0.0
230
1.0
 40
0.6269985409925575
 41
0.0
 42
6.283185307179586
  0
ELLIPSE
  5
AE
330
79
100
AcDbEntity
  8
レイヤー 1
 62
   250
420
  2299925
370
    20
100
AcDbEllipse
 10
106.2931561622287
 20
-87.30215366313601
 30
0.0
 11
0.0000000000000001
 21
1.743559321597809
 31
0.0
210
0.0
220
0.0
230
1.0
 40
0.6133315252386616
 41
0.0
 42
6.283185307179586
  0
ELLIPSE
  5
AF
330
79
100
AcDbEntity
  8
レイヤー 1
 62
   250
420
  2299925
370
    20
100
AcDbEllipse
 10
108.3006577496725
 20
-87.5417921694321
 30
0.0
 11
0.0000000000000001
 21
1.794514035568189
 31
0.0
210
0.0
220
0.0
230
1.0
 40
0.522771998875572
 41
0.0
 42
6.283185307179585
  0
ELLIPSE
  5
B0
330
79
100
AcDbEntity
  8
レイヤー 1
 62
   250
420
  2299925
370
    20
100
AcDbEllipse
 10
110.4717826167145
 20
-88.0973162405475
 30
0.0
 11
0.0000000000000001
 21
1.725130455132011
 31
0.0
210
0.0
220
0.0
230
1.0
 40
0.4913040382474118
 41
0.0
 42
6.283185307179585
  0
ELLIPSE
  5
B1
330
79
100
AcDbEntity
  8
レイヤー 1
 62
   250
420
  2299925
370
    20
100
AcDbEllipse
 10
112.9337529550821
 20
-88.54524688316422
 30
0.0
 11
0.0000000000000001
 21
1.888855931731281
 31
0.0
210
0.0
220
0.0
230
1.0
 40
0.6068376068375416
 41
0.0
 42
6.283185307179586
  0
ELLIPSE
  5
B2
330
79
100
AcDbEntity
  8
レイヤー 1
 62
   250
420
  2299925
370
    20
100
AcDbEllipse
 10
95.6152042305983
 20
-88.38380620523848
 30
0.0
 11
0.0000000000000001
 21
1.307669491198597
 31
0.0
210
0.0
220
0.0
230
1.0
 40
0.5462962962962827
 41
0.0
 42
6.283185307179585
  0
ELLIPSE
  5
B3
330
79
100
AcDbEntity
  8
レイヤー 1
 62
   250
420
  2299925
370
    20
100
AcDbEllipse
 10
97.28207923018189
 20
-88.67036340855651
 30
0.0
 11
0.0000000000000001
 21
1.368209745420336
 31
0.0
210
0.0
220
0.0
230
1.0
 40
0.5840707964600432
 41
0.0
 42
6.283185307179586
  0
ELLIPSE
  5
B4
330
79
100
AcDbEntity
  8
レイヤー 1
 62
   250
420
  2299925
370
    20
100
AcDbEllipse
 10
104.7890707537287
 20
-90.61168756061364
 30
0.0
 11
0.0000000000000001
 21
1.565974575879656
 31
0.0
210
0.0
220
0.0
230
1.0
 40
0.6030927835052279
 41
0.0
 42
6.283185307179586
  0
ELLIPSE
  5
B5
330
79
100
AcDbEntity
  8
レイヤー 1
 62
   250
420
  2299925
370
    20
100
AcDbEllipse
 10
106.7344309227336
 20
-90.91640684019834
 30
0.0
 11
0.0000000000000001
 21
1.519560380976246
 31
0.0
210
0.0
220
0.0
230
1.0
 40
0.520584329349111
 41
0.0
 42
6.283185307179585
  0
ELLIPSE
  5
B6
330
79
100
AcDbEntity
  8
レイヤー 1
 62
   250
420
  2299925
370
    20
100
AcDbEllipse
 10
108.6959351595314
 20
-91.51666458544886
 30
0.0
 11
0.0000000000000001
 21
1.694217889769331
 31
0.0
210
0.0
220
0.0
230
1.0
 40
0.54791293592092
 41
0.0
 42
6.283185307179585
  0
ELLIPSE
  5
B7
330
79
100
AcDbEntity
  8
レイヤー 1
 62
   250
420
  2299925
370
    20
100
AcDbEllipse
 10
111.109473294521
 20
-91.97182527213817
 30
0.0
 11
0.0000000000000001
 21
1.787955508027448
 31
0.0
210
0.0
220
0.0
230
1.0
 40
0.7042889390519233
 41
0.0
 42
6.283185307179586
  0
ELLIPSE
  5
B8
330
79
100
AcDbEntity
  8
レイヤー 1
 62
   250
420
  2299925
370
    20
100
AcDbEllipse
 10
100.7288377038962
 20
-89.50686154037288
 30
0.0
 11
0.0000000000000001
 21
1.409545299825545
 31
0.0
210
0.0
220
0.0
230
1.0
 40
0.4924956403789719
 41
0.0
 42
6.283185307179585
  0
ELLIPSE
  5
B9
330
79
100
AcDbEntity
  8
レイヤー 1
 62
   250
420
  2299925
370
    20
100
AcDbEllipse
 10
102.6822699067977
 20
-89.97803289975486
 30
0.0
 11
0.0000000000000001
 21
1.610370762309134
 31
0.0
210
0.0
220
0.0
230
1.0
 40
0.6215538847118555
 41
0.0
 42
6.283185307179586
  0
ELLIPSE
  5
BA
330
79
100
AcDbEntity
  8
レイヤー 1
 62
   250
420
  2299925
370
    20
100
AcDbEllipse
 10
99.06599872126106
 20
-89.07673986502292
 30
0.0
 11
0.0000000000000001
 21
1.534947695590812
 31
0.0
210
0.0
220
0.0
230
1.0
 40
0.5258833196385903
 41
0.0
 42
6.283185307179585
  0
ELLIPSE
  5
BB
330
79
100
AcDbEntity
  8
レイヤー 1
 62
   250
420
  2299925
370
    20
100
AcDbEllipse
 10
119.3002292964633
 20
-80.09281838951437
 30
0.0
 11
0.0000000000000001
 21
1.117976694636289
 31
0.0
210
0.0
220
0.0
230
1.0
 40
0.5125697704501349
 41
0.0
 42
6.283185307179585
  0
ELLIPSE
  5
BC
330
79
100
AcDbEntity
  8
レイヤー 1
 62
   250
420
  2299925
370
    20
100
AcDbEllipse
 10
117.9342052908368
 20
-91.1383877723451
 30
0.0
 11
0.0000000000000001
 21
0.8334374997931487
 31
0.0
210
0.0
220
0.0
230
1.0
 40
0.5762545944936364
 41
0.0
 42
6.283185307179586
  0
ELLIPSE
  5
BD
330
79
100
AcDbEntity
  8
レイヤー 1
 62
   250
420
  2299925
370
    20
100
AcDbEllipse
 10
118.9594330129878
 20
-99.53935704990335
 30
0.0
 11
0.0
 21
0.8072033896286601
 31
0.0
210
0.0
220
0.0
230
1.0
 40
0.6751155169489462
 41
0.0
 42
6.283185307179586
  0
ELLIPSE
  5
BE
330
79
100
AcDbEntity
  8
レイヤー 1
 62
   250
420
  2299925
370
    20
100
AcDbEllipse
 10
125.7359987145935
 20
-101.6057977273512
 30
0.0
 11
0.0000000000000001
 21
1.088917372609338
 31
0.0
210
0.0
220
0.0
230
1.0
 40
0.5633802816899831
 41
0.0
 42
6.283185307179586
  0
ELLIPSE
  5
BF
330
79
100
AcDbEntity
  8
レイヤー 1
 62
   250
420
  2299925
370
    20
100
AcDbEllipse
 10
132.2904902383784
 20
-103.3977892523286
 30
0.0
 11
0.0000000000000001
 21
1.113940677687382
 31
0.0
210
0.0
220
0.0
230
1.0
 40
0.6666666666666668
 41
0.0
 42
6.283185307179586
  0
ELLIPSE
  5
C0
330
79
100
AcDbEntity
  8
レイヤー 1
 62
   250
420
  2299925
370
    20
100
AcDbEllipse
 10
113.2243461753483
 20
-97.95723840623081
 30
0.0
 11
0.0000000000000001
 21
1.146228813272945
 31
0.0
210
0.0
220
0.0
230
1.0
 40
0.7464788732394358
 41
0.0
 42
6.283185307179586
  0
ELLIPSE
  5
C1
330
79
100
AcDbEntity
  8
レイヤー 1
 62
   250
420
  2299925
370
    20
100
AcDbEllipse
 10
107.3625360602883
 20
-96.41058348555143
 30
0.0
 11
0.0000000000000001
 21
1.033220338724877
 31
0.0
210
0.0
220
0.0
230
1.0
 40
0.671875000000131
 41
0.0
 42
6.283185307179586
  0
ELLIPSE
  5
C2
330
79
100
AcDbEntity
  8
レイヤー 1
 62
   250
420
  2299925
370
    20
100
AcDbEllipse
 10
102.601549567835
 20
-94.97058586460511
 30
0.0
 11
0.0000000000000001
 21
0.9524999997618909
 31
0.0
210
0.0
220
0.0
230
1.0
 40
0.6271186440678925
 41
0.0
 42
6.283185307179586
  0
ELLIPSE
  5
C3
330
79
100
AcDbEntity
  8
レイヤー 1
 62
   250
420
  2299925
370
    20
100
AcDbEllipse
 10
98.5736046535875
 20
-93.7597807801657
 30
0.0
 11
0.0000000000000001
 21
0.8556355930065642
 31
0.0
210
0.0
220
0.0
230
1.0
 40
0.5754716981131819
 41
0.0
 42
6.283185307179586
  0
ELLIPSE
  5
C4
330
79
100
AcDbEntity
  8
レイヤー 1
 62
   250
420
  2299925
370
    20
100
AcDbEllipse
 10
94.56180380713314
 20
-92.54897569571921
 30
0.0
 11
0.0000000000000001
 21
0.8233474574212415
 31
0.0
210
0.0
220
0.0
230
1.0
 40
0.5686274509804742
 41
0.0
 42
6.283185307179586
  0
ELLIPSE
  5
C5
330
79
100
AcDbEntity
  8
レイヤー 1
 62
   250
420
  2299925
370
    20
100
AcDbEllipse
 10
139.490744473866
 20
-105.5288062009472
 30
0.0
 11
0.0000000000000001
 21
1.017076270931173
 31
0.0
210
0.0
220
0.0
230
1.0
 40
0.6666666666672977
 41
0.0
 42
6.283185307179586
  0
ELLIPSE
  5
C6
330
79
100
AcDbEntity
  8
レイヤー 1
 62
   250
420
  2299925
370
    20
100
AcDbEllipse
 10
147.4336258278127
 20
-107.8858400986623
 30
0.0
 11
0.0000000000000001
 21
1.339957626783599
 31
0.0
210
0.0
220
0.0
230
1.0
 40
0.6987951807229868
 41
0.0
 42
6.283185307179586
  0
ELLIPSE
  5
C7
330
79
100
AcDbEntity
  8
レイヤー 1
 62
   250
420
  2299925
370
    20
100
AcDbEllipse
 10
152.5190071824726
 20
-99.24876382963585
 30
0.0
 11
0.0
 21
0.8072033896287402
 31
0.0
210
0.0
220
0.0
230
1.0
 40
0.6199999999998492
 41
0.0
 42
6.283185307179586
  0
ELLIPSE
  5
C8
330
79
100
AcDbEntity
  8
レイヤー 1
 62
   250
420
  2299925
370
    20
100
AcDbEllipse
 10
154.4078631142047
 20
-84.99355196879346
 30
0.0
 11
0.0000000000000001
 21
0.8879237285915662
 31
0.0
210
0.0
220
0.0
230
1.0
 40
0.6545454545455695
 41
0.0
 42
6.283185307179586
  0
ELLIPSE
  5
C9
330
79
100
AcDbEntity
  8
レイヤー 1
 62
   250
420
  2299925
370
    20
100
AcDbEllipse
 10
123.766422443899
 20
-77.56728078420978
 30
0.0
 11
0.0000000000000001
 21
1.88885593173112
 31
0.0
210
0.0
220
0.0
230
1.0
 40
0.666666666666511
 41
0.0
 42
6.283185307179586
  0
ELLIPSE
  5
CA
330
79
100
AcDbEntity
  8
レイヤー 1
 62
   250
420
  2299925
370
    20
100
AcDbEllipse
 10
126.5432021042218
 20
-77.79127972483358
 30
0.0
 11
0.0000000000000001
 21
2.112854872354769
 31
0.0
210
0.0
220
0.0
230
1.0
 40
0.5501432664752722
 41
0.0
 42
6.283185307179585
  0
ELLIPSE
  5
CB
330
79
100
AcDbEntity
  8
レイヤー 1
 62
   250
420
  2299925
370
    20
100
AcDbEllipse
 10
129.1262529510337
 20
-78.14846722474237
 30
0.0
 11
0.0000000000000001
 21
2.14716101641242
 31
0.0
210
0.0
220
0.0
230
1.0
 40
0.5714285714285447
 41
0.0
 42
6.283185307179586
  0
ELLIPSE
  5
CC
330
79
100
AcDbEntity
  8
レイヤー 1
 62
   250
420
  2299925
370
    20
100
AcDbEllipse
 10
132.11290549266
 20
-78.56821298734934
 30
0.0
 11
0.0000000000000001
 21
2.211737287582584
 31
0.0
210
0.0
220
0.0
230
1.0
 40
0.6496350364964028
 41
0.0
 42
6.283185307179586
  0
ELLIPSE
  5
CD
330
79
100
AcDbEntity
  8
レイヤー 1
 62
   250
420
  2299925
370
    20
100
AcDbEllipse
 10
135.0019946572154
 20
-78.9773642054696
 30
0.0
 11
0.0000000000000001
 21
2.233430878681066
 31
0.0
210
0.0
220
0.0
230
1.0
 40
0.5924134932070082
 41
0.0
 42
6.283185307179586
  0
ELLIPSE
  5
CE
330
79
100
AcDbEntity
  8
レイヤー 1
 62
   250
420
  2299925
370
    20
100
AcDbEllipse
 10
138.1346427792901
 20
-79.48842485152614
 30
0.0
 11
0.0000000000000001
 21
2.163305084205161
 31
0.0
210
0.0
220
0.0
230
1.0
 40
0.6716417910447037
 41
0.0
 42
6.283185307179586
  0
ELLIPSE
  5
CF
330
79
100
AcDbEntity
  8
レイヤー 1
 62
   250
420
  2299925
370
    20
100
AcDbEllipse
 10
141.4603207445602
 20
-79.68215366503703
 30
0.0
 11
0.0000000000000001
 21
2.357033897715895
 31
0.0
210
0.0
220
0.0
230
1.0
 40
0.6849315068491865
 41
0.0
 42
6.283185307179586
  0
ELLIPSE
  5
D0
330
79
100
AcDbEntity
  8
レイヤー 1
 62
   250
420
  2299925
370
    20
100
AcDbEllipse
 10
144.9312953199639
 20
-80.13418756322932
 30
0.0
 11
0.0000000000000001
 21
2.260169490960408
 31
0.0
210
0.0
220
0.0
230
1.0
 40
0.7071428571430163
 41
0.0
 42
6.283185307179586
  0
ELLIPSE
  5
D1
330
79
100
AcDbEntity
  8
レイヤー 1
 62
   250
420
  2299925
370
    20
100
AcDbEllipse
 10
148.48299023433
 20
-80.48128502076956
 30
0.0
 11
0.0000000000000001
 21
2.332817796026943
 31
0.0
210
0.0
220
0.0
230
1.0
 40
0.7681660899653631
 41
0.0
 42
6.283185307179586
  0
ELLIPSE
  5
D2
330
79
100
AcDbEntity
  8
レイヤー 1
 62
   250
420
  2299925
370
    20
100
AcDbEllipse
 10
122.2488800713972
 20
-81.76272040180665
 30
0.0
 11
0.0000000000000001
 21
1.858585804618286
 31
0.0
210
0.0
220
0.0
230
1.0
 40
0.5559174809994842
 41
0.0
 42
6.283185307179586
  0
ELLIPSE
  5
D3
330
79
100
AcDbEntity
  8
レイヤー 1
 62
   250
420
  2299925
370
    20
100
AcDbEllipse
 10
124.6866343080756
 20
-81.96603475557171
 30
0.0
 11
0.0000000000000001
 21
1.873216366057162
 31
0.0
210
0.0
220
0.0
230
1.0
 40
0.594667384864024
 41
0.0
 42
6.283185307179586
  0
ELLIPSE
  5
D4
330
79
100
AcDbEntity
  8
レイヤー 1
 62
   250
420
  2299925
370
    20
100
AcDbEllipse
 10
127.4149817650207
 20
-82.43471722367262
 30
0.0
 11
0.0000000000000001
 21
2.09065677913622
 31
0.0
210
0.0
220
0.0
230
1.0
 40
0.6795366795373632
 41
0.0
 42
6.283185307179586
  0
ELLIPSE
  5
D5
330
79
100
AcDbEntity
  8
レイヤー 1
 62
   250
420
  2299925
370
    20
100
AcDbEllipse
 10
130.401634306647
 20
-82.94741069555918
 30
0.0
 11
0.0000000000000001
 21
2.167460420627272
 31
0.0
210
0.0
220
0.0
230
1.0
 40
0.5884219815392312
 41
0.0
 42
6.283185307179586
  0
ELLIPSE
  5
D6
330
79
100
AcDbEntity
  8
レイヤー 1
 62
   250
420
  2299925
370
    20
100
AcDbEllipse
 10
133.2591343059318
 20
-83.33626250946421
 30
0.0
 11
0.0000000000000001
 21
2.125467425313376
 31
0.0
210
0.0
220
0.0
230
1.0
 40
0.6228340849759566
 41
0.0
 42
6.283185307179586
  0
ELLIPSE
  5
D7
330
79
100
AcDbEntity
  8
レイヤー 1
 62
   250
420
  2299925
370
    20
100
AcDbEllipse
 10
136.1004902374249
 20
-83.96739465972874
 30
0.0
 11
0.0000000000000001
 21
2.204674257922097
 31
0.0
210
0.0
220
0.0
230
1.0
 40
0.5858123569798643
 41
0.0
 42
6.283185307179586
  0
ELLIPSE
  5
D8
330
79
100
AcDbEntity
  8
レイヤー 1
 62
   250
420
  2299925
370
    20
100
AcDbEllipse
 10
139.119430914636
 20
-84.42850959605278
 30
0.0
 11
0.0000000000000001
 21
2.163305084205161
 31
0.0
210
0.0
220
0.0
230
1.0
 40
0.6791044776117222
 41
0.0
 42
6.283185307179586
  0
ELLIPSE
  5
D9
330
79
100
AcDbEntity
  8
レイヤー 1
 62
   250
420
  2299925
370
    20
100
AcDbEllipse
 10
142.2836682019807
 20
-84.89668756203748
 30
0.0
 11
0.0000000000000001
 21
2.244025423167907
 31
0.0
210
0.0
220
0.0
230
1.0
 40
0.7553956834532844
 41
0.0
 42
6.283185307179586
  0
ELLIPSE
  5
DA
330
79
100
AcDbEntity
  8
レイヤー 1
 62
   250
420
  2299925
370
    20
100
AcDbEllipse
 10
145.8192190485544
 20
-85.41329773139976
 30
0.0
 11
0.0000000000000001
 21
2.308601694338232
 31
0.0
210
0.0
220
0.0
230
1.0
 40
0.7412587412585383
 41
0.0
 42
6.283185307179586
  0
ELLIPSE
  5
DB
330
79
100
AcDbEntity
  8
レイヤー 1
 62
   250
420
  2299925
370
    20
100
AcDbEllipse
 10
149.3547698951282
 20
-85.75509791669729
 30
0.0
 11
0.0000000000000001
 21
2.418835407232989
 31
0.0
210
0.0
220
0.0
230
1.0
 40
0.7141516320786842
 41
0.0
 42
6.283185307179586
  0
ELLIPSE
  5
DC
330
79
100
AcDbEntity
  8
レイヤー 1
 62
   250
420
  2299925
370
    20
100
AcDbEllipse
 10
120.6574735179847
 20
-85.94100694737264
 30
0.0
 11
0.0000000000000001
 21
1.845468749536643
 31
0.0
210
0.0
220
0.0
230
1.0
 40
0.4249344043240797
 41
0.0
 42
6.283185307179585
  0
ELLIPSE
  5
DD
330
79
100
AcDbEntity
  8
レイヤー 1
 62
   250
420
  2299925
370
    20
100
AcDbEllipse
 10
122.6040495628333
 20
-86.31134512167809
 30
0.0
 11
0.0000000000000001
 21
1.785971118869412
 31
0.0
210
0.0
220
0.0
230
1.0
 40
0.6508352060035517
 41
0.0
 42
6.283185307179586
  0
ELLIPSE
  5
DE
330
79
100
AcDbEntity
  8
レイヤー 1
 62
   250
420
  2299925
370
    20
100
AcDbEllipse
 10
125.380829223156
 20
-86.75325535818656
 30
0.0
 11
0.0000000000000001
 21
2.09872881303243
 31
0.0
210
0.0
220
0.0
230
1.0
 40
0.6461538461546183
 41
0.0
 42
6.283185307179586
  0
ELLIPSE
  5
DF
330
79
100
AcDbEntity
  8
レイヤー 1
 62
   250
420
  2299925
370
    20
100
AcDbEllipse
 10
128.367481764782
 20
-87.21681137288216
 30
0.0
 11
0.0000000000000001
 21
2.054918560943303
 31
0.0
210
0.0
220
0.0
230
1.0
 40
0.6992111808457843
 41
0.0
 42
6.283185307179586
  0
ELLIPSE
  5
E0
330
79
100
AcDbEntity
  8
レイヤー 1
 62
   250
420
  2299925
370
    20
100
AcDbEllipse
 10
131.1604054928972
 20
-87.84701595113295
 30
0.0
 11
0.0000000000000001
 21
2.191557202843903
 31
0.0
210
0.0
220
0.0
230
1.0
 40
0.6187845303862743
 41
0.0
 42
6.283185307179586
  0
ELLIPSE
  5
E1
330
79
100
AcDbEntity
  8
レイヤー 1
 62
   250
420
  2299925
370
    20
100
AcDbEllipse
 10
133.9856173565976
 20
-88.49277866283548
 30
0.0
 11
0.0000000000000001
 21
2.320709745184633
 31
0.0
210
0.0
220
0.0
230
1.0
 40
0.6330434782602632
 41
0.0
 42
6.283185307179586
  0
ELLIPSE
  5
E2
330
79
100
AcDbEntity
  8
レイヤー 1
 62
   250
420
  2299925
370
    20
100
AcDbEllipse
 10
136.9884139660164
 20
-89.06185705252344
 30
0.0
 11
0.0000000000000001
 21
2.308601694336949
 31
0.0
210
0.0
220
0.0
230
1.0
 40
0.664335664335975
 41
0.0
 42
6.283185307179586
  0
ELLIPSE
  5
E3
330
79
100
AcDbEntity
  8
レイヤー 1
 62
   250
420
  2299925
370
    20
100
AcDbEllipse
 10
140.3463800668721
 20
-89.5562691286719
 30
0.0
 11
0.0000000000000001
 21
2.415556143466349
 31
0.0
210
0.0
220
0.0
230
1.0
 40
0.6750208855466818
 41
0.0
 42
6.283185307179586
  0
ELLIPSE
  5
E4
330
79
100
AcDbEntity
  8
レイヤー 1
 62
   250
420
  2299925
370
    20
100
AcDbEllipse
 10
143.8254266761712
 20
-90.22422993358695
 30
0.0
 11
0.0000000000000002
 21
2.502330507848966
 31
0.0
210
0.0
220
0.0
230
1.0
 40
0.6161290322579243
 41
0.0
 42
6.283185307179586
  0
ELLIPSE
  5
E5
330
79
100
AcDbEntity
  8
レイヤー 1
 62
   250
420
  2299925
370
    20
100
AcDbEllipse
 10
147.1591766753376
 20
-90.88411870460966
 30
0.0
 11
0.0000000000000001
 21
2.391340041774027
 31
0.0
210
0.0
220
0.0
230
1.0
 40
0.681856540084843
 41
0.0
 42
6.283185307179586
  0
ELLIPSE
  5
E6
330
79
100
AcDbEntity
  8
レイヤー 1
 62
   250
420
  2299925
370
    20
100
AcDbEllipse
 10
150.6624393863261
 20
-91.65297993323072
 30
0.0
 11
0.0000000000000002
 21
2.5911228807072
 31
0.0
210
0.0
220
0.0
230
1.0
 40
0.6355140186917288
 41
0.0
 42
6.283185307179586
  0
ELLIPSE
  5
E7
330
79
100
AcDbEntity
  8
レイヤー 1
 62
   250
420
  2299925
370
    20
100
AcDbEllipse
 10
121.0610752127984
 20
-90.34531044203356
 30
0.0
 11
0.0000000000000001
 21
1.800063558869437
 31
0.0
210
0.0
220
0.0
230
1.0
 40
0.6598682878413519
 41
0.0
 42
6.283185307179586
  0
ELLIPSE
  5
E8
330
79
100
AcDbEntity
  8
レイヤー 1
 62
   250
420
  2299925
370
    20
100
AcDbEllipse
 10
123.6695580371422
 20
-90.82156044191238
 30
0.0
 11
0.0000000000000001
 21
1.969576270693545
 31
0.0
210
0.0
220
0.0
230
1.0
 40
0.5409836065569779
 41
0.0
 42
6.283185307179585
  0
ELLIPSE
  5
E9
330
79
100
AcDbEntity
  8
レイヤー 1
 62
   250
420
  2299925
370
    20
100
AcDbEllipse
 10
126.2526088839531
 20
-91.51373734852089
 30
0.0
 11
0.0000000000000001
 21
2.116890889298943
 31
0.0
210
0.0
220
0.0
230
1.0
 40
0.6253574833182216
 41
0.0
 42
6.283185307179586
  0
ELLIPSE
  5
EA
330
79
100
AcDbEntity
  8
レイヤー 1
 62
   250
420
  2299925
370
    20
100
AcDbEllipse
 10
129.2715495611645
 20
-92.22205832292004
 30
0.0
 11
0.0000000000000001
 21
2.183485168943361
 31
0.0
210
0.0
220
0.0
230
1.0
 40
0.6136783733831705
 41
0.0
 42
6.283185307179586
  0
ELLIPSE
  5
EB
330
79
100
AcDbEntity
  8
レイヤー 1
 62
   250
420
  2299925
370
    20
100
AcDbEllipse
 10
132.0160410859021
 20
-92.71041637364591
 30
0.0
 11
0.0000000000000001
 21
2.147161016415227
 31
0.0
210
0.0
220
0.0
230
1.0
 40
0.6541353383451286
 41
0.0
 42
6.283185307179586
  0
ELLIPSE
  5
EC
330
79
100
AcDbEntity
  8
レイヤー 1
 62
   250
420
  2299925
370
    20
100
AcDbEllipse
 10
135.0188376953208
 20
-93.37391094684363
 30
0.0
 11
0.0000000000000001
 21
2.003452199982921
 31
0.0
210
0.0
220
0.0
230
1.0
 40
0.7332893538148471
 41
0.0
 42
6.283185307179586
  0
ELLIPSE
  5
ED
330
79
100
AcDbEntity
  8
レイヤー 1
 62
   250
420
  2299925
370
    20
100
AcDbEllipse
 10
138.0539224403258
 20
-94.17347251734708
 30
0.0
 11
0.0000000000000001
 21
2.201647245208993
 31
0.0
210
0.0
220
0.0
230
1.0
 40
0.6526122823111829
 41
0.0
 42
6.283185307179586
  0
ELLIPSE
  5
EE
330
79
100
AcDbEntity
  8
レイヤー 1
 62
   250
420
  2299925
370
    20
100
AcDbEllipse
 10
141.1535834564988
 20
-94.74456891550618
 30
0.0
 11
0.0000000000000001
 21
2.244025423167666
 31
0.0
210
0.0
220
0.0
230
1.0
 40
0.654676258992919
 41
0.0
 42
6.283185307179586
  0
ELLIPSE
  5
EF
330
79
100
AcDbEntity
  8
レイヤー 1
 62
   250
420
  2299925
370
    20
100
AcDbEllipse
 10
144.463117353977
 20
-95.5679163729283
 30
0.0
 11
0.0000000000000001
 21
2.292457626544608
 31
0.0
210
0.0
220
0.0
230
1.0
 40
0.6901408450707923
 41
0.0
 42
6.283185307179586
  0
ELLIPSE
  5
F0
330
79
100
AcDbEntity
  8
レイヤー 1
 62
   250
420
  2299925
370
    20
100
AcDbEllipse
 10
148.0148122683428
 20
-96.24596722021536
 30
0.0
 11
0.0000000000000002
 21
2.518474575641467
 31
0.0
210
0.0
220
0.0
230
1.0
 40
0.6538461538463389
 41
0.0
 42
6.283185307179586
  0
ELLIPSE
  5
F1
330
79
100
AcDbEntity
  8
レイヤー 1
 62
   250
420
  2299925
370
    20
100
AcDbEllipse
 10
121.6354054952759
 20
-94.72842484771383
 30
0.0
 11
0.0000000000000001
 21
1.646694914842242
 31
0.0
210
0.0
220
0.0
230
1.0
 40
0.8039215686277165
 41
0.0
 42
6.283185307179586
  0
ELLIPSE
  5
F2
330
79
100
AcDbEntity
  8
レイヤー 1
 62
   250
420
  2299925
370
    20
100
AcDbEllipse
 10
124.4767614267709
 20
-95.40647569500272
 30
0.0
 11
0.0000000000000001
 21
1.775847457182731
 31
0.0
210
0.0
220
0.0
230
1.0
 40
0.7090909090921123
 41
0.0
 42
6.283185307179586
  0
ELLIPSE
  5
F3
330
79
100
AcDbEntity
  8
レイヤー 1
 62
   250
420
  2299925
370
    20
100
AcDbEllipse
 10
127.1324605786487
 20
-96.06535546178889
 30
0.0
 11
0.0000000000000001
 21
1.891882944441738
 31
0.0
210
0.0
220
0.0
230
1.0
 40
0.6528000000008979
 41
0.0
 42
6.283185307179586
  0
ELLIPSE
  5
F4
330
79
100
AcDbEntity
  8
レイヤー 1
 62
   250
420
  2299925
370
    20
100
AcDbEllipse
 10
129.8527360016974
 20
-96.85136976243747
 30
0.0
 11
0.0000000000000001
 21
2.106800846931287
 31
0.0
210
0.0
220
0.0
230
1.0
 40
0.6206896551729601
 41
0.0
 42
6.283185307179586
  0
ELLIPSE
  5
F5
330
79
100
AcDbEntity
  8
レイヤー 1
 62
   250
420
  2299925
370
    20
100
AcDbEllipse
 10
132.5810834586425
 20
-97.55522450511929
 30
0.0
 11
0.0000000000000001
 21
2.177861358292727
 31
0.0
210
0.0
220
0.0
230
1.0
 40
0.6523270915917818
 41
0.0
 42
6.283185307179586
  0
ELLIPSE
  5
F6
330
79
100
AcDbEntity
  8
レイヤー 1
 62
   250
420
  2299925
370
    20
100
AcDbEllipse
 10
135.5240125654463
 20
-98.18981388286672
 30
0.0
 11
0.0000000000000001
 21
2.124458421077894
 31
0.0
210
0.0
220
0.0
230
1.0
 40
0.7165360950139199
 41
0.0
 42
6.283185307179586
  0
ELLIPSE
  5
F7
330
79
100
AcDbEntity
  8
レイヤー 1
 62
   250
420
  2299925
370
    20
100
AcDbEllipse
 10
139.0548546434634
 20
-98.8935943381981
 30
0.0
 11
0.0000000000000001
 21
2.292457626545571
 31
0.0
210
0.0
220
0.0
230
1.0
 40
0.7676056338027193
 41
0.0
 42
6.283185307179586
  0
ELLIPSE
  5
F8
330
79
100
AcDbEntity
  8
レイヤー 1
 62
   250
420
  2299925
370
    20
100
AcDbEllipse
 10
142.3321004053557
 20
-99.91953653988012
 30
0.0
 11
0.0000000000000001
 21
2.364312034761002
 31
0.0
210
0.0
220
0.0
230
1.0
 40
0.5735713707151108
 41
0.0
 42
6.283185307179586
  0
ELLIPSE
  5
F9
330
79
100
AcDbEntity
  8
レイヤー 1
 62
   250
420
  2299925
370
    20
100
AcDbEllipse
 10
145.6900665062132
 20
-100.7824502699296
 30
0.0
 11
0.0000000000000001
 21
2.340889829922512
 31
0.0
210
0.0
220
0.0
230
1.0
 40
0.744827586207835
 41
0.0
 42
6.283185307179586
  0
SPLINE
  5
FA
330
79
100
AcDbEntity
  8
レイヤー 1
 62
   250
420
  2299925
370
    20
100
AcDbSpline
210
0.0
220
0.0
230
1.0
 70
     8
 71
     3
 72
    41
 73
    37
 74
     0
 42
0.0000000001
 43
0.0000000001
 40
0.0
 40
0.0
 40
0.0
 40
0.0
 40
1.0
 40
1.0
 40
1.0
 40
2.0
 40
2.0
 40
2.0
 40
3.0
 40
3.0
 40
3.0
 40
4.0
 40
4.0
 40
4.0
 40
5.0
 40
5.0
 40
5.0
 40
6.0
 40
6.0
 40
6.0
 40
7.0
 40
7.0
 40
7.0
 40
8.0
 40
8.0
 40
8.0
 40
9.0
 40
9.0
 40
9.0
 40
10.0
 40
10.0
 40
10.0
 40
11.0
 40
11.0
 40
11.0
 40
12.0
 40
12.0
 40
12.0
 40
12.0
 10
118.0336387456491
 20
-95.72935705085411
 30
0.0
 10
118.0336387456491
 20
-95.72935705085411
 30
0.0
 10
117.9545580385694
 20
-96.45584010151818
 30
0.0
 10
118.7940495637833
 20
-96.85136976243747
 30
0.0
 10
118.7940495637833
 20
-96.85136976243747
 30
0.0
 10
147.4336258278127
 20
-104.511729930016
 30
0.0
 10
147.4336258278127
 20
-104.511729930016
 30
0.0
 10
147.4336258278127
 20
-104.511729930016
 30
0.0
 10
148.9511682003115
 20
-104.8991875570402
 30
0.0
 10
149.5000665052596
 20
-103.3977892523287
 30
0.0
 10
149.5000665052596
 20
-103.3977892523287
 30
0.0
 10
150.0166766746215
 20
-98.76444179585682
 30
0.0
 10
150.0166766746215
 20
-98.76444179585682
 30
0.0
 10
150.0166766746215
 20
-98.76444179585682
 30
0.0
 10
149.8875241322841
 20
-97.79579772830324
 30
0.0
 10
150.6624393863261
 20
-97.31147569452579
 30
0.0
 10
150.6624393863261
 20
-97.31147569452579
 30
0.0
 10
152.3091343011684
 20
-96.06535546178898
 30
0.0
 10
152.3091343011684
 20
-96.06535546178898
 30
0.0
 10
152.3091343011684
 20
-96.06535546178898
 30
0.0
 10
153.019473284042
 20
-88.49277866283548
 30
0.0
 10
153.019473284042
 20
-88.49277866283548
 30
0.0
 10
153.019473284042
 20
-88.49277866283548
 30
0.0
 10
151.8571004029755
 20
-85.46172993477759
 30
0.0
 10
151.8571004029755
 20
-85.46172993477759
 30
0.0
 10
151.8571004029755
 20
-85.46172993477759
 30
0.0
 10
152.7934563349436
 20
-78.68122146189475
 30
0.0
 10
152.7934563349436
 20
-78.68122146189475
 30
0.0
 10
152.7934563349436
 20
-78.68122146189475
 30
0.0
 10
152.7611681993587
 20
-77.97088247902728
 30
0.0
 10
151.9216766741452
 20
-77.87401807226891
 30
0.0
 10
151.9216766741452
 20
-77.87401807226891
 30
0.0
 10
121.6354054952753
 20
-75.09723841194333
 30
0.0
 10
121.6354054952753
 20
-75.09723841194333
 30
0.0
 10
121.6354054952753
 20
-75.09723841194333
 30
0.0
 10
121.4018321184428
 20
-75.04825268994162
 30
0.0
 10
120.8890001629485
 20
-75.42791504237925
 30
0.0
  0
ELLIPSE
  5
FB
330
79
100
AcDbEntity
  8
レイヤー 1
 62
   250
420
  2299925
370
    20
100
AcDbEllipse
 10
121.974430918923
 20
-72.14186500167094
 30
0.0
 11
0.0000000000000001
 21
0.8405005294508287
 31
0.0
210
0.0
220
0.0
230
1.0
 40
0.6338535414171781
 41
0.0
 42
6.283185307179586
  0
ELLIPSE
  5
FC
330
79
100
AcDbEntity
  8
レイヤー 1
 62
   250
420
  2299925
370
    20
100
AcDbEllipse
 10
129.3441978662322
 20
-72.8391709200104
 30
0.0
 11
0.0000000000000001
 21
0.9868901343688449
 31
0.0
210
0.0
220
0.0
230
1.0
 40
0.5152935648609512
 41
0.0
 42
6.283185307179585
  0
ELLIPSE
  5
FD
330
79
100
AcDbEntity
  8
レイヤー 1
 62
   250
420
  2299925
370
    20
100
AcDbEllipse
 10
135.6719734706061
 20
-73.42827359194487
 30
0.0
 11
0.0000000000000001
 21
1.087778379471952
 31
0.0
210
0.0
220
0.0
230
1.0
 40
0.6004309219699589
 41
0.0
 42
6.283185307179586
  0
ELLIPSE
  5
FE
330
79
100
AcDbEntity
  8
レイヤー 1
 62
   250
420
  2299925
370
    20
100
AcDbEllipse
 10
143.5429054898
 20
-73.95805113152126
 30
0.0
 11
0.0000000000000001
 21
1.13712627832466
 31
0.0
210
0.0
220
0.0
230
1.0
 40
0.8092433371011054
 41
0.0
 42
6.283185307179586
  0
ELLIPSE
  5
FF
330
79
100
AcDbEntity
  8
レイヤー 1
 62
   250
420
  2299925
370
    20
100
AcDbEllipse
 10
151.5907232843991
 20
-74.65019523566249
 30
0.0
 11
0.0000000000000001
 21
1.2219216437177
 31
0.0
210
0.0
220
0.0
230
1.0
 40
0.7596918369075718
 41
0.0
 42
6.283185307179586
  0
LINE
  5
100
330
79
100
AcDbEntity
  8
レイヤー 1
 62
   250
420
  2299925
370
    20
100
AcDbLine
 10
157.1897255222989
 20
-72.41429222523875
 30
0.0
 11
152.5190071824728
 21
-111.6854994065277
 31
0.0
  0
LINE
  5
101
330
79
100
AcDbEntity
  8
レイヤー 1
 62
   250
420
  2299925
370
    20
100
AcDbLine
 10
158.331648021562
 20
-72.47970471744832
 30
0.0
 11
153.826676673672
 21
-111.5270238681517
 31
0.0
  0
SPLINE
  5
102
330
79
100
AcDbEntity
  8
レイヤー 1
 62
   250
420
  2299925
370
    20
100
AcDbSpline
210
0.0
220
0.0
230
1.0
 70
     8
 71
     3
 72
    26
 73
    22
 74
     0
 42
0.0000000001
 43
0.0000000001
 40
0.0
 40
0.0
 40
0.0
 40
0.0
 40
1.0
 40
1.0
 40
1.0
 40
2.0
 40
2.0
 40
2.0
 40
3.0
 40
3.0
 40
3.0
 40
4.0
 40
4.0
 40
4.0
 40
5.0
 40
5.0
 40
5.0
 40
6.0
 40
6.0
 40
6.0
 40
7.0
 40
7.0
 40
7.0
 40
7.0
 10
160.2682742198429
 20
-74.27389095452794
 30
0.0
 10
160.2682742198429
 20
-74.27389095452794
 30
0.0
 10
162.270024129188
 20
-74.85500382183523
 30
0.0
 10
163.0933715866094
 20
-75.87211687938019
 30
0.0
 10
163.0933715866094
 20
-75.87211687938019
 30
0.0
 10
163.8682868406533
 20
-77.80944180109504
 30
0.0
 10
167.2585410770938
 20
-78.1484672247423
 30
0.0
 10
167.2585410770938
 20
-78.1484672247423
 30
0.0
 10
169.1656538157233
 20
-78.8295789171131
 30
0.0
 10
174.5187144185306
 20
-77.15809499744141
 30
0.0
 10
174.8094669288274
 20
-77.06730802870997
 30
0.0
 10
175.0849586194939
 20
-76.93211751876741
 30
0.0
 10
175.3525338614495
 20
-76.78657444669645
 30
0.0
 10
175.3525338614495
 20
-76.78657444669645
 30
0.0
 10
177.8894097185035
 20
-75.72685705585897
 30
0.0
 10
180.3836681924567
 20
-77.27668756394613
 30
0.0
 10
182.8779266664099
 20
-78.82651807203328
 30
0.0
 10
182.4178207343216
 20
-83.7181706131833
 30
0.0
 10
182.4178207343216
 20
-83.7181706131833
 30
0.0
 10
182.4178207343216
 20
-83.7181706131833
 30
0.0
 10
180.9890707346778
 20
-93.13823417014987
 30
0.0
 10
180.9890707346778
 20
-93.13823417014987
 30
0.0
  0
LWPOLYLINE
  5
103
330
79
100
AcDbEntity
  8
レイヤー 1
 62
   250
420
  2299925
370
    20
100
AcDbPolyline
 90
        1
 70
     0
 43
0.0
 10
181.5952022070542
 20
-78.70053154451119
  0
SPLINE
  5
104
330
79
100
AcDbEntity
  8
レイヤー 1
 62
   250
420
  2299925
370
    20
100
AcDbSpline
210
0.0
220
0.0
230
1.0
 70
     8
 71
     3
 72
    56
 73
    52
 74
     0
 42
0.0000000001
 43
0.0000000001
 40
0.0
 40
0.0
 40
0.0
 40
0.0
 40
1.0
 40
1.0
 40
1.0
 40
2.0
 40
2.0
 40
2.0
 40
3.0
 40
3.0
 40
3.0
 40
4.0
 40
4.0
 40
4.0
 40
5.0
 40
5.0
 40
5.0
 40
6.0
 40
6.0
 40
6.0
 40
7.0
 40
7.0
 40
7.0
 40
8.0
 40
8.0
 40
8.0
 40
9.0
 40
9.0
 40
9.0
 40
10.0
 40
10.0
 40
10.0
 40
11.0
 40
11.0
 40
11.0
 40
12.0
 40
12.0
 40
12.0
 40
13.0
 40
13.0
 40
13.0
 40
14.0
 40
14.0
 40
14.0
 40
15.0
 40
15.0
 40
15.0
 40
16.0
 40
16.0
 40
16.0
 40
17.0
 40
17.0
 40
17.0
 40
17.0
 10
180.5289648025921
 20
-89.48160281513336
 30
0.0
 10
180.5289648025921
 20
-89.48160281513336
 30
0.0
 10
180.7226936161024
 20
-99.1196112872997
 30
0.0
 10
186.2439648011635
 20
-102.0255434899633
 30
0.0
 10
186.2439648011635
 20
-102.0255434899633
 30
0.0
 10
194.7680325956426
 20
-103.4300773879171
 30
0.0
 10
194.7680325956426
 20
-103.4300773879171
 30
0.0
 10
194.7680325956426
 20
-103.4300773879171
 30
0.0
 10
196.6568885273748
 20
-101.0084672190315
 30
0.0
 10
199.2237953063937
 20
-101.7833824730751
 30
0.0
 10
201.7907020854127
 20
-102.558297727119
 30
0.0
 10
202.5656173394566
 20
-105.0767723027604
 30
0.0
 10
202.5656173394566
 20
-105.0767723027604
 30
0.0
 10
202.5656173394566
 20
-105.0767723027604
 30
0.0
 10
237.4852359747961
 20
-112.0510095891532
 30
0.0
 10
237.4852359747961
 20
-112.0510095891532
 30
0.0
 10
237.4852359747961
 20
-112.0510095891532
 30
0.0
 10
235.3542190261767
 20
-125.5635943315374
 30
0.0
 10
235.3542190261767
 20
-125.5635943315374
 30
0.0
 10
235.3542190261767
 20
-125.5635943315374
 30
0.0
 10
199.9502783570613
 20
-126.5806706024699
 30
0.0
 10
199.9502783570613
 20
-126.5806706024699
 30
0.0
 10
199.9502783570613
 20
-126.5806706024699
 30
0.0
 10
199.0300664928847
 20
-133.60334009224
 30
0.0
 10
194.3321427652456
 20
-134.0876621260178
 30
0.0
 10
194.3321427652456
 20
-134.0876621260178
 30
0.0
 10
192.297990223382
 20
-134.4751197530397
 30
0.0
 10
190.2154054781395
 20
-132.0050773807753
 30
0.0
 10
190.2154054781395
 20
-132.0050773807753
 30
0.0
 10
185.2268885302343
 20
-131.3270265334878
 30
0.0
 10
182.1756597174376
 20
-133.4580434821073
 30
0.0
 10
182.1756597174376
 20
-133.4580434821073
 30
0.0
 10
180.9809987007824
 20
-133.5710519566532
 30
0.0
 10
180.9809987007824
 20
-133.5710519566532
 30
0.0
 10
180.9809987007824
 20
-133.5710519566532
 30
0.0
 10
176.7512529391277
 20
-133.99079771926
 30
0.0
 10
173.8776088720499
 20
-138.6080011079366
 30
0.0
 10
173.8776088720499
 20
-138.6080011079366
 30
0.0
 10
173.7161681941218
 20
-145.4207977164024
 30
0.0
 10
172.6183715842269
 20
-148.3913061902354
 30
0.0
 10
172.2822898541702
 20
-149.3007038127431
 30
0.0
 10
171.7010907898552
 20
-150.1011603978023
 30
0.0
 10
171.0563544265889
 20
-150.7741473703827
 30
0.0
 10
169.565828265073
 20
-152.3299843700338
 30
0.0
 10
167.3555709449394
 20
-152.9540037901989
 30
0.0
 10
165.256410405807
 20
-152.4683886765643
 30
0.0
 10
161.4958376004261
 20
-151.5984261576563
 30
0.0
 10
154.5154902328211
 20
-150.6407129693384
 30
0.0
 10
150.8561681998383
 20
-154.3000350023218
 30
0.0
 10
150.8561681998383
 20
-154.3000350023218
 30
0.0
 10
148.9834563358989
 20
-154.3000350023218
 30
0.0
 10
148.9834563358989
 20
-154.3000350023218
 30
0.0
  0
SPLINE
  5
105
330
79
100
AcDbEntity
  8
レイヤー 1
 62
   250
420
  2299925
370
    20
100
AcDbSpline
210
0.0
220
0.0
230
1.0
 70
     8
 71
     3
 72
    23
 73
    19
 74
     0
 42
0.0000000001
 43
0.0000000001
 40
0.0
 40
0.0
 40
0.0
 40
0.0
 40
1.0
 40
1.0
 40
1.0
 40
2.0
 40
2.0
 40
2.0
 40
3.0
 40
3.0
 40
3.0
 40
4.0
 40
4.0
 40
4.0
 40
5.0
 40
5.0
 40
5.0
 40
6.0
 40
6.0
 40
6.0
 40
6.0
 10
201.3075715771791
 20
-110.9931831447784
 30
0.0
 10
201.3075715771791
 20
-110.9931831447784
 30
0.0
 10
200.4347558758087
 20
-105.4952202764812
 30
0.0
 10
195.34921903618
 20
-104.7861790824946
 30
0.0
 10
191.991252935318
 20
-104.3180011165092
 30
0.0
 10
189.3607437778475
 20
-106.2844249133034
 30
0.0
 10
189.3607437778475
 20
-106.2844249133034
 30
0.0
 10
189.3607437778475
 20
-106.2844249133034
 30
0.0
 10
184.9633147489965
 20
-109.5181831002153
 30
0.0
 10
183.7040774611761
 20
-117.2189034372735
 30
0.0
 10
182.8120065297378
 20
-122.6742602872269
 30
0.0
 10
184.8025278007283
 20
-127.288516519518
 30
0.0
 10
186.2433412134442
 20
-128.9996625550908
 30
0.0
 10
186.9175493590796
 20
-129.8003690069972
 30
0.0
 10
188.5727219468645
 20
-130.9848363740629
 30
0.0
 10
189.5927250510279
 20
-131.219955733667
 30
0.0
 10
191.9739750504326
 20
-131.7688540386151
 30
0.0
 10
194.5097275109594
 20
-131.9808612790852
 30
0.0
 10
198.0112882914555
 20
-126.6977908077747
 30
0.0
  0
SPLINE
  5
106
330
79
100
AcDbEntity
  8
レイヤー 1
 62
   250
420
  2299925
370
    20
100
AcDbSpline
210
0.0
220
0.0
230
1.0
 70
     8
 71
     3
 72
    20
 73
    16
 74
     0
 42
0.0000000001
 43
0.0000000001
 40
0.0
 40
0.0
 40
0.0
 40
0.0
 40
1.0
 40
1.0
 40
1.0
 40
2.0
 40
2.0
 40
2.0
 40
3.0
 40
3.0
 40
3.0
 40
4.0
 40
4.0
 40
4.0
 40
5.0
 40
5.0
 40
5.0
 40
5.0
 10
200.1908093008116
 20
-110.9605292770484
 30
0.0
 10
200.1908093008116
 20
-110.9605292770484
 30
0.0
 10
199.4175241199021
 20
-107.5468146750239
 30
0.0
 10
195.6721003920246
 20
-107.3530858615122
 30
0.0
 10
191.9266766641476
 20
-107.1593570480019
 30
0.0
 10
189.5373546308469
 20
-110.3235943353459
 30
0.0
 10
189.5373546308469
 20
-110.3235943353459
 30
0.0
 10
189.5373546308469
 20
-110.3235943353459
 30
0.0
 10
186.3085410723319
 20
-114.0044417920525
 30
0.0
 10
186.2439648011616
 20
-120.5266451802528
 30
0.0
 10
186.1793885299913
 20
-127.048848568453
 30
0.0
 10
191.1517614101038
 20
-129.5673231440944
 30
0.0
 10
191.1517614101038
 20
-129.5673231440944
 30
0.0
 10
191.1517614101038
 20
-129.5673231440944
 30
0.0
 10
193.5681544051283
 20
-131.0270883181107
 30
0.0
 10
196.6924646482126
 20
-126.7774512962931
 30
0.0
  0
ELLIPSE
  5
107
330
79
100
AcDbEntity
  8
レイヤー 1
 62
   250
420
  2299925
370
    20
100
AcDbEllipse
 10
198.7071851370287
 20
-119.6443395721104
 30
0.0
 11
0.0000000000000001
 21
1.528068319845601
 31
0.0
210
0.0
220
0.0
230
1.0
 40
0.549380884552705
 41
0.0
 42
6.283185307179585
  0
ELLIPSE
  5
108
330
79
100
AcDbEntity
  8
レイヤー 1
 62
   250
420
  2299925
370
    20
100
AcDbEllipse
 10
198.4266429845991
 20
-119.6443395721102
 30
0.0
 11
0.0000000000000002
 21
2.938220338248178
 31
0.0
210
0.0
220
0.0
230
1.0
 40
0.5162061252490619
 41
0.0
 42
6.283185307179585
  0
ELLIPSE
  5
109
330
79
100
AcDbEntity
  8
レイヤー 1
 62
   250
420
  2299925
370
    20
100
AcDbEllipse
 10
193.8634013840438
 20
-119.4590002005491
 30
0.0
 11
0.0000000000000001
 21
1.003068708533359
 31
0.0
210
0.0
220
0.0
230
1.0
 40
0.6443488082296195
 41
0.0
 42
6.283185307179586
  0
ELLIPSE
  5
10A
330
79
100
AcDbEntity
  8
レイヤー 1
 62
   250
420
  2299925
370
    20
100
AcDbEllipse
 10
193.7025241213306
 20
-119.4288485703579
 30
0.0
 11
0.0000000000000001
 21
1.74355932159813
 31
0.0
210
0.0
220
0.0
230
1.0
 40
0.6481481481482028
 41
0.0
 42
6.283185307179586
  0
SPLINE
  5
10B
330
79
100
AcDbEntity
  8
レイヤー 1
 62
   250
420
  2299925
370
    20
100
AcDbSpline
210
0.0
220
0.0
230
1.0
 70
     8
 71
     3
 72
    11
 73
     7
 74
     0
 42
0.0000000001
 43
0.0000000001
 40
0.0
 40
0.0
 40
0.0
 40
0.0
 40
1.0
 40
1.0
 40
1.0
 40
2.0
 40
2.0
 40
2.0
 40
2.0
 10
198.4266429845991
 20
-116.7061192338621
 30
0.0
 10
198.4266429845991
 20
-116.7061192338621
 30
0.0
 10
195.4783715785142
 20
-116.7061192338621
 30
0.0
 10
195.4783715785142
 20
-116.7061192338621
 30
0.0
 10
195.4783715785142
 20
-116.7061192338621
 30
0.0
 10
194.8538784171972
 20
-116.9623080648178
 30
0.0
 10
194.6403655449018
 20
-118.4559314920157
 30
0.0
  0
SPLINE
  5
10C
330
79
100
AcDbEntity
  8
レイヤー 1
 62
   250
420
  2299925
370
    20
100
AcDbSpline
210
0.0
220
0.0
230
1.0
 70
     8
 71
     3
 72
    14
 73
    10
 74
     0
 42
0.0000000001
 43
0.0000000001
 40
0.0
 40
0.0
 40
0.0
 40
0.0
 40
1.0
 40
1.0
 40
1.0
 40
2.0
 40
2.0
 40
2.0
 40
3.0
 40
3.0
 40
3.0
 40
3.0
 10
198.4266429845991
 20
-122.5825599103584
 30
0.0
 10
198.4266429845991
 20
-122.5825599103584
 30
0.0
 10
195.693666737808
 20
-122.5825599103584
 30
0.0
 10
195.693666737808
 20
-122.5825599103584
 30
0.0
 10
195.5925286026343
 20
-122.5825599103584
 30
0.0
 10
195.4945689937725
 20
-122.547651975395
 30
0.0
 10
195.418666657666
 20
-122.4808106875567
 30
0.0
 10
195.144049746217
 20
-122.238976918465
 30
0.0
 10
194.5097275109594
 20
-121.5795502698411
 30
0.0
 10
194.5097275109594
 20
-120.6479591325937
 30
0.0
  0
SPLINE
  5
10D
330
79
100
AcDbEntity
  8
レイヤー 1
 62
   250
420
  2299925
370
    20
100
AcDbSpline
210
0.0
220
0.0
230
1.0
 70
     8
 71
     3
 72
    20
 73
    16
 74
     0
 42
0.0000000001
 43
0.0000000001
 40
0.0
 40
0.0
 40
0.0
 40
0.0
 40
1.0
 40
1.0
 40
1.0
 40
2.0
 40
2.0
 40
2.0
 40
3.0
 40
3.0
 40
3.0
 40
4.0
 40
4.0
 40
4.0
 40
5.0
 40
5.0
 40
5.0
 40
5.0
 10
193.7025241213306
 20
-117.6852892487597
 30
0.0
 10
193.7025241213306
 20
-117.6852892487597
 30
0.0
 10
192.4973381652615
 20
-117.7988814882973
 30
0.0
 10
192.4973381652615
 20
-117.7988814882973
 30
0.0
 10
192.1481790988988
 20
-117.8317907336325
 30
0.0
 10
191.8566221592776
 20
-118.0765765377775
 30
0.0
 10
191.7659948911394
 20
-118.415371122033
 30
0.0
 10
191.6051654386365
 20
-119.0166045986211
 30
0.0
 10
191.4419688336293
 20
-119.9764856641094
 30
0.0
 10
191.7725026961883
 20
-120.6794857898929
 30
0.0
 10
191.8707032681974
 20
-120.8883449183941
 30
0.0
 10
192.0725606509986
 20
-121.0298342550711
 30
0.0
 10
192.3024759481264
 20
-121.0499450493822
 30
0.0
 10
192.3024759481264
 20
-121.0499450493822
 30
0.0
 10
193.7025241213306
 20
-121.172407891956
 30
0.0
 10
193.7025241213306
 20
-121.172407891956
 30
0.0
  0
LINE
  5
10E
330
79
100
AcDbEntity
  8
レイヤー 1
 62
   250
420
  2299925
370
    20
100
AcDbLine
 10
185.9775302502071
 20
-101.8774515963956
 30
0.0
 11
181.4653207345589
 21
-133.5710519566532
 31
0.0
  0
SPLINE
  5
10F
330
79
100
AcDbEntity
  8
レイヤー 1
 62
   250
420
  2299925
370
    20
100
AcDbSpline
210
0.0
220
0.0
230
1.0
 70
     9
 71
     3
 72
    41
 73
    37
 74
     0
 42
0.0000000001
 43
0.0000000001
 40
0.0
 40
0.0
 40
0.0
 40
0.0
 40
1.0
 40
1.0
 40
1.0
 40
2.0
 40
2.0
 40
2.0
 40
3.0
 40
3.0
 40
3.0
 40
4.0
 40
4.0
 40
4.0
 40
5.0
 40
5.0
 40
5.0
 40
6.0
 40
6.0
 40
6.0
 40
7.0
 40
7.0
 40
7.0
 40
8.0
 40
8.0
 40
8.0
 40
9.0
 40
9.0
 40
9.0
 40
10.0
 40
10.0
 40
10.0
 40
11.0
 40
11.0
 40
11.0
 40
12.0
 40
12.0
 40
12.0
 40
12.0
 10
179.5280325994485
 20
-86.68867908701857
 30
0.0
 10
179.5280325994485
 20
-86.68867908701857
 30
0.0
 10
171.2622698896546
 20
-147.0674926312447
 30
0.0
 10
171.2622698896546
 20
-147.0674926312447
 30
0.0
 10
171.2622698896546
 20
-147.0674926312447
 30
0.0
 10
169.9707444662455
 20
-152.3950350027943
 30
0.0
 10
164.8369309082076
 20
-151.7169841555068
 30
0.0
 10
164.8369309082076
 20
-151.7169841555068
 30
0.0
 10
162.0278631122988
 20
-151.4263909352401
 30
0.0
 10
159.3156597231464
 20
-149.9734248339087
 30
0.0
 10
159.3156597231464
 20
-149.9734248339087
 30
0.0
 10
159.7031173501683
 20
-147.4549502582667
 30
0.0
 10
159.7031173501683
 20
-147.4549502582667
 30
0.0
 10
159.7031173501683
 20
-147.4549502582667
 30
0.0
 10
156.7971851475056
 20
-146.8737638177344
 30
0.0
 10
156.7971851475056
 20
-146.8737638177344
 30
0.0
 10
156.7971851475056
 20
-146.8737638177344
 30
0.0
 10
155.6348122664398
 20
-146.7768994109792
 30
0.0
 10
155.5379478596846
 20
-144.9364756826259
 30
0.0
 10
155.5379478596846
 20
-144.9364756826259
 30
0.0
 10
164.0620156541637
 20
-84.89668756203739
 30
0.0
 10
164.0620156541637
 20
-84.89668756203739
 30
0.0
 10
164.0620156541637
 20
-84.89668756203739
 30
0.0
 10
164.1588800609189
 20
-82.78181468120719
 30
0.0
 10
166.3867614162941
 20
-82.81410281679651
 30
0.0
 10
166.3867614162941
 20
-82.81410281679651
 30
0.0
 10
172.7798122621531
 20
-83.10469603706168
 30
0.0
 10
172.7798122621531
 20
-83.10469603706168
 30
0.0
 10
172.7798122621531
 20
-83.10469603706168
 30
0.0
 10
174.7632055959042
 20
-83.21868415968891
 30
0.0
 10
176.4886985523698
 20
-82.29727901467384
 30
0.0
 10
177.2748679137498
 20
-81.87746826336701
 30
0.0
 10
178.2557007572073
 20
-82.06612634400158
 30
0.0
 10
178.7766129762884
 20
-82.78928178489771
 30
0.0
 10
179.3303232265491
 20
-83.55796903293921
 30
0.0
 10
179.7881769959391
 20
-84.78840556577786
 30
0.0
 10
179.5280325994485
 20
-86.68867908701857
 30
0.0
  0
SPLINE
  5
110
330
79
100
AcDbEntity
  8
レイヤー 1
 62
   250
420
  2299925
370
    20
100
AcDbSpline
210
0.0
220
0.0
230
1.0
 70
     8
 71
     3
 72
    17
 73
    13
 74
     0
 42
0.0000000001
 43
0.0000000001
 40
0.0
 40
0.0
 40
0.0
 40
0.0
 40
1.0
 40
1.0
 40
1.0
 40
2.0
 40
2.0
 40
2.0
 40
3.0
 40
3.0
 40
3.0
 40
4.0
 40
4.0
 40
4.0
 40
4.0
 10
199.9502783570613
 20
-126.5806706024699
 30
0.0
 10
199.9502783570613
 20
-126.5806706024699
 30
0.0
 10
192.7338800537821
 20
-127.0165604328694
 30
0.0
 10
192.7338800537821
 20
-127.0165604328694
 30
0.0
 10
192.7338800537821
 20
-127.0165604328694
 30
0.0
 10
189.3920580207193
 20
-124.3043570437164
 30
0.0
 10
189.9732444612516
 20
-117.8144417911023
 30
0.0
 10
190.5544309017839
 20
-111.3245265384882
 30
0.0
 10
196.075702086845
 20
-110.8402045047098
 30
0.0
 10
196.075702086845
 20
-110.8402045047098
 30
0.0
 10
196.075702086845
 20
-110.8402045047098
 30
0.0
 10
237.4852359747961
 20
-112.0510095891532
 30
0.0
 10
237.4852359747961
 20
-112.0510095891532
 30
0.0
  0
SPLINE
  5
111
330
79
100
AcDbEntity
  8
レイヤー 1
 62
   250
420
  2299925
370
    20
100
AcDbSpline
210
0.0
220
0.0
230
1.0
 70
    11
 71
     3
 72
    32
 73
    28
 74
     0
 42
0.0000000001
 43
0.0000000001
 40
0.0
 40
0.0
 40
0.0
 40
0.0
 40
1.0
 40
1.0
 40
1.0
 40
2.0
 40
2.0
 40
2.0
 40
3.0
 40
3.0
 40
3.0
 40
4.0
 40
4.0
 40
4.0
 40
5.0
 40
5.0
 40
5.0
 40
6.0
 40
6.0
 40
6.0
 40
7.0
 40
7.0
 40
7.0
 40
8.0
 40
8.0
 40
8.0
 40
9.0
 40
9.0
 40
9.0
 40
9.0
 10
177.4777359897927
 20
-106.578170607469
 30
0.0
 10
177.4777359897927
 20
-106.578170607469
 30
0.0
 10
177.5946201119546
 20
-106.5273514239203
 30
0.0
 10
177.5946201119546
 20
-106.5273514239203
 30
0.0
 10
177.5946201119546
 20
-106.5273514239203
 30
0.0
 10
180.2625876840115
 20
-105.3673655230265
 30
0.0
 10
180.2625876840115
 20
-105.3673655230265
 30
0.0
 10
180.2625876840115
 20
-105.3673655230265
 30
0.0
 10
180.9971427685745
 20
-104.9072595909379
 30
0.0
 10
181.4653207345589
 20
-105.5126621331589
 30
0.0
 10
181.4653207345589
 20
-105.5126621331589
 30
0.0
 10
184.0160834457858
 20
-108.2490816240014
 30
0.0
 10
184.0160834457858
 20
-108.2490816240014
 30
0.0
 10
184.0160834457858
 20
-108.2490816240014
 30
0.0
 10
183.1200876832972
 20
-108.9997807763552
 30
0.0
 10
183.1200876832972
 20
-108.9997807763552
 30
0.0
 10
183.1200876832972
 20
-108.9997807763552
 30
0.0
 10
181.2070156498769
 20
-106.917196031114
 30
0.0
 10
181.2070156498769
 20
-106.917196031114
 30
0.0
 10
181.2070156498769
 20
-106.917196031114
 30
0.0
 10
180.8679902262325
 20
-106.3602256922699
 30
0.0
 10
180.2383715823227
 20
-106.7476833192912
 30
0.0
 10
180.2383715823227
 20
-106.7476833192912
 30
0.0
 10
178.5916766674797
 20
-107.5468146750239
 30
0.0
 10
178.446380057347
 20
-107.5710307767127
 30
0.0
 10
178.446380057347
 20
-107.5710307767127
 30
0.0
 10
177.4777359897927
 20
-106.578170607469
 30
0.0
 10
177.4777359897927
 20
-106.578170607469
 30
0.0
  0
SPLINE
  5
112
330
79
100
AcDbEntity
  8
レイヤー 1
 62
   250
420
  2299925
370
    20
100
AcDbSpline
210
0.0
220
0.0
230
1.0
 70
    11
 71
     3
 72
    35
 73
    31
 74
     0
 42
0.0000000001
 43
0.0000000001
 40
0.0
 40
0.0
 40
0.0
 40
0.0
 40
1.0
 40
1.0
 40
1.0
 40
2.0
 40
2.0
 40
2.0
 40
3.0
 40
3.0
 40
3.0
 40
4.0
 40
4.0
 40
4.0
 40
5.0
 40
5.0
 40
5.0
 40
6.0
 40
6.0
 40
6.0
 40
7.0
 40
7.0
 40
7.0
 40
8.0
 40
8.0
 40
8.0
 40
9.0
 40
9.0
 40
9.0
 40
10.0
 40
10.0
 40
10.0
 40
10.0
 10
176.6059563289937
 20
-112.4868994195515
 30
0.0
 10
176.6059563289937
 20
-112.4868994195515
 30
0.0
 10
178.8315125973708
 20
-111.3936437087695
 30
0.0
 10
178.8315125973708
 20
-111.3936437087695
 30
0.0
 10
179.1781860210543
 20
-111.2233479918727
 30
0.0
 10
179.5719576039795
 20
-111.1742404654951
 30
0.0
 10
179.9498376176452
 20
-111.254176622231
 30
0.0
 10
179.9498376176452
 20
-111.254176622231
 30
0.0
 10
180.1693478556023
 20
-111.3006114802616
 30
0.0
 10
180.1693478556023
 20
-111.3006114802616
 30
0.0
 10
180.4656385783936
 20
-111.3632883639285
 30
0.0
 10
180.7335711677851
 20
-111.5204671877483
 30
0.0
 10
180.932852127926
 20
-111.7485103483217
 30
0.0
 10
180.932852127926
 20
-111.7485103483217
 30
0.0
 10
182.9747910731638
 20
-114.0851621310162
 30
0.0
 10
182.9747910731638
 20
-114.0851621310162
 30
0.0
 10
182.9747910731638
 20
-114.0851621310162
 30
0.0
 10
181.957714802232
 20
-114.8116451816819
 30
0.0
 10
181.957714802232
 20
-114.8116451816819
 30
0.0
 10
181.957714802232
 20
-114.8116451816819
 30
0.0
 10
180.2453669235025
 20
-112.8027454356861
 30
0.0
 10
180.2453669235025
 20
-112.8027454356861
 30
0.0
 10
179.9763244099113
 20
-112.4871089672269
 30
0.0
 10
179.5301058554779
 20
-112.3890781253985
 30
0.0
 10
179.1535377002528
 20
-112.5628788124251
 30
0.0
 10
179.1535377002528
 20
-112.5628788124251
 30
0.0
 10
177.1144944644602
 20
-113.5039756904839
 30
0.0
 10
177.1144944644602
 20
-113.5039756904839
 30
0.0
 10
177.1144944644602
 20
-113.5039756904839
 30
0.0
 10
176.6059563289937
 20
-112.4868994195515
 30
0.0
 10
176.6059563289937
 20
-112.4868994195515
 30
0.0
  0
SPLINE
  5
113
330
79
100
AcDbEntity
  8
レイヤー 1
 62
   250
420
  2299925
370
    20
100
AcDbSpline
210
0.0
220
0.0
230
1.0
 70
    11
 71
     3
 72
    35
 73
    31
 74
     0
 42
0.0000000001
 43
0.0000000001
 40
0.0
 40
0.0
 40
0.0
 40
0.0
 40
1.0
 40
1.0
 40
1.0
 40
2.0
 40
2.0
 40
2.0
 40
3.0
 40
3.0
 40
3.0
 40
4.0
 40
4.0
 40
4.0
 40
5.0
 40
5.0
 40
5.0
 40
6.0
 40
6.0
 40
6.0
 40
7.0
 40
7.0
 40
7.0
 40
8.0
 40
8.0
 40
8.0
 40
9.0
 40
9.0
 40
9.0
 40
10.0
 40
10.0
 40
10.0
 40
10.0
 10
182.1298853776626
 20
-121.4121003513079
 30
0.0
 10
182.1298853776626
 20
-121.4121003513079
 30
0.0
 10
179.9043291091872
 20
-122.5053560618896
 30
0.0
 10
179.9043291091872
 20
-122.5053560618896
 30
0.0
 10
179.5576556854891
 20
-122.6756517787562
 30
0.0
 10
179.1638841025594
 20
-122.7247593050979
 30
0.0
 10
178.7860040889007
 20
-122.644823148328
 30
0.0
 10
178.7860040889007
 20
-122.644823148328
 30
0.0
 10
178.5664938509482
 20
-122.5983882902782
 30
0.0
 10
178.5664938509482
 20
-122.5983882902782
 30
0.0
 10
178.2702031281619
 20
-122.5357114065843
 30
0.0
 10
178.0022705387845
 20
-122.3785325827402
 30
0.0
 10
177.8029895786642
 20
-122.1504894221501
 30
0.0
 10
177.8029895786642
 20
-122.1504894221501
 30
0.0
 10
175.7610506336356
 20
-119.8138376392714
 30
0.0
 10
175.7610506336356
 20
-119.8138376392714
 30
0.0
 10
175.7610506336356
 20
-119.8138376392714
 30
0.0
 10
176.7781269046335
 20
-119.0873545886975
 30
0.0
 10
176.7781269046335
 20
-119.0873545886975
 30
0.0
 10
176.7781269046335
 20
-119.0873545886975
 30
0.0
 10
178.4904747831834
 20
-121.096254334846
 30
0.0
 10
178.4904747831834
 20
-121.096254334846
 30
0.0
 10
178.759517296745
 20
-121.4118908033302
 30
0.0
 10
179.20573585117
 20
-121.5099216451984
 30
0.0
 10
179.5823040064106
 20
-121.3361209582058
 30
0.0
 10
179.5823040064106
 20
-121.3361209582058
 30
0.0
 10
181.6213472422885
 20
-120.3950240803298
 30
0.0
 10
181.6213472422885
 20
-120.3950240803298
 30
0.0
 10
181.6213472422885
 20
-120.3950240803298
 30
0.0
 10
182.1298853776626
 20
-121.4121003513079
 30
0.0
 10
182.1298853776626
 20
-121.4121003513079
 30
0.0
  0
SPLINE
  5
114
330
79
100
AcDbEntity
  8
レイヤー 1
 62
   250
420
  2299925
370
    20
100
AcDbSpline
210
0.0
220
0.0
230
1.0
 70
    11
 71
     3
 72
    35
 73
    31
 74
     0
 42
0.0000000001
 43
0.0000000001
 40
0.0
 40
0.0
 40
0.0
 40
0.0
 40
1.0
 40
1.0
 40
1.0
 40
2.0
 40
2.0
 40
2.0
 40
3.0
 40
3.0
 40
3.0
 40
4.0
 40
4.0
 40
4.0
 40
5.0
 40
5.0
 40
5.0
 40
6.0
 40
6.0
 40
6.0
 40
7.0
 40
7.0
 40
7.0
 40
8.0
 40
8.0
 40
8.0
 40
9.0
 40
9.0
 40
9.0
 40
10.0
 40
10.0
 40
10.0
 40
10.0
 10
181.0621266968732
 20
-127.079811155083
 30
0.0
 10
181.0621266968732
 20
-127.079811155083
 30
0.0
 10
178.8365704283978
 20
-128.1730668656654
 30
0.0
 10
178.8365704283978
 20
-128.1730668656654
 30
0.0
 10
178.4898970046997
 20
-128.3433625825313
 30
0.0
 10
178.0961254217699
 20
-128.3924701088736
 30
0.0
 10
177.7182454081113
 20
-128.3125339521031
 30
0.0
 10
177.7182454081113
 20
-128.3125339521031
 30
0.0
 10
177.4987351701587
 20
-128.2660990940533
 30
0.0
 10
177.4987351701587
 20
-128.2660990940533
 30
0.0
 10
177.2024444473725
 20
-128.2034222103594
 30
0.0
 10
176.9345118579951
 20
-128.0462433865159
 30
0.0
 10
176.7352308978754
 20
-127.8182002259252
 30
0.0
 10
176.7352308978754
 20
-127.8182002259252
 30
0.0
 10
174.6932919528467
 20
-125.4815484430465
 30
0.0
 10
174.6932919528467
 20
-125.4815484430465
 30
0.0
 10
174.6932919528467
 20
-125.4815484430465
 30
0.0
 10
175.7103682238447
 20
-124.7550653924726
 30
0.0
 10
175.7103682238447
 20
-124.7550653924726
 30
0.0
 10
175.7103682238447
 20
-124.7550653924726
 30
0.0
 10
177.4227161023939
 20
-126.7639651386217
 30
0.0
 10
177.4227161023939
 20
-126.7639651386217
 30
0.0
 10
177.6917586159562
 20
-127.0796016071053
 30
0.0
 10
178.1379771703806
 20
-127.1776324489741
 30
0.0
 10
178.5145453256211
 20
-127.0038317619809
 30
0.0
 10
178.5145453256211
 20
-127.0038317619809
 30
0.0
 10
180.553588561499
 20
-126.0627348841049
 30
0.0
 10
180.553588561499
 20
-126.0627348841049
 30
0.0
 10
180.553588561499
 20
-126.0627348841049
 30
0.0
 10
181.0621266968732
 20
-127.079811155083
 30
0.0
 10
181.0621266968732
 20
-127.079811155083
 30
0.0
  0
SPLINE
  5
115
330
79
100
AcDbEntity
  8
レイヤー 1
 62
   250
420
  2299925
370
    20
100
AcDbSpline
210
0.0
220
0.0
230
1.0
 70
     8
 71
     3
 72
     8
 73
     4
 74
     0
 42
0.0000000001
 43
0.0000000001
 40
0.0
 40
0.0
 40
0.0
 40
0.0
 40
1.0
 40
1.0
 40
1.0
 40
1.0
 10
202.5656173394566
 20
-105.0767723027604
 30
0.0
 10
202.5656173394566
 20
-105.0767723027604
 30
0.0
 10
202.9324614417411
 20
-109.6697595897472
 30
0.0
 10
202.6793525894179
 20
-111.033293700692
 30
0.0
  0
ELLIPSE
  5
116
330
79
100
AcDbEntity
  8
レイヤー 1
 62
   250
420
  2299925
370
    20
100
AcDbEllipse
 10
168.9698122631084
 20
-137.3810519556986
 30
0.0
 11
0.0000000000000001
 21
1.549830508087155
 31
0.0
210
0.0
220
0.0
230
1.0
 40
0.6458333333333939
 41
0.0
 42
6.283185307179586
  0
ELLIPSE
  5
117
330
79
100
AcDbEntity
  8
レイヤー 1
 62
   250
420
  2299925
370
    20
100
AcDbEllipse
 10
169.0611880514726
 20
-137.4456282268695
 30
0.0
 11
0.0000000000000002
 21
2.841355931493011
 31
0.0
210
0.0
220
0.0
230
1.0
 40
0.5246589625694956
 41
0.0
 42
6.283185307179585
  0
SPLINE
  5
118
330
79
100
AcDbEntity
  8
レイヤー 1
 62
   250
420
  2299925
370
    20
100
AcDbSpline
210
0.0
220
0.0
230
1.0
 70
     8
 71
     3
 72
    14
 73
    10
 74
     0
 42
0.0000000001
 43
0.0000000001
 40
0.0
 40
0.0
 40
0.0
 40
0.0
 40
1.0
 40
1.0
 40
1.0
 40
2.0
 40
2.0
 40
2.0
 40
3.0
 40
3.0
 40
3.0
 40
3.0
 10
169.0611880514726
 20
-134.6042722953765
 30
0.0
 10
169.0611880514726
 20
-134.6042722953765
 30
0.0
 10
164.9337953149653
 20
-133.5710519566532
 30
0.0
 10
164.9337953149653
 20
-133.5710519566532
 30
0.0
 10
164.9337953149653
 20
-133.5710519566532
 30
0.0
 10
160.9300665024065
 20
-134.6688485665469
 30
0.0
 10
162.9319309086859
 20
-138.3496960232534
 30
0.0
 10
162.9319309086859
 20
-138.3496960232534
 30
0.0
 10
169.0611880514726
 20
-140.2869841583625
 30
0.0
 10
169.0611880514726
 20
-140.2869841583625
 30
0.0
  0
LWPOLYLINE
  5
119
330
79
100
AcDbEntity
  8
レイヤー 1
 62
   250
420
  2299925
370
    20
100
AcDbPolyline
 90
        4
 70
     1
 43
0.0
 10
160.2682742198429
 20
-132.4732553467564
 10
160.2682742198429
 20
-131.4893923419098
 10
164.4171851456027
 20
-130.8588485674989
 10
164.4171851456027
 20
-132.0857977197345
  0
LWPOLYLINE
  5
11A
330
79
100
AcDbEntity
  8
レイヤー 1
 62
   250
420
  2299925
370
    20
100
AcDbPolyline
 90
        4
 70
     1
 43
0.0
 10
158.992778367298
 20
-143.0637638186846
 10
158.992778367298
 20
-141.9659672087897
 10
162.8673546375149
 20
-141.9659672087897
 10
162.8673546375149
 20
-143.0637638186846
  0
ELLIPSE
  5
11B
330
79
100
AcDbEntity
  8
レイヤー 1
 62
   250
420
  2299925
370
    20
100
AcDbEllipse
 10
175.3709351428616
 20
-94.69210069518258
 30
0.0
 11
0.0000000000000001
 21
1.553866525032854
 31
0.0
210
0.0
220
0.0
230
1.0
 40
0.7948051948063099
 41
0.0
 42
6.283185307179586
  0
ELLIPSE
  5
11C
330
79
100
AcDbEntity
  8
レイヤー 1
 62
   250
420
  2299925
370
    20
100
AcDbEllipse
 10
175.3225029394839
 20
-94.56294815284417
 30
0.0
 11
0.0000000000000002
 21
2.909968219613527
 31
0.0
210
0.0
220
0.0
230
1.0
 40
0.740638002773483
 41
0.0
 42
6.283185307179586
  0
LWPOLYLINE
  5
11D
330
79
100
AcDbEntity
  8
レイヤー 1
 62
   250
420
  2299925
370
    20
100
AcDbPolyline
 90
        4
 70
     1
 43
0.0
 10
166.8387953144909
 20
-88.85198417122509
 10
166.8387953144909
 20
-87.68961129015957
 10
170.9071003982194
 20
-87.68961129015957
 10
170.9071003982194
 20
-88.85198417122509
  0
LWPOLYLINE
  5
11E
330
79
100
AcDbEntity
  8
レイヤー 1
 62
   250
420
  2299925
370
    20
100
AcDbPolyline
 90
        4
 70
     1
 43
0.0
 10
165.0952359928927
 20
-99.60393332107939
 10
165.0952359928927
 20
-98.53842484676935
 10
169.3895580257171
 20
-99.07117908392468
 10
169.3895580257171
 20
-100.1528316260271
  0
SPLINE
  5
11F
330
79
100
AcDbEntity
  8
レイヤー 1
 62
   250
420
  2299925
370
    20
100
AcDbSpline
210
0.0
220
0.0
230
1.0
 70
     8
 71
     3
 72
    32
 73
    28
 74
     0
 42
0.0000000001
 43
0.0000000001
 40
0.0
 40
0.0
 40
0.0
 40
0.0
 40
1.0
 40
1.0
 40
1.0
 40
2.0
 40
2.0
 40
2.0
 40
3.0
 40
3.0
 40
3.0
 40
4.0
 40
4.0
 40
4.0
 40
5.0
 40
5.0
 40
5.0
 40
6.0
 40
6.0
 40
6.0
 40
7.0
 40
7.0
 40
7.0
 40
8.0
 40
8.0
 40
8.0
 40
9.0
 40
9.0
 40
9.0
 40
9.0
 10
175.1529902276623
 20
-91.65297993323079
 30
0.0
 10
175.1529902276623
 20
-91.65297993323079
 30
0.0
 10
175.1529902276623
 20
-89.2152256965557
 30
0.0
 10
175.1529902276623
 20
-89.2152256965557
 30
0.0
 10
175.1529902276623
 20
-89.2152256965557
 30
0.0
 10
175.120612859141
 20
-89.07492376629322
 30
0.0
 10
175.0475386131497
 20
-88.88860767382867
 30
0.0
 10
174.7993916891254
 20
-88.25591191878704
 30
0.0
 10
174.0561742140261
 20
-87.97509250893213
 30
0.0
 10
173.4453893460151
 20
-88.2731238149361
 30
0.0
 10
173.3165080230399
 20
-88.3360112095281
 30
0.0
 10
173.1839613065983
 20
-88.41504229442151
 30
0.0
 10
173.0550857375112
 20
-88.51435221080672
 30
0.0
 10
172.7206543167914
 20
-88.77206091901005
 30
0.0
 10
172.213587555687
 20
-88.70343290244525
 30
0.0
 10
172.0211550933818
 20
-88.32762989434177
 30
0.0
 10
171.9217146988092
 20
-88.13343189386065
 30
0.0
 10
171.9140866267768
 20
-87.88212929858387
 30
0.0
 10
172.1259775165544
 20
-87.56853078171337
 30
0.0
 10
172.1259775165544
 20
-87.56853078171337
 30
0.0
 10
172.9493249739772
 20
-86.59988671415915
 30
0.0
 10
174.4507232786861
 20
-87.03577654455834
 30
0.0
 10
175.952121583395
 20
-87.47166637495787
 30
0.0
 10
176.1216342952172
 20
-88.75511976446736
 30
0.0
 10
176.1216342952172
 20
-88.75511976446736
 30
0.0
 10
176.1216342952172
 20
-88.75511976446736
 30
0.0
 10
176.1216342952172
 20
-91.92742908570837
 30
0.0
 10
176.1216342952172
 20
-91.92742908570837
 30
0.0
  0
SPLINE
  5
120
330
79
100
AcDbEntity
  8
レイヤー 1
 62
   250
420
  2299925
370
    20
100
AcDbSpline
210
0.0
220
0.0
230
1.0
 70
     8
 71
     3
 72
    35
 73
    31
 74
     0
 42
0.0000000001
 43
0.0000000001
 40
0.0
 40
0.0
 40
0.0
 40
0.0
 40
1.0
 40
1.0
 40
1.0
 40
2.0
 40
2.0
 40
2.0
 40
3.0
 40
3.0
 40
3.0
 40
4.0
 40
4.0
 40
4.0
 40
5.0
 40
5.0
 40
5.0
 40
6.0
 40
6.0
 40
6.0
 40
7.0
 40
7.0
 40
7.0
 40
8.0
 40
8.0
 40
8.0
 40
9.0
 40
9.0
 40
9.0
 40
10.0
 40
10.0
 40
10.0
 40
10.0
 10
174.6265335212019
 20
-97.31487623272286
 30
0.0
 10
174.6265335212019
 20
-97.31487623272286
 30
0.0
 10
174.6202359905076
 20
-98.10253501636756
 30
0.0
 10
174.1359139567299
 20
-99.3456282363984
 30
0.0
 10
174.0632656516629
 20
-99.53209221940305
 30
0.0
 10
173.9764509271083
 20
-99.68822553504212
 30
0.0
 10
173.8813542957768
 20
-99.81893194390796
 30
0.0
 10
173.4929719464663
 20
-100.3527475106007
 30
0.0
 10
172.7890234818302
 20
-100.5544131510454
 30
0.0
 10
172.1534817811365
 20
-100.3758448022853
 30
0.0
 10
172.1534817811365
 20
-100.3758448022853
 30
0.0
 10
171.3597567212337
 20
-100.1528316260271
 30
0.0
 10
171.3597567212337
 20
-100.1528316260271
 30
0.0
 10
170.8599130444898
 20
-100.2658401005776
 30
0.0
 10
170.784162613468
 20
-100.5241451852538
 30
0.0
 10
170.784162613468
 20
-100.5241451852538
 30
0.0
 10
170.784162613468
 20
-100.5241451852538
 30
0.0
 10
170.5680749745738
 20
-101.0891875579939
 30
0.0
 10
171.2299817540678
 20
-101.3959248460528
 30
0.0
 10
171.8224439038636
 20
-101.6704804764464
 30
0.0
 10
172.3762105673403
 20
-101.6219417951486
 30
0.0
 10
172.3762105673403
 20
-101.6219417951486
 30
0.0
 10
172.3762105673403
 20
-101.6219417951486
 30
0.0
 10
173.494493621639
 20
-101.5395419911478
 30
0.0
 10
174.2434211352444
 20
-100.952574673757
 30
0.0
 10
174.4549512066661
 20
-100.7867892855666
 30
0.0
 10
174.6098641963484
 20
-100.5616360113803
 30
0.0
 10
174.7013293142563
 20
-100.3089229364141
 30
0.0
 10
174.889191243844
 20
-99.78987078865763
 30
0.0
 10
175.2514298357189
 20
-98.65746810188142
 30
0.0
 10
175.3225029394839
 20
-97.47291637245769
 30
0.0
  0
SPLINE
  5
121
330
79
100
AcDbEntity
  8
レイヤー 1
 62
   250
420
  2299925
370
    20
100
AcDbSpline
210
0.0
220
0.0
230
1.0
 70
     8
 71
     3
 72
    32
 73
    28
 74
     0
 42
0.0000000001
 43
0.0000000001
 40
0.0
 40
0.0
 40
0.0
 40
0.0
 40
1.0
 40
1.0
 40
1.0
 40
2.0
 40
2.0
 40
2.0
 40
3.0
 40
3.0
 40
3.0
 40
4.0
 40
4.0
 40
4.0
 40
5.0
 40
5.0
 40
5.0
 40
6.0
 40
6.0
 40
6.0
 40
7.0
 40
7.0
 40
7.0
 40
8.0
 40
8.0
 40
8.0
 40
9.0
 40
9.0
 40
9.0
 40
9.0
 10
168.6856639859027
 20
-134.5393530955866
 30
0.0
 10
168.6856639859027
 20
-134.5393530955866
 30
0.0
 10
168.6856639859027
 20
-132.1015988589115
 30
0.0
 10
168.6856639859027
 20
-132.1015988589115
 30
0.0
 10
168.6856639859027
 20
-132.1015988589115
 30
0.0
 10
168.6532866173801
 20
-131.9612969286483
 30
0.0
 10
168.5802123713894
 20
-131.7749808361838
 30
0.0
 10
168.3320654473651
 20
-131.1422850811422
 30
0.0
 10
167.5888479722658
 20
-130.8614656712879
 30
0.0
 10
166.9780631042541
 20
-131.1594969772919
 30
0.0
 10
166.8491817812796
 20
-131.2223843718836
 30
0.0
 10
166.716635064838
 20
-131.3014154567776
 30
0.0
 10
166.5877594957515
 20
-131.4007253731625
 30
0.0
 10
166.2533280750318
 20
-131.6584340813658
 30
0.0
 10
165.7462613139267
 20
-131.5898060648007
 30
0.0
 10
165.5538288516209
 20
-131.2140030566972
 30
0.0
 10
165.4543884570482
 20
-131.0198050562161
 30
0.0
 10
165.4467603850165
 20
-130.768502460939
 30
0.0
 10
165.6586512747947
 20
-130.4549039440685
 30
0.0
 10
165.6586512747947
 20
-130.4549039440685
 30
0.0
 10
166.4819987322162
 20
-129.4862598765142
 30
0.0
 10
167.9833970369251
 20
-129.9221497069138
 30
0.0
 10
169.484795341634
 20
-130.3580395373133
 30
0.0
 10
169.6543080534569
 20
-131.6414929268231
 30
0.0
 10
169.6543080534569
 20
-131.6414929268231
 30
0.0
 10
169.6543080534569
 20
-131.6414929268231
 30
0.0
 10
169.6543080534569
 20
-134.8138022480638
 30
0.0
 10
169.6543080534569
 20
-134.8138022480638
 30
0.0
  0
SPLINE
  5
122
330
79
100
AcDbEntity
  8
レイヤー 1
 62
   250
420
  2299925
370
    20
100
AcDbSpline
210
0.0
220
0.0
230
1.0
 70
     8
 71
     3
 72
    35
 73
    31
 74
     0
 42
0.0000000001
 43
0.0000000001
 40
0.0
 40
0.0
 40
0.0
 40
0.0
 40
1.0
 40
1.0
 40
1.0
 40
2.0
 40
2.0
 40
2.0
 40
3.0
 40
3.0
 40
3.0
 40
4.0
 40
4.0
 40
4.0
 40
5.0
 40
5.0
 40
5.0
 40
6.0
 40
6.0
 40
6.0
 40
7.0
 40
7.0
 40
7.0
 40
8.0
 40
8.0
 40
8.0
 40
9.0
 40
9.0
 40
9.0
 40
10.0
 40
10.0
 40
10.0
 40
10.0
 10
167.7186470091802
 20
-139.9237426330319
 30
0.0
 10
167.7186470091802
 20
-139.9237426330319
 30
0.0
 10
167.8498370656505
 20
-140.0507923965966
 30
0.0
 10
167.3655150318721
 20
-141.2938856166275
 30
0.0
 10
167.2928667268057
 20
-141.4803495996318
 30
0.0
 10
167.2060520022511
 20
-141.6364829152712
 30
0.0
 10
167.110955370919
 20
-141.7671893241367
 30
0.0
 10
166.7225730216091
 20
-142.3010048908298
 30
0.0
 10
166.0186245569723
 20
-142.5026705312738
 30
0.0
 10
165.3830828562786
 20
-142.3241021825147
 30
0.0
 10
165.3830828562786
 20
-142.3241021825147
 30
0.0
 10
164.5893577963759
 20
-142.1010890062562
 30
0.0
 10
164.5893577963759
 20
-142.1010890062562
 30
0.0
 10
164.0895141196326
 20
-142.214097480806
 30
0.0
 10
164.0137636886109
 20
-142.4724025654822
 30
0.0
 10
164.0137636886109
 20
-142.4724025654822
 30
0.0
 10
164.0137636886109
 20
-142.4724025654822
 30
0.0
 10
163.7976760497166
 20
-143.0374449382224
 30
0.0
 10
164.45958282921
 20
-143.3441822262813
 30
0.0
 10
165.0520449790057
 20
-143.6187378566752
 30
0.0
 10
165.6058116424831
 20
-143.5701991753777
 30
0.0
 10
165.6058116424831
 20
-143.5701991753777
 30
0.0
 10
165.6058116424831
 20
-143.5701991753777
 30
0.0
 10
166.7240946967819
 20
-143.4877993713766
 30
0.0
 10
167.4730222103873
 20
-142.9008320539864
 30
0.0
 10
167.6845522818083
 20
-142.7350466657957
 30
0.0
 10
167.8777188501959
 20
-142.5119696582232
 30
0.0
 10
168.0213482802914
 20
-142.2848125476955
 30
0.0
 10
168.3603737039357
 20
-141.7486269234874
 30
0.0
 10
168.475678488539
 20
-141.3732184889246
 30
0.0
 10
168.7242749330159
 20
-140.21286768268
 30
0.0
  0
LINE
  5
123
330
79
100
AcDbEntity
  8
レイヤー 1
 62
   250
420
  2299925
370
    20
100
AcDbLine
 10
162.1454022527074
 20
-75.09517740984591
 30
0.0
 11
160.6717614177239
 21
-86.92303702574209
 31
0.0
  0
LWPOLYLINE
  5
124
330
79
100
AcDbEntity
  8
レイヤー 1
 62
   250
420
  2299925
370
    20
100
AcDbPolyline
 90
        5
 70
     0
 43
0.0
 10
158.7373167343131
 20
-86.92303702574209
 10
161.4085818352149
 20
-86.92303702574209
 10
160.0729492847647
 20
-98.18981388286664
 10
159.4168152740629
 20
-98.10879281394505
 10
157.4050418521264
 20
-97.86037399947291
  0
SPLINE
  5
125
330
79
100
AcDbEntity
  8
レイヤー 1
 62
   250
420
  2299925
370
    20
100
AcDbSpline
210
0.0
220
0.0
230
1.0
 70
     8
 71
     3
 72
    11
 73
     7
 74
     0
 42
0.0000000001
 43
0.0000000001
 40
0.0
 40
0.0
 40
0.0
 40
0.0
 40
1.0
 40
1.0
 40
1.0
 40
2.0
 40
2.0
 40
2.0
 40
2.0
 10
159.4168152740629
 20
-98.10879281394505
 30
0.0
 10
159.4168152740629
 20
-98.10879281394505
 30
0.0
 10
157.8626936218164
 20
-109.2257977254459
 30
0.0
 10
157.8626936218164
 20
-109.2257977254459
 30
0.0
 10
157.8626936218164
 20
-109.2257977254459
 30
0.0
 10
156.7326088763334
 20
-111.1746926137702
 30
0.0
 10
153.6006597245749
 20
-111.6854994065277
 30
0.0
  0
SPLINE
  5
126
330
79
100
AcDbEntity
  8
レイヤー 1
 62
   250
420
  2299925
370
    20
100
AcDbSpline
210
0.0
220
0.0
230
1.0
 70
     8
 71
     3
 72
     8
 73
     4
 74
     0
 42
0.0000000001
 43
0.0000000001
 40
0.0
 40
0.0
 40
0.0
 40
0.0
 40
1.0
 40
1.0
 40
1.0
 40
1.0
 10
163.0933715866094
 20
-75.87211687938019
 30
0.0
 10
163.0933715866094
 20
-75.87211687938019
 30
0.0
 10
170.8332097966035
 20
-75.63496853298165
 30
0.0
 10
174.5187144185306
 20
-77.15809499744141
 30
0.0
  0
LINE
  5
127
330
79
100
AcDbEntity
  8
レイヤー 1
 62
   250
420
  2299925
370
    20
100
AcDbLine
 10
96.47915841688941
 20
-94.85757739006114
 30
0.0
 11
96.35379533210823
 21
-98.17518332143427
 31
0.0
  0
SPLINE
  5
128
330
79
100
AcDbEntity
  8
レイヤー 1
 62
   250
420
  2299925
370
    20
100
AcDbSpline
210
0.0
220
0.0
230
1.0
 70
    11
 71
     3
 72
    29
 73
    25
 74
     0
 42
0.0000000001
 43
0.0000000001
 40
0.0
 40
0.0
 40
0.0
 40
0.0
 40
1.0
 40
1.0
 40
1.0
 40
2.0
 40
2.0
 40
2.0
 40
3.0
 40
3.0
 40
3.0
 40
4.0
 40
4.0
 40
4.0
 40
5.0
 40
5.0
 40
5.0
 40
6.0
 40
6.0
 40
6.0
 40
7.0
 40
7.0
 40
7.0
 40
8.0
 40
8.0
 40
8.0
 40
8.0
 10
91.36527838420205
 20
-98.87745027041082
 30
0.0
 10
91.36527838420205
 20
-98.87745027041082
 30
0.0
 10
91.68008770615733
 20
-96.68820822542956
 30
0.0
 10
94.07748177335442
 20
-97.4438038242763
 30
0.0
 10
94.07748177335442
 20
-97.4438038242763
 30
0.0
 10
152.0992614198672
 20
-117.2574714522588
 30
0.0
 10
152.0992614198672
 20
-117.2574714522588
 30
0.0
 10
152.0992614198672
 20
-117.2574714522588
 30
0.0
 10
154.5208715887528
 20
-117.6691451809696
 30
0.0
 10
154.1576300634197
 20
-120.5992934853217
 30
0.0
 10
154.1576300634197
 20
-120.5992934853217
 30
0.0
 10
148.8058715901813
 20
-154.84086127337
 30
0.0
 10
148.8058715901813
 20
-154.84086127337
 30
0.0
 10
148.8058715901813
 20
-154.84086127337
 30
0.0
 10
146.9896639635171
 20
-155.8821536459906
 30
0.0
 10
145.0765919300968
 20
-155.0345900868803
 30
0.0
 10
145.0765919300968
 20
-155.0345900868803
 30
0.0
 10
89.69436736766999
 20
-122.8271748406944
 30
0.0
 10
89.69436736766999
 20
-122.8271748406944
 30
0.0
 10
89.69436736766999
 20
-122.8271748406944
 30
0.0
 10
88.82258770687093
 20
-122.4881494170506
 30
0.0
 10
88.9194521136264
 20
-120.9383189089628
 30
0.0
 10
88.9194521136264
 20
-120.9383189089628
 30
0.0
 10
91.36527838420205
 20
-98.87745027041082
 30
0.0
 10
91.36527838420205
 20
-98.87745027041082
 30
0.0
  0
LINE
  5
129
330
79
100
AcDbEntity
  8
レイヤー 1
 62
   250
420
  2299925
370
    20
100
AcDbLine
 10
107.7676512614581
 20
-98.27347834566499
 30
0.0
 11
101.726866619735
 21
-100.0559672192646
 31
0.0
  0
LWPOLYLINE
  5
12A
330
79
100
AcDbEntity
  8
レイヤー 1
 62
   250
420
  2299925
370
    20
100
AcDbPolyline
 90
        3
 70
     0
 43
0.0
 10
122.5284247269604
 20
-107.1594232144395
 10
127.8024393920426
 20
-105.2531853790724
 10
127.8024393920426
 20
-104.3360105953543
  0
LWPOLYLINE
  5
12B
330
79
100
AcDbEntity
  8
レイヤー 1
 62
   250
420
  2299925
370
    20
100
AcDbPolyline
 90
        4
 70
     0
 43
0.0
 10
131.1604054928973
 20
-110.107130073991
 10
136.9076936270546
 20
-108.4185943358223
 10
139.6844732873773
 20
-108.4185943358223
 10
159.85952051651
 20
-114.4972167607756
  0
LWPOLYLINE
  5
12C
330
79
100
AcDbEntity
  8
レイヤー 1
 62
   250
420
  2299925
370
    20
100
AcDbPolyline
 90
        3
 70
     0
 43
0.0
 10
104.7472589405965
 20
-101.114288648152
 10
110.2699817693071
 20
-100.0559672192646
 10
127.7346003225475
 20
-105.233075738026
  0
LWPOLYLINE
  5
12D
330
79
100
AcDbEntity
  8
レイヤー 1
 62
   250
420
  2299925
370
    20
100
AcDbPolyline
 90
        3
 70
     0
 43
0.0
 10
154.1947596730944
 20
-119.4288485703579
 10
156.0791623476164
 20
-120.4620689090824
 10
154.4078631142049
 20
-131.4893923419098
  0
LWPOLYLINE
  5
12E
330
79
100
AcDbEntity
  8
レイヤー 1
 62
   250
420
  2299925
370
    20
100
AcDbPolyline
 90
        4
 70
     0
 43
0.0
 10
152.5190071824728
 20
-131.0835140901154
 10
155.5379478596846
 20
-131.6660519571277
 10
153.826676673672
 20
-142.5148655137371
 10
150.7323532470973
 20
-142.5148655137371
  0
LINE
  5
12F
330
79
100
AcDbEntity
  8
レイヤー 1
 62
   250
420
  2299925
370
    20
100
AcDbLine
 10
150.8561681998383
 20
-154.3000350023218
 30
0.0
 11
152.7934563349468
 21
-142.5148655137371
 31
0.0
  0
SPLINE
  5
130
330
79
100
AcDbEntity
  8
レイヤー 1
 62
   250
420
  2299925
370
    20
100
AcDbSpline
210
0.0
220
0.0
230
1.0
 70
    11
 71
     3
 72
    53
 73
    49
 74
     0
 42
0.0000000001
 43
0.0000000001
 40
0.0
 40
0.0
 40
0.0
 40
0.0
 40
1.0
 40
1.0
 40
1.0
 40
2.0
 40
2.0
 40
2.0
 40
3.0
 40
3.0
 40
3.0
 40
4.0
 40
4.0
 40
4.0
 40
5.0
 40
5.0
 40
5.0
 40
6.0
 40
6.0
 40
6.0
 40
7.0
 40
7.0
 40
7.0
 40
8.0
 40
8.0
 40
8.0
 40
9.0
 40
9.0
 40
9.0
 40
10.0
 40
10.0
 40
10.0
 40
11.0
 40
11.0
 40
11.0
 40
12.0
 40
12.0
 40
12.0
 40
13.0
 40
13.0
 40
13.0
 40
14.0
 40
14.0
 40
14.0
 40
15.0
 40
15.0
 40
15.0
 40
16.0
 40
16.0
 40
16.0
 40
16.0
 10
90.15447329975959
 20
-114.7793570460977
 30
0.0
 10
90.15447329975959
 20
-114.7793570460977
 30
0.0
 10
91.18769363848414
 20
-106.5458824718784
 30
0.0
 10
91.18769363848414
 20
-106.5458824718784
 30
0.0
 10
91.18769363848414
 20
-106.5458824718784
 30
0.0
 10
92.23544671174765
 20
-106.5458824718784
 30
0.0
 10
92.23544671174765
 20
-106.5458824718784
 30
0.0
 10
92.23544671174765
 20
-106.5458824718784
 30
0.0
 10
92.60837160423065
 20
-101.8641028120382
 30
0.0
 10
92.60837160423065
 20
-101.8641028120382
 30
0.0
 10
92.60837160423065
 20
-101.8641028120382
 30
0.0
 10
92.73752414657163
 20
-101.5412214561865
 30
0.0
 10
93.54472753620036
 20
-101.8641028120382
 30
0.0
 10
93.54472753620036
 20
-101.8641028120382
 30
0.0
 10
111.7229478706388
 20
-108.4185943358223
 30
0.0
 10
111.7229478706388
 20
-108.4185943358223
 30
0.0
 10
111.7229478706388
 20
-108.4185943358223
 30
0.0
 10
112.8207444805337
 20
-108.4508824714084
 30
0.0
 10
112.8207444805337
 20
-110.3881706065175
 30
0.0
 10
112.8207444805337
 20
-110.3881706065175
 30
0.0
 10
112.8207444805337
 20
-115.2313909442893
 30
0.0
 10
112.8207444805337
 20
-115.2313909442893
 30
0.0
 10
112.8207444805337
 20
-115.2313909442893
 30
0.0
 10
113.7248122769179
 20
-116.5229163676958
 30
0.0
 10
113.7248122769179
 20
-116.5229163676958
 30
0.0
 10
113.7248122769179
 20
-116.5229163676958
 30
0.0
 10
113.2243461753484
 20
-122.9805434847257
 30
0.0
 10
113.2243461753484
 20
-122.9805434847257
 30
0.0
 10
113.2243461753484
 20
-122.9805434847257
 30
0.0
 10
111.1417614301062
 20
-124.4012214504716
 30
0.0
 10
111.1417614301062
 20
-124.4012214504716
 30
0.0
 10
111.1417614301062
 20
-124.4012214504716
 30
0.0
 10
110.6897275319139
 20
-130.0839333134576
 30
0.0
 10
110.6897275319139
 20
-130.0839333134576
 30
0.0
 10
110.6897275319139
 20
-130.0839333134576
 30
0.0
 10
110.237693633722
 20
-130.8588485675009
 30
0.0
 10
108.8815919391458
 20
-130.4713909404796
 30
0.0
 10
108.8815919391458
 20
-130.4713909404796
 30
0.0
 10
91.12311736731415
 20
-120.6557977225947
 30
0.0
 10
91.12311736731415
 20
-120.6557977225947
 30
0.0
 10
91.12311736731415
 20
-120.6557977225947
 30
0.0
 10
90.28362584210025
 20
-120.397492637914
 30
0.0
 10
90.15447329975959
 20
-119.6225773838701
 30
0.0
 10
90.15447329975959
 20
-119.6225773838701
 30
0.0
 10
90.67108346912219
 20
-115.2959672154603
 30
0.0
 10
90.67108346912219
 20
-115.2959672154603
 30
0.0
 10
90.67108346912219
 20
-115.2959672154603
 30
0.0
 10
90.15447329975959
 20
-114.7793570460977
 30
0.0
 10
90.15447329975959
 20
-114.7793570460977
 30
0.0
  0
SPLINE
  5
131
330
79
100
AcDbEntity
  8
レイヤー 1
 62
   250
420
  2299925
370
    20
100
AcDbSpline
210
0.0
220
0.0
230
1.0
 70
     8
 71
     3
 72
    38
 73
    34
 74
     0
 42
0.0000000001
 43
0.0000000001
 40
0.0
 40
0.0
 40
0.0
 40
0.0
 40
1.0
 40
1.0
 40
1.0
 40
2.0
 40
2.0
 40
2.0
 40
3.0
 40
3.0
 40
3.0
 40
4.0
 40
4.0
 40
4.0
 40
5.0
 40
5.0
 40
5.0
 40
6.0
 40
6.0
 40
6.0
 40
7.0
 40
7.0
 40
7.0
 40
8.0
 40
8.0
 40
8.0
 40
9.0
 40
9.0
 40
9.0
 40
10.0
 40
10.0
 40
10.0
 40
11.0
 40
11.0
 40
11.0
 40
11.0
 10
92.50614438735151
 20
-103.1474853759689
 30
0.0
 10
92.50614438735151
 20
-103.1474853759689
 30
0.0
 10
92.86667668891228
 20
-102.4764057187446
 30
0.0
 10
93.54472753620036
 20
-102.6545762991686
 30
0.0
 10
93.54472753620036
 20
-102.6545762991686
 30
0.0
 10
110.8188800742542
 20
-108.7737638272594
 30
0.0
 10
110.8188800742542
 20
-108.7737638272594
 30
0.0
 10
110.8188800742542
 20
-108.7737638272594
 30
0.0
 10
111.6583715994694
 20
-109.0320689119407
 30
0.0
 10
111.7875241418094
 20
-109.8069841659846
 30
0.0
 10
111.7875241418094
 20
-109.8069841659846
 30
0.0
 10
111.7875241418094
 20
-115.36054348663
 30
0.0
 10
111.7875241418094
 20
-115.36054348663
 30
0.0
 10
111.7875241418094
 20
-115.36054348663
 30
0.0
 10
112.9337529550822
 20
-116.5874926388661
 30
0.0
 10
112.9337529550822
 20
-116.5874926388661
 30
0.0
 10
112.9337529550822
 20
-116.5874926388661
 30
0.0
 10
112.3687105823417
 20
-122.3993570441922
 30
0.0
 10
112.3687105823417
 20
-122.3993570441922
 30
0.0
 10
112.3687105823417
 20
-122.3993570441922
 30
0.0
 10
110.4717826167148
 20
-124.4657977216426
 30
0.0
 10
110.4717826167148
 20
-124.4657977216426
 30
0.0
 10
110.4717826167148
 20
-124.4657977216426
 30
0.0
 10
110.108541091381
 20
-128.7278316188814
 30
0.0
 10
110.108541091381
 20
-128.7278316188814
 30
0.0
 10
110.108541091381
 20
-128.7278316188814
 30
0.0
 10
110.2376936337216
 20
-129.567323144095
 30
0.0
 10
108.8170156679751
 20
-129.3090180594137
 30
0.0
 10
108.8170156679751
 20
-129.3090180594137
 30
0.0
 10
90.67108346912187
 20
-119.6225773838701
 30
0.0
 10
90.67108346912187
 20
-119.6225773838701
 30
0.0
 10
90.67108346912187
 20
-119.6225773838701
 30
0.0
 10
90.18942079199851
 20
-119.329892136369
 30
0.0
 10
90.24842305162275
 20
-118.8357482120177
 30
0.0
  0
ELLIPSE
  5
132
330
79
100
AcDbEntity
  8
レイヤー 1
 62
   250
420
  2299925
370
    20
100
AcDbEllipse
 10
93.66580804464472
 20
-104.5727530786127
 30
0.0
 11
0.0000000000000001
 21
1.174963826284087
 31
0.0
210
0.0
220
0.0
230
1.0
 40
0.5564722342702756
 41
0.0
 42
6.283185307179586
  0
ELLIPSE
  5
133
330
79
100
AcDbEntity
  8
レイヤー 1
 62
   250
420
  2299925
370
    20
100
AcDbEllipse
 10
95.31250295948728
 20
-105.3915816247144
 30
0.0
 11
0.0000000000000001
 21
1.331885592887389
 31
0.0
210
0.0
220
0.0
230
1.0
 40
0.5636363636364205
 41
0.0
 42
6.283185307179586
  0
ELLIPSE
  5
134
330
79
100
AcDbEntity
  8
レイヤー 1
 62
   250
420
  2299925
370
    20
100
AcDbEllipse
 10
97.1287105861518
 20
-106.0355677751292
 30
0.0
 11
0.0000000000000001
 21
1.462814696516453
 31
0.0
210
0.0
220
0.0
230
1.0
 40
0.5297425954831879
 41
0.0
 42
6.283185307179585
  0
ELLIPSE
  5
135
330
79
100
AcDbEntity
  8
レイヤー 1
 62
   250
420
  2299925
370
    20
100
AcDbEllipse
 10
98.99335041619421
 20
-106.7148093490029
 30
0.0
 11
0.0000000000000001
 21
1.461623969930176
 31
0.0
210
0.0
220
0.0
230
1.0
 40
0.6130138673975494
 41
0.0
 42
6.283185307179586
  0
ELLIPSE
  5
136
330
79
100
AcDbEntity
  8
レイヤー 1
 62
   250
420
  2299925
370
    20
100
AcDbEllipse
 10
100.9291869076529
 20
-107.4221810440036
 30
0.0
 11
0.0000000000000001
 21
1.674464139106818
 31
0.0
210
0.0
220
0.0
230
1.0
 40
0.4763790955282921
 41
0.0
 42
6.283185307179585
  0
ELLIPSE
  5
137
330
79
100
AcDbEntity
  8
レイヤー 1
 62
   250
420
  2299925
370
    20
100
AcDbEllipse
 10
102.730702110175
 20
-108.2931848930787
 30
0.0
 11
0.0000000000000001
 21
1.578375544075602
 31
0.0
210
0.0
220
0.0
230
1.0
 40
0.5011857442961171
 41
0.0
 42
6.283185307179585
  0
ELLIPSE
  5
138
330
79
100
AcDbEntity
  8
レイヤー 1
 62
   250
420
  2299925
370
    20
100
AcDbEllipse
 10
104.7809987198321
 20
-108.8787333511294
 30
0.0
 11
0.0000000000000001
 21
1.719310136689914
 31
0.0
210
0.0
220
0.0
230
1.0
 40
0.5915606784534244
 41
0.0
 42
6.283185307179586
  0
ELLIPSE
  5
139
330
79
100
AcDbEntity
  8
レイヤー 1
 62
   250
420
  2299925
370
    20
100
AcDbEllipse
 10
106.9039436345555
 20
-109.6476567217943
 30
0.0
 11
0.0000000000000001
 21
1.810248826504946
 31
0.0
210
0.0
220
0.0
230
1.0
 40
0.4771209428541698
 41
0.0
 42
6.283185307179585
  0
ELLIPSE
  5
13A
330
79
100
AcDbEntity
  8
レイヤー 1
 62
   250
420
  2299925
370
    20
100
AcDbEllipse
 10
109.0584199316865
 20
-110.4527468776866
 30
0.0
 11
0.0000000000000001
 21
1.840423728353296
 31
0.0
210
0.0
220
0.0
230
1.0
 40
0.5442708333332681
 41
0.0
 42
6.283185307179585
  0
ELLIPSE
  5
13B
330
79
100
AcDbEntity
  8
レイヤー 1
 62
   250
420
  2299925
370
    20
100
AcDbEllipse
 10
92.76900661552973
 20
-107.8011002843656
 30
0.0
 11
0.0000000000000001
 21
1.077633066763826
 31
0.0
210
0.0
220
0.0
230
1.0
 40
0.4951220598532455
 41
0.0
 42
6.283185307179585
  0
ELLIPSE
  5
13C
330
79
100
AcDbEntity
  8
レイヤー 1
 62
   250
420
  2299925
370
    20
100
AcDbEllipse
 10
94.40439914615504
 20
-108.2975138273778
 30
0.0
 11
0.0000000000000001
 21
1.574046609776428
 31
0.0
210
0.0
220
0.0
230
1.0
 40
0.5769230769228849
 41
0.0
 42
6.283185307179586
  0
ELLIPSE
  5
13D
330
79
100
AcDbEntity
  8
レイヤー 1
 62
   250
420
  2299925
370
    20
100
AcDbEllipse
 10
96.22060677281954
 20
-109.1450773864881
 30
0.0
 11
0.0000000000000001
 21
1.646694914842803
 31
0.0
210
0.0
220
0.0
230
1.0
 40
0.5514705882351875
 41
0.0
 42
6.283185307179585
  0
ELLIPSE
  5
13E
330
79
100
AcDbEntity
  8
レイヤー 1
 62
   250
420
  2299925
370
    20
100
AcDbEllipse
 10
98.15789490792857
 20
-109.8517285935424
 30
0.0
 11
0.0000000000000001
 21
1.675295274609287
 31
0.0
210
0.0
220
0.0
230
1.0
 40
0.4986914969127712
 41
0.0
 42
6.283185307179585
  0
ELLIPSE
  5
13F
330
79
100
AcDbEntity
  8
レイヤー 1
 62
   250
420
  2299925
370
    20
100
AcDbEllipse
 10
99.91356228037094
 20
-110.5859519785848
 30
0.0
 11
0.0000000000000001
 21
1.70721862745507
 31
0.0
210
0.0
220
0.0
230
1.0
 40
0.411351503365344
 41
0.0
 42
6.283185307179585
  0
ELLIPSE
  5
140
330
79
100
AcDbEntity
  8
レイヤー 1
 62
   250
420
  2299925
370
    20
100
AcDbEllipse
 10
101.6200716276106
 20
-111.357871290939
 30
0.0
 11
0.0000000000000001
 21
1.710214569144722
 31
0.0
210
0.0
220
0.0
230
1.0
 40
0.4039754615721519
 41
0.0
 42
6.283185307179585
  0
ELLIPSE
  5
141
330
79
100
AcDbEntity
  8
レイヤー 1
 62
   250
420
  2299925
370
    20
100
AcDbEllipse
 10
103.4387270045846
 20
-112.1478739959069
 30
0.0
 11
0.0000000000000001
 21
1.695127118220065
 31
0.0
210
0.0
220
0.0
230
1.0
 40
0.5510158108298683
 41
0.0
 42
6.283185307179585
  0
ELLIPSE
  5
142
330
79
100
AcDbEntity
  8
レイヤー 1
 62
   250
420
  2299925
370
    20
100
AcDbEllipse
 10
105.2065024278716
 20
-113.0196536567057
 30
0.0
 11
0.0000000000000001
 21
1.840423728353778
 31
0.0
210
0.0
220
0.0
230
1.0
 40
0.4530117531831177
 41
0.0
 42
6.283185307179585
  0
ELLIPSE
  5
143
330
79
100
AcDbEntity
  8
レイヤー 1
 62
   250
420
  2299925
370
    20
100
AcDbEllipse
 10
107.2752571937847
 20
-113.6360299211263
 30
0.0
 11
0.0000000000000001
 21
1.950530514598858
 31
0.0
210
0.0
220
0.0
230
1.0
 40
0.5090205776388654
 41
0.0
 42
6.283185307179585
  0
ELLIPSE
  5
144
330
79
100
AcDbEntity
  8
レイヤー 1
 62
   250
420
  2299925
370
    20
100
AcDbEllipse
 10
109.527354650849
 20
-114.6663485715485
 30
0.0
 11
0.0000000000000001
 21
1.985720338486688
 31
0.0
210
0.0
220
0.0
230
1.0
 40
0.512195121951184
 41
0.0
 42
6.283185307179585
  0
SPLINE
  5
145
330
79
100
AcDbEntity
  8
レイヤー 1
 62
   250
420
  2299925
370
    20
100
AcDbSpline
210
0.0
220
0.0
230
1.0
 70
    11
 71
     3
 72
    17
 73
    13
 74
     0
 42
0.0000000001
 43
0.0000000001
 40
0.0
 40
0.0
 40
0.0
 40
0.0
 40
1.0
 40
1.0
 40
1.0
 40
2.0
 40
2.0
 40
2.0
 40
3.0
 40
3.0
 40
3.0
 40
4.0
 40
4.0
 40
4.0
 40
4.0
 10
91.99489702811321
 20
-111.1792299283522
 30
0.0
 10
91.99489702811321
 20
-112.0167618844785
 30
0.0
 10
91.91376434942966
 20
-112.2931706060398
 30
0.0
 10
91.51694904570991
 20
-112.2931706060398
 30
0.0
 10
91.12013374199014
 20
-112.2931706060398
 30
0.0
 10
91.02625296055897
 20
-112.0167618844785
 30
0.0
 10
91.02625296055897
 20
-111.1792299283522
 30
0.0
 10
91.02625296055897
 20
-110.341697972226
 30
0.0
 10
91.12013374199014
 20
-109.8715604371543
 30
0.0
 10
91.51694904570991
 20
-109.8715604371543
 30
0.0
 10
91.91376434942966
 20
-109.8715604371543
 30
0.0
 10
91.99489702811321
 20
-110.341697972226
 30
0.0
 10
91.99489702811321
 20
-111.1792299283522
 30
0.0
  0
ELLIPSE
  5
146
330
79
100
AcDbEntity
  8
レイヤー 1
 62
   250
420
  2299925
370
    20
100
AcDbEllipse
 10
92.95062737819623
 20
-111.5909036570627
 30
0.0
 11
0.0000000000000001
 21
1.477182203021101
 31
0.0
210
0.0
220
0.0
230
1.0
 40
0.4841519651305724
 41
0.0
 42
6.283185307179585
  0
ELLIPSE
  5
147
330
79
100
AcDbEntity
  8
レイヤー 1
 62
   250
420
  2299925
370
    20
100
AcDbEllipse
 10
94.73131651895469
 20
-112.1109909498555
 30
0.0
 11
0.0000000000000001
 21
1.525038971270588
 31
0.0
210
0.0
220
0.0
230
1.0
 40
0.5557651804817838
 41
0.0
 42
6.283185307179586
  0
ELLIPSE
  5
148
330
79
100
AcDbEntity
  8
レイヤー 1
 62
   250
420
  2299925
370
    20
100
AcDbEllipse
 10
96.54752414561919
 20
-112.9775611545374
 30
0.0
 11
0.0000000000000001
 21
1.519655606238163
 31
0.0
210
0.0
220
0.0
230
1.0
 40
0.5099282040368637
 41
0.0
 42
6.283185307179585
  0
ELLIPSE
  5
149
330
79
100
AcDbEntity
  8
レイヤー 1
 62
   250
420
  2299925
370
    20
100
AcDbEllipse
 10
98.15789490792857
 20
-113.673488402305
 30
0.0
 11
0.0000000000000001
 21
1.525614406398203
 31
0.0
210
0.0
220
0.0
230
1.0
 40
0.5476190476191228
 41
0.0
 42
6.283185307179585
  0
ELLIPSE
  5
14A
330
79
100
AcDbEntity
  8
レイヤー 1
 62
   250
420
  2299925
370
    20
100
AcDbEllipse
 10
100.0702411195234
 20
-114.4154338823461
 30
0.0
 11
0.0000000000000001
 21
1.734805649284282
 31
0.0
210
0.0
220
0.0
230
1.0
 40
0.4951250812930354
 41
0.0
 42
6.283185307179585
  0
ELLIPSE
  5
14B
330
79
100
AcDbEntity
  8
レイヤー 1
 62
   250
420
  2299925
370
    20
100
AcDbEllipse
 10
102.0445792289907
 20
-115.3377782290915
 30
0.0
 11
0.0000000000000001
 21
1.701748307965022
 31
0.0
210
0.0
220
0.0
230
1.0
 40
0.5265148543376911
 41
0.0
 42
6.283185307179585
  0
ELLIPSE
  5
14C
330
79
100
AcDbEntity
  8
レイヤー 1
 62
   250
420
  2299925
370
    20
100
AcDbEllipse
 10
103.9818673640996
 20
-116.228477581005
 30
0.0
 11
0.0000000000000001
 21
1.731260820228777
 31
0.0
210
0.0
220
0.0
230
1.0
 40
0.4615892339243308
 41
0.0
 42
6.283185307179585
  0
ELLIPSE
  5
14D
330
79
100
AcDbEntity
  8
レイヤー 1
 62
   250
420
  2299925
370
    20
100
AcDbEllipse
 10
105.8424711771938
 20
-117.1572964506286
 30
0.0
 11
0.0000000000000001
 21
1.819518221536983
 31
0.0
210
0.0
220
0.0
230
1.0
 40
0.5833810537302819
 41
0.0
 42
6.283185307179586
  0
ELLIPSE
  5
14E
330
79
100
AcDbEntity
  8
レイヤー 1
 62
   250
420
  2299925
370
    20
100
AcDbEllipse
 10
108.2802254138726
 20
-118.1111842620514
 30
0.0
 11
0.0000000000000001
 21
1.882706681046043
 31
0.0
210
0.0
220
0.0
230
1.0
 40
0.5337890549841433
 41
0.0
 42
6.283185307179585
  0
ELLIPSE
  5
14F
330
79
100
AcDbEntity
  8
レイヤー 1
 62
   250
420
  2299925
370
    20
100
AcDbEllipse
 10
91.46133712433114
 20
-114.6091626958571
 30
0.0
 11
0.0000000000000001
 21
1.541076835773308
 31
0.0
210
0.0
220
0.0
230
1.0
 40
0.5023173208804192
 41
0.0
 42
6.283185307179585
  0
ELLIPSE
  5
150
330
79
100
AcDbEntity
  8
レイヤー 1
 62
   250
420
  2299925
370
    20
100
AcDbEllipse
 10
93.27754475099572
 20
-115.1440494155803
 30
0.0
 11
0.0000000000000001
 21
1.508019494454849
 31
0.0
210
0.0
220
0.0
230
1.0
 40
0.6910375118358684
 41
0.0
 42
6.283185307179586
  0
ELLIPSE
  5
151
330
79
100
AcDbEntity
  8
レイヤー 1
 62
   250
420
  2299925
370
    20
100
AcDbEllipse
 10
95.31250295948728
 20
-116.0907217350341
 30
0.0
 11
0.0000000000000001
 21
1.675287852688037
 31
0.0
210
0.0
220
0.0
230
1.0
 40
0.4481015911088189
 41
0.0
 42
6.283185307179585
  0
ELLIPSE
  5
152
330
79
100
AcDbEntity
  8
レイヤー 1
 62
   250
420
  2299925
370
    20
100
AcDbEllipse
 10
97.06211630650747
 20
-116.8457977235457
 30
0.0
 11
0.0000000000000001
 21
1.646694914842803
 31
0.0
210
0.0
220
0.0
230
1.0
 40
0.5110294117648188
 41
0.0
 42
6.283185307179585
  0
ELLIPSE
  5
153
330
79
100
AcDbEntity
  8
レイヤー 1
 62
   250
420
  2299925
370
    20
100
AcDbEllipse
 10
98.67854109423895
 20
-117.7262839933991
 30
0.0
 11
0.0000000000000001
 21
1.734852712543579
 31
0.0
210
0.0
220
0.0
230
1.0
 40
0.4466749531188875
 41
0.0
 42
6.283185307179585
  0
ELLIPSE
  5
154
330
79
100
AcDbEntity
  8
レイヤー 1
 62
   250
420
  2299925
370
    20
100
AcDbEllipse
 10
100.3010199073928
 20
-118.5167087400771
 30
0.0
 11
0.0000000000000001
 21
1.670911016531274
 31
0.0
210
0.0
220
0.0
230
1.0
 40
0.5072463768117181
 41
0.0
 42
6.283185307179585
  0
ELLIPSE
  5
155
330
79
100
AcDbEntity
  8
レイヤー 1
 62
   250
420
  2299925
370
    20
100
AcDbEllipse
 10
102.2625241441904
 20
-119.5139222138474
 30
0.0
 11
0.0000000000000001
 21
1.787638220448598
 31
0.0
210
0.0
220
0.0
230
1.0
 40
0.5147640353906319
 41
0.0
 42
6.283185307179585
  0
ELLIPSE
  5
156
330
79
100
AcDbEntity
  8
レイヤー 1
 62
   250
420
  2299925
370
    20
100
AcDbEllipse
 10
104.4731043875412
 20
-120.3571324684306
 30
0.0
 11
0.0000000000000001
 21
1.864639830042088
 31
0.0
210
0.0
220
0.0
230
1.0
 40
0.5547330729994973
 41
0.0
 42
6.283185307179586
  0
ELLIPSE
  5
157
330
79
100
AcDbEntity
  8
レイヤー 1
 62
   250
420
  2299925
370
    20
100
AcDbEllipse
 10
106.5366660922743
 20
-121.3763853916259
 30
0.0
 11
0.0000000000000001
 21
1.862463177778611
 31
0.0
210
0.0
220
0.0
230
1.0
 40
0.3965668209296244
 41
0.0
 42
6.283185307179585
  0
ELLIPSE
  5
158
330
79
100
AcDbEntity
  8
レイヤー 1
 62
   250
420
  2299925
370
    20
100
AcDbEllipse
 10
108.6797910917387
 20
-122.2580964510058
 30
0.0
 11
0.0000000000000001
 21
1.900963982575275
 31
0.0
210
0.0
220
0.0
230
1.0
 40
0.5987261146497525
 41
0.0
 42
6.283185307179586
  0
ELLIPSE
  5
159
330
79
100
AcDbEntity
  8
レイヤー 1
 62
   250
420
  2299925
370
    20
100
AcDbEllipse
 10
91.89762978804436
 20
-118.1798599686967
 30
0.0
 11
0.0000000000000001
 21
1.334062245150545
 31
0.0
210
0.0
220
0.0
230
1.0
 40
0.6531755400866201
 41
0.0
 42
6.283185307179586
  0
ELLIPSE
  5
15A
330
79
100
AcDbEntity
  8
レイヤー 1
 62
   250
420
  2299925
370
    20
100
AcDbEllipse
 10
93.84097194857558
 20
-119.0978951806097
 30
0.0
 11
0.0000000000000001
 21
1.574046609776428
 31
0.0
210
0.0
220
0.0
230
1.0
 40
0.5656405374842923
 41
0.0
 42
6.283185307179586
  0
ELLIPSE
  5
15B
330
79
100
AcDbEntity
  8
レイヤー 1
 62
   250
420
  2299925
370
    20
100
AcDbEllipse
 10
95.74839278988681
 20
-119.7407102014962
 30
0.0
 11
0.0000000000000001
 21
1.560850232799812
 31
0.0
210
0.0
220
0.0
230
1.0
 40
0.5119846471745776
 41
0.0
 42
6.283185307179585
  0
ELLIPSE
  5
15C
330
79
100
AcDbEntity
  8
レイヤー 1
 62
   250
420
  2299925
370
    20
100
AcDbEllipse
 10
97.47379003521828
 20
-120.9867511123407
 30
0.0
 11
0.0000000000000001
 21
1.525614406398684
 31
0.0
210
0.0
220
0.0
230
1.0
 40
0.4484126984127034
 41
0.0
 42
6.283185307179585
  0
ELLIPSE
  5
15D
330
79
100
AcDbEntity
  8
レイヤー 1
 62
   250
420
  2299925
370
    20
100
AcDbEllipse
 10
99.28394363646042
 20
-121.8948549256733
 30
0.0
 11
0.0000000000000001
 21
1.537722457242759
 31
0.0
210
0.0
220
0.0
230
1.0
 40
0.5511811023621074
 41
0.0
 42
6.283185307179585
  0
ELLIPSE
  5
15E
330
79
100
AcDbEntity
  8
レイヤー 1
 62
   250
420
  2299925
370
    20
100
AcDbEllipse
 10
101.1727995681918
 20
-122.5729057729611
 30
0.0
 11
0.0000000000000001
 21
1.586154660620022
 31
0.0
210
0.0
220
0.0
230
1.0
 40
0.5496183206108095
 41
0.0
 42
6.283185307179585
  0
ELLIPSE
  5
15F
330
79
100
AcDbEntity
  8
レイヤー 1
 62
   250
420
  2299925
370
    20
100
AcDbEllipse
 10
103.1464118558339
 20
-123.60814412016
 30
0.0
 11
0.0000000000000001
 21
1.71328919448698
 31
0.0
210
0.0
220
0.0
230
1.0
 40
0.4876325088338646
 41
0.0
 42
6.283185307179585
  0
ELLIPSE
  5
160
330
79
100
AcDbEntity
  8
レイヤー 1
 62
   250
420
  2299925
370
    20
100
AcDbEllipse
 10
105.0110516858762
 20
-124.5644942652806
 30
0.0
 11
0.0000000000000001
 21
1.761535526275667
 31
0.0
210
0.0
220
0.0
230
1.0
 40
0.584254081978402
 41
0.0
 42
6.283185307179586
  0
ELLIPSE
  5
161
330
79
100
AcDbEntity
  8
レイヤー 1
 62
   250
420
  2299925
370
    20
100
AcDbEllipse
 10
107.2752571937847
 20
-125.4334327849576
 30
0.0
 11
0.0000000000000001
 21
1.825288664797802
 31
0.0
210
0.0
220
0.0
230
1.0
 40
0.5439469320066857
 41
0.0
 42
6.283185307179585
  0
LINE
  5
162
330
79
100
AcDbEntity
  8
レイヤー 1
 62
   250
420
  2299925
370
    20
100
AcDbLine
 10
115.2392088609152
 20
-104.5566322172585
 30
0.0
 11
112.5386952449286
 21
-136.1122452721571
 31
0.0
  0
LINE
  5
163
330
79
100
AcDbEntity
  8
レイヤー 1
 62
   250
420
  2299925
370
    20
100
AcDbLine
 10
115.533140743976
 20
-104.7706265824399
 30
0.0
 11
112.9337529550822
 21
-136.3419902457045
 31
0.0
  0
ELLIPSE
  5
164
330
79
100
AcDbEntity
  8
レイヤー 1
 62
   250
420
  2299925
370
    20
100
AcDbEllipse
 10
91.46194137430168
 20
-105.4030971787845
 30
0.0
 11
0.0
 21
0.6324705963445977
 31
0.0
210
0.0
220
0.0
230
1.0
 40
0.6888674608128441
 41
0.0
 42
6.283185307179586
  0
ELLIPSE
  5
165
330
79
100
AcDbEntity
  8
レイヤー 1
 62
   250
420
  2299925
370
    20
100
AcDbEllipse
 10
90.03750270302687
 20
-116.2161790796355
 30
0.0
 11
0.0
 21
0.6296186439100259
 31
0.0
210
0.0
220
0.0
230
1.0
 40
0.3270404412420847
 41
0.0
 42
6.283185307179585
  0
ELLIPSE
  5
166
330
79
100
AcDbEntity
  8
レイヤー 1
 62
   250
420
  2299925
370
    20
100
AcDbEllipse
 10
93.68558529607204
 20
-100.4595689140777
 30
0.0
 11
0.0
 21
0.7264830506659143
 31
0.0
210
0.0
220
0.0
230
1.0
 40
0.5616656089944331
 41
0.0
 42
6.283185307179586
  0
ELLIPSE
  5
167
330
79
100
AcDbEntity
  8
レイヤー 1
 62
   250
420
  2299925
370
    20
100
AcDbEllipse
 10
97.34665550135172
 20
-101.5276542888703
 30
0.0
 11
0.0
 21
0.7561942857707639
 31
0.0
210
0.0
220
0.0
230
1.0
 40
0.736543966708596
 41
0.0
 42
6.283185307179586
  0
ELLIPSE
  5
168
330
79
100
AcDbEntity
  8
レイヤー 1
 62
   250
420
  2299925
370
    20
100
AcDbEllipse
 10
101.8266343137911
 20
-103.1717723032339
 30
0.0
 11
0.0000000000000001
 21
0.8879237285930102
 31
0.0
210
0.0
220
0.0
230
1.0
 40
0.763636363635015
 41
0.0
 42
6.283185307179586
  0
ELLIPSE
  5
169
330
79
100
AcDbEntity
  8
レイヤー 1
 62
   250
420
  2299925
370
    20
100
AcDbEllipse
 10
106.2057127025266
 20
-104.7099776548518
 30
0.0
 11
0.0000000000000001
 21
1.037739250044901
 31
0.0
210
0.0
220
0.0
230
1.0
 40
0.6728385112143015
 41
0.0
 42
6.283185307179586
  0
ELLIPSE
  5
16A
330
79
100
AcDbEntity
  8
レイヤー 1
 62
   250
420
  2299925
370
    20
100
AcDbEllipse
 10
111.8240842697249
 20
-106.6831070481186
 30
0.0
 11
0.0000000000000001
 21
1.15430084717076
 31
0.0
210
0.0
220
0.0
230
1.0
 40
0.6190855503185456
 41
0.0
 42
6.283185307179586
  0
CIRCLE
  5
16B
330
79
100
AcDbEntity
  8
レイヤー 1
 62
   250
420
  2299925
370
    20
100
AcDbCircle
 10
91.46194137430168
 20
-122.3305433394746
 30
0.0
 40
0.4356884137721264
  0
ELLIPSE
  5
16C
330
79
100
AcDbEntity
  8
レイヤー 1
 62
   250
420
  2299925
370
    20
100
AcDbEllipse
 10
95.15509829850975
 20
-124.1752045013748
 30
0.0
 11
0.0
 21
0.742627118459378
 31
0.0
210
0.0
220
0.0
230
1.0
 40
0.5706521739122805
 41
0.0
 42
6.283185307179586
  0
ELLIPSE
  5
16D
330
79
100
AcDbEntity
  8
レイヤー 1
 62
   250
420
  2299925
370
    20
100
AcDbEllipse
 10
98.94491821281654
 20
-126.4757341618163
 30
0.0
 11
0.0
 21
0.7829872879391466
 31
0.0
210
0.0
220
0.0
230
1.0
 40
0.6494845360831345
 41
0.0
 42
6.283185307179586
  0
ELLIPSE
  5
16E
330
79
100
AcDbEntity
  8
レイヤー 1
 62
   250
420
  2299925
370
    20
100
AcDbEllipse
 10
103.2473122795376
 20
-129.0830011103181
 30
0.0
 11
0.0000000000000001
 21
0.8717796607989047
 31
0.0
210
0.0
220
0.0
230
1.0
 40
0.5925925925928278
 41
0.0
 42
6.283185307179586
  0
ELLIPSE
  5
16F
330
79
100
AcDbEntity
  8
レイヤー 1
 62
   250
420
  2299925
370
    20
100
AcDbEllipse
 10
108.9037900323608
 20
-132.0212214485669
 30
0.0
 11
0.0000000000000001
 21
0.9686440675547128
 31
0.0
210
0.0
220
0.0
230
1.0
 40
0.6437499999997133
 41
0.0
 42
6.283185307179586
  0
ELLIPSE
  5
170
330
79
100
AcDbEntity
  8
レイヤー 1
 62
   250
420
  2299925
370
    20
100
AcDbEllipse
 10
113.6118038023696
 20
-114.4972167607765
 30
0.0
 11
0.0000000000000001
 21
0.8717796607987441
 31
0.0
210
0.0
220
0.0
230
1.0
 40
0.4537037037036697
 41
0.0
 42
6.283185307179585
  0
ELLIPSE
  5
171
330
79
100
AcDbEntity
  8
レイヤー 1
 62
   250
420
  2299925
370
    20
100
AcDbEllipse
 10
111.9370927442728
 20
-125.8864756873884
 30
0.0
 11
0.0000000000000001
 21
0.9686440675542316
 31
0.0
210
0.0
220
0.0
230
1.0
 40
0.6210769474642796
 41
0.0
 42
6.283185307179586
  0
SPLINE
  5
172
330
79
100
AcDbEntity
  8
レイヤー 1
 62
   250
420
  2299925
370
    20
100
AcDbSpline
210
0.0
220
0.0
230
1.0
 70
    11
 71
     3
 72
    53
 73
    49
 74
     0
 42
0.0000000001
 43
0.0000000001
 40
0.0
 40
0.0
 40
0.0
 40
0.0
 40
1.0
 40
1.0
 40
1.0
 40
2.0
 40
2.0
 40
2.0
 40
3.0
 40
3.0
 40
3.0
 40
4.0
 40
4.0
 40
4.0
 40
5.0
 40
5.0
 40
5.0
 40
6.0
 40
6.0
 40
6.0
 40
7.0
 40
7.0
 40
7.0
 40
8.0
 40
8.0
 40
8.0
 40
9.0
 40
9.0
 40
9.0
 40
10.0
 40
10.0
 40
10.0
 40
11.0
 40
11.0
 40
11.0
 40
12.0
 40
12.0
 40
12.0
 40
13.0
 40
13.0
 40
13.0
 40
14.0
 40
14.0
 40
14.0
 40
15.0
 40
15.0
 40
15.0
 40
16.0
 40
16.0
 40
16.0
 40
16.0
 10
114.5643038021315
 20
-124.5644942652803
 30
0.0
 10
114.5643038021315
 20
-124.5644942652803
 30
0.0
 10
115.2392088609152
 20
-118.1111842620514
 30
0.0
 10
115.2392088609152
 20
-118.1111842620514
 30
0.0
 10
115.2392088609152
 20
-118.1111842620514
 30
0.0
 10
116.4370156660702
 20
-117.1572964506286
 30
0.0
 10
116.4370156660702
 20
-117.1572964506286
 30
0.0
 10
116.4370156660702
 20
-117.1572964506286
 30
0.0
 10
116.6953207507515
 20
-112.1109909498555
 30
0.0
 10
116.6953207507515
 20
-112.1109909498555
 30
0.0
 10
116.6953207507515
 20
-112.1109909498555
 30
0.0
 10
117.2119309201135
 20
-111.1160466216993
 30
0.0
 10
118.180574987668
 20
-111.5270238681517
 30
0.0
 10
118.180574987668
 20
-111.5270238681517
 30
0.0
 10
145.173456336852
 20
-120.9867511123404
 30
0.0
 10
145.173456336852
 20
-120.9867511123404
 30
0.0
 10
145.173456336852
 20
-120.9867511123404
 30
0.0
 10
147.7565071836637
 20
-121.6526939087835
 30
0.0
 10
147.7565071836637
 20
-123.6081441201598
 30
0.0
 10
147.7565071836637
 20
-123.6081441201598
 30
0.0
 10
147.4336258278127
 20
-129.0830011103179
 30
0.0
 10
147.4336258278127
 20
-129.0830011103179
 30
0.0
 10
147.4336258278127
 20
-129.0830011103179
 30
0.0
 10
148.3699817597821
 20
-132.3441028044184
 30
0.0
 10
148.3699817597821
 20
-132.3441028044184
 30
0.0
 10
148.3699817597821
 20
-132.3441028044184
 30
0.0
 10
147.6919309124934
 20
-139.3829163619799
 30
0.0
 10
147.6919309124934
 20
-139.3829163619799
 30
0.0
 10
147.6919309124934
 20
-139.3829163619799
 30
0.0
 10
145.4963376927033
 20
-141.6430858529406
 30
0.0
 10
145.4963376927033
 20
-141.6430858529406
 30
0.0
 10
145.4963376927033
 20
-141.6430858529406
 30
0.0
 10
145.044303794511
 20
-147.3257977159267
 30
0.0
 10
145.044303794511
 20
-147.3257977159267
 30
0.0
 10
145.044303794511
 20
-147.3257977159267
 30
0.0
 10
144.2693885404674
 20
-149.0693570375248
 30
0.0
 10
142.0092190495074
 20
-148.8110519528441
 30
0.0
 10
142.0092190495074
 20
-148.8110519528441
 30
0.0
 10
115.533140743976
 20
-134.2813909395268
 30
0.0
 10
115.533140743976
 20
-134.2813909395268
 30
0.0
 10
115.533140743976
 20
-134.2813909395268
 30
0.0
 10
113.859363015416
 20
-133.7647807701655
 30
0.0
 10
113.8889520529222
 20
-132.0212214485667
 30
0.0
 10
113.8889520529222
 20
-132.0212214485667
 30
0.0
 10
114.4997275309608
 20
-126.4757341618161
 30
0.0
 10
114.4997275309608
 20
-126.4757341618161
 30
0.0
 10
114.4997275309608
 20
-126.4757341618161
 30
0.0
 10
114.5643038021315
 20
-124.5644942652803
 30
0.0
 10
114.5643038021315
 20
-124.5644942652803
 30
0.0
  0
ELLIPSE
  5
173
330
79
100
AcDbEntity
  8
レイヤー 1
 62
   250
420
  2299925
370
    20
100
AcDbEllipse
 10
117.8576936318161
 20
-108.8544841662215
 30
0.0
 11
0.0000000000000001
 21
1.017076270932777
 31
0.0
210
0.0
220
0.0
230
1.0
 40
0.6349206349202193
 41
0.0
 42
6.283185307179586
  0
ELLIPSE
  5
174
330
79
100
AcDbEntity
  8
レイヤー 1
 62
   250
420
  2299925
370
    20
100
AcDbEllipse
 10
124.4820713194925
 20
-111.0823655215968
 30
0.0
 11
0.0000000000000001
 21
1.21080508444311
 31
0.0
210
0.0
220
0.0
230
1.0
 40
0.5643854232106591
 41
0.0
 42
6.283185307179586
  0
ELLIPSE
  5
175
330
79
100
AcDbEntity
  8
レイヤー 1
 62
   250
420
  2299925
370
    20
100
AcDbEllipse
 10
131.0958292217268
 20
-113.5766239955497
 30
0.0
 11
0.0000000000000001
 21
1.283453389509806
 31
0.0
210
0.0
220
0.0
230
1.0
 40
0.6037735849054741
 41
0.0
 42
6.283185307179586
  0
ELLIPSE
  5
176
330
79
100
AcDbEntity
  8
レイヤー 1
 62
   250
420
  2299925
370
    20
100
AcDbEllipse
 10
137.9294786665414
 20
-116.1919629779467
 30
0.0
 11
0.0000000000000001
 21
1.331885592886907
 31
0.0
210
0.0
220
0.0
230
1.0
 40
0.6631312514780285
 41
0.0
 42
6.283185307179586
  0
ELLIPSE
  5
177
330
79
100
AcDbEntity
  8
レイヤー 1
 62
   250
420
  2299925
370
    20
100
AcDbEllipse
 10
145.9806597264804
 20
-119.0978951806096
 30
0.0
 11
0.0000000000000001
 21
1.356101694576181
 31
0.0
210
0.0
220
0.0
230
1.0
 40
0.7380952380953509
 41
0.0
 42
6.283185307179586
  0
ELLIPSE
  5
178
330
79
100
AcDbEntity
  8
レイヤー 1
 62
   250
420
  2299925
370
    20
100
AcDbEllipse
 10
114.7363278552219
 20
-135.3905469193536
 30
0.0
 11
0.0
 21
0.7216983528035285
 31
0.0
210
0.0
220
0.0
230
1.0
 40
0.6968022079303083
 41
0.0
 42
6.283185307179586
  0
ELLIPSE
  5
179
330
79
100
AcDbEntity
  8
レイヤー 1
 62
   250
420
  2299925
370
    20
100
AcDbEllipse
 10
120.9970469287992
 20
-138.9954587349589
 30
0.0
 11
0.0000000000000001
 21
0.9040677963842275
 31
0.0
210
0.0
220
0.0
230
1.0
 40
0.6153326690725569
 41
0.0
 42
6.283185307179586
  0
ELLIPSE
  5
17A
330
79
100
AcDbEntity
  8
レイヤー 1
 62
   250
420
  2299925
370
    20
100
AcDbEllipse
 10
127.2535410870939
 20
-142.5471536493254
 30
0.0
 11
0.0000000000000001
 21
1.09779660989472
 31
0.0
210
0.0
220
0.0
230
1.0
 40
0.6176470588236885
 41
0.0
 42
6.283185307179586
  0
ELLIPSE
  5
17B
330
79
100
AcDbEntity
  8
レイヤー 1
 62
   250
420
  2299925
370
    20
100
AcDbEllipse
 10
134.0340495599749
 20
-146.3248655127876
 30
0.0
 11
0.0000000000000001
 21
1.130084745480364
 31
0.0
210
0.0
220
0.0
230
1.0
 40
0.7142857142857042
 41
0.0
 42
6.283185307179586
  0
ELLIPSE
  5
17C
330
79
100
AcDbEntity
  8
レイヤー 1
 62
   250
420
  2299925
370
    20
100
AcDbEllipse
 10
141.5248970157296
 20
-150.4875654526868
 30
0.0
 11
0.0000000000000001
 21
1.289055872820654
 31
0.0
210
0.0
220
0.0
230
1.0
 40
0.6762931531362988
 41
0.0
 42
6.283185307179586
  0
ELLIPSE
  5
17D
330
79
100
AcDbEntity
  8
レイヤー 1
 62
   250
420
  2299925
370
    20
100
AcDbEllipse
 10
148.369981759782
 20
-128.9480102643376
 30
0.0
 11
0.0000000000000001
 21
1.184328813263803
 31
0.0
210
0.0
220
0.0
230
1.0
 40
0.4225736095960202
 41
0.0
 42
6.283185307179585
  0
ELLIPSE
  5
17E
330
79
100
AcDbEntity
  8
レイヤー 1
 62
   250
420
  2299925
370
    20
100
AcDbEllipse
 10
146.3358292179167
 20
-143.0637638186849
 30
0.0
 11
0.0000000000000001
 21
0.9847881353485774
 31
0.0
210
0.0
220
0.0
230
1.0
 40
0.5901639344253936
 41
0.0
 42
6.283185307179586
  0
LINE
  5
17F
330
79
100
AcDbEntity
  8
レイヤー 1
 62
   250
420
  2299925
370
    20
100
AcDbLine
 10
151.4610377410209
 20
-117.0395265370565
 30
0.0
 11
145.6577783706294
 21
-155.2985657502682
 31
0.0
  0
SPLINE
  5
180
330
79
100
AcDbEntity
  8
レイヤー 1
 62
   250
420
  2299925
370
    20
100
AcDbSpline
210
0.0
220
0.0
230
1.0
 70
     8
 71
     3
 72
    38
 73
    34
 74
     0
 42
0.0000000001
 43
0.0000000001
 40
0.0
 40
0.0
 40
0.0
 40
0.0
 40
1.0
 40
1.0
 40
1.0
 40
2.0
 40
2.0
 40
2.0
 40
3.0
 40
3.0
 40
3.0
 40
4.0
 40
4.0
 40
4.0
 40
5.0
 40
5.0
 40
5.0
 40
6.0
 40
6.0
 40
6.0
 40
7.0
 40
7.0
 40
7.0
 40
8.0
 40
8.0
 40
8.0
 40
9.0
 40
9.0
 40
9.0
 40
10.0
 40
10.0
 40
10.0
 40
11.0
 40
11.0
 40
11.0
 40
11.0
 10
116.6661627446314
 20
-112.6806282330618
 30
0.0
 10
116.6661627446314
 20
-112.6806282330618
 30
0.0
 10
117.2119309201141
 20
-111.4859672164117
 30
0.0
 10
118.2774393944242
 20
-112.131729928115
 30
0.0
 10
118.2774393944242
 20
-112.131729928115
 30
0.0
 10
145.8192190485556
 20
-122.1087638239267
 30
0.0
 10
145.8192190485556
 20
-122.1087638239267
 30
0.0
 10
145.8192190485556
 20
-122.1087638239267
 30
0.0
 10
147.0138800652043
 20
-122.5930858577038
 30
0.0
 10
146.9815919296201
 20
-123.7877468743538
 30
0.0
 10
146.9815919296201
 20
-123.7877468743538
 30
0.0
 10
146.368117353503
 20
-129.5027468729253
 30
0.0
 10
146.368117353503
 20
-129.5027468729253
 30
0.0
 10
146.368117353503
 20
-129.5027468729253
 30
0.0
 10
147.4982020989827
 20
-132.1503739909067
 30
0.0
 10
147.4982020989827
 20
-132.1503739909067
 30
0.0
 10
147.4982020989827
 20
-132.1503739909067
 30
0.0
 10
146.9170156584491
 20
-138.7371536502773
 30
0.0
 10
146.9170156584491
 20
-138.7371536502773
 30
0.0
 10
146.9170156584491
 20
-138.7371536502773
 30
0.0
 10
144.3339648116375
 20
-141.4816451750152
 30
0.0
 10
144.3339648116375
 20
-141.4816451750152
 30
0.0
 10
144.3339648116375
 20
-141.4816451750152
 30
0.0
 10
144.1079478625413
 20
-146.0665604281063
 30
0.0
 10
144.1079478625413
 20
-146.0665604281063
 30
0.0
 10
144.1079478625413
 20
-146.0665604281063
 30
0.0
 10
143.3007444729129
 20
-148.0684248343857
 30
0.0
 10
141.7832021004109
 20
-147.454950258268
 30
0.0
 10
141.7832021004109
 20
-147.454950258268
 30
0.0
 10
114.7363278552218
 20
-132.7638485670232
 30
0.0
 10
114.7363278552218
 20
-132.7638485670232
 30
0.0
 10
114.7363278552218
 20
-132.7638485670232
 30
0.0
 10
113.8401167431296
 20
-132.4646177526672
 30
0.0
 10
113.9603519934476
 20
-131.3729513776539
 30
0.0
  0
ELLIPSE
  5
181
330
79
100
AcDbEntity
  8
レイヤー 1
 62
   250
420
  2299925
370
    20
100
AcDbEllipse
 10
119.1169309196366
 20
-114.6502045037559
 30
0.0
 11
0.0000000000000001
 21
1.678983050427645
 31
0.0
210
0.0
220
0.0
230
1.0
 40
0.7307692307692455
 41
0.0
 42
6.283185307179586
  0
ELLIPSE
  5
182
330
79
100
AcDbEntity
  8
レイヤー 1
 62
   250
420
  2299925
370
    20
100
AcDbEllipse
 10
121.7645580376188
 20
-115.5502362831915
 30
0.0
 11
0.0000000000000001
 21
1.973612287642131
 31
0.0
210
0.0
220
0.0
230
1.0
 40
0.6380368098159242
 41
0.0
 42
6.283185307179586
  0
ELLIPSE
  5
183
330
79
100
AcDbEntity
  8
レイヤー 1
 62
   250
420
  2299925
370
    20
100
AcDbEllipse
 10
124.4767614267715
 20
-116.6197807744498
 30
0.0
 11
0.0000000000000001
 21
1.969576270694427
 31
0.0
210
0.0
220
0.0
230
1.0
 40
0.6393442622950346
 41
0.0
 42
6.283185307179586
  0
ELLIPSE
  5
184
330
79
100
AcDbEntity
  8
レイヤー 1
 62
   250
420
  2299925
370
    20
100
AcDbEllipse
 10
127.253541087094
 20
-117.5864068335304
 30
0.0
 11
0.0000000000000001
 21
2.036170550338444
 31
0.0
210
0.0
220
0.0
230
1.0
 40
0.5708622398413932
 41
0.0
 42
6.283185307179586
  0
ELLIPSE
  5
185
330
79
100
AcDbEntity
  8
レイヤー 1
 62
   250
420
  2299925
370
    20
100
AcDbEllipse
 10
130.0141766796239
 20
-118.6862214519001
 30
0.0
 11
0.0000000000000001
 21
2.227881355375246
 31
0.0
210
0.0
220
0.0
230
1.0
 40
0.6014492753622547
 41
0.0
 42
6.283185307179586
  0
ELLIPSE
  5
186
330
79
100
AcDbEntity
  8
レイヤー 1
 62
   250
420
  2299925
370
    20
100
AcDbEllipse
 10
132.9846851534578
 20
-119.8798734643134
 30
0.0
 11
0.0000000000000001
 21
2.293466630782336
 31
0.0
210
0.0
220
0.0
230
1.0
 40
0.5701715794105676
 41
0.0
 42
6.283185307179586
  0
ELLIPSE
  5
187
330
79
100
AcDbEntity
  8
レイヤー 1
 62
   250
420
  2299925
370
    20
100
AcDbEllipse
 10
135.9874817628764
 20
-121.1078316207863
 30
0.0
 11
0.0000000000000001
 21
2.292457626545571
 31
0.0
210
0.0
220
0.0
230
1.0
 40
0.6126760563379705
 41
0.0
 42
6.283185307179586
  0
ELLIPSE
  5
188
330
79
100
AcDbEntity
  8
レイヤー 1
 62
   250
420
  2299925
370
    20
100
AcDbEllipse
 10
139.3293037959399
 20
-122.2535559319405
 30
0.0
 11
0.0000000000000001
 21
2.373682467626939
 31
0.0
210
0.0
220
0.0
230
1.0
 40
0.6937300743888737
 41
0.0
 42
6.283185307179586
  0
ELLIPSE
  5
189
330
79
100
AcDbEntity
  8
レイヤー 1
 62
   250
420
  2299925
370
    20
100
AcDbEllipse
 10
142.8971427780988
 20
-123.8523231455239
 30
0.0
 11
0.0000000000000002
 21
2.609099085385299
 31
0.0
210
0.0
220
0.0
230
1.0
 40
0.7363246869685893
 41
0.0
 42
6.283185307179586
  0
ELLIPSE
  5
18A
330
79
100
AcDbEntity
  8
レイヤー 1
 62
   250
420
  2299925
370
    20
100
AcDbEllipse
 10
117.825405496231
 20
-118.3318131494457
 30
0.0
 11
0.0000000000000001
 21
2.002625595262134
 31
0.0
210
0.0
220
0.0
230
1.0
 40
0.4998099522484417
 41
0.0
 42
6.283185307179585
  0
ELLIPSE
  5
18B
330
79
100
AcDbEntity
  8
レイヤー 1
 62
   250
420
  2299925
370
    20
100
AcDbEllipse
 10
120.0532868516064
 20
-119.1756678287562
 30
0.0
 11
0.0000000000000001
 21
2.200717562869686
 31
0.0
210
0.0
220
0.0
230
1.0
 40
0.5575223158739994
 41
0.0
 42
6.283185307179586
  0
ELLIPSE
  5
18C
330
79
100
AcDbEntity
  8
レイヤー 1
 62
   250
420
  2299925
370
    20
100
AcDbEllipse
 10
122.8462105797216
 20
-120.4489994666321
 30
0.0
 11
0.0000000000000001
 21
2.337815204580735
 31
0.0
210
0.0
220
0.0
230
1.0
 40
0.6007891022361171
 41
0.0
 42
6.283185307179586
  0
ELLIPSE
  5
18D
330
79
100
AcDbEntity
  8
レイヤー 1
 62
   250
420
  2299925
370
    20
100
AcDbEllipse
 10
125.6875665112146
 20
-121.3919059744578
 30
0.0
 11
0.0000000000000001
 21
2.216238145702067
 31
0.0
210
0.0
220
0.0
230
1.0
 40
0.5463334735895665
 41
0.0
 42
6.283185307179585
  0
ELLIPSE
  5
18E
330
79
100
AcDbEntity
  8
レイヤー 1
 62
   250
420
  2299925
370
    20
100
AcDbEllipse
 10
128.3351936291967
 20
-122.5381189330994
 30
0.0
 11
0.0000000000000001
 21
2.089119466467979
 31
0.0
210
0.0
220
0.0
230
1.0
 40
0.625942897085345
 41
0.0
 42
6.283185307179586
  0
ELLIPSE
  5
18F
330
79
100
AcDbEntity
  8
レイヤー 1
 62
   250
420
  2299925
370
    20
100
AcDbEllipse
 10
131.1119732895193
 20
-123.6876230342992
 30
0.0
 11
0.0000000000000001
 21
2.295717059841797
 31
0.0
210
0.0
220
0.0
230
1.0
 40
0.555548145685359
 41
0.0
 42
6.283185307179586
  0
ELLIPSE
  5
190
330
79
100
AcDbEntity
  8
レイヤー 1
 62
   250
420
  2299925
370
    20
100
AcDbEllipse
 10
134.1470580345231
 20
-124.9226362931161
 30
0.0
 11
0.0000000000000001
 21
2.384517360016305
 31
0.0
210
0.0
220
0.0
230
1.0
 40
0.6161037842534824
 41
0.0
 42
6.283185307179586
  0
ELLIPSE
  5
191
330
79
100
AcDbEntity
  8
レイヤー 1
 62
   250
420
  2299925
370
    20
100
AcDbEllipse
 10
137.2467190506974
 20
-126.3223655177868
 30
0.0
 11
0.0000000000000002
 21
2.470042372263002
 31
0.0
210
0.0
220
0.0
230
1.0
 40
0.568627450980543
 41
0.0
 42
6.283185307179586
  0
ELLIPSE
  5
192
330
79
100
AcDbEntity
  8
レイヤー 1
 62
   250
420
  2299925
370
    20
100
AcDbEllipse
 10
140.3948122702491
 20
-127.6865260266422
 30
0.0
 11
0.0000000000000001
 21
2.44581305095925
 31
0.0
210
0.0
220
0.0
230
1.0
 40
0.6204653998009582
 41
0.0
 42
6.283185307179586
  0
ELLIPSE
  5
193
330
79
100
AcDbEntity
  8
レイヤー 1
 62
   250
420
  2299925
370
    20
100
AcDbEllipse
 10
143.6559139643494
 20
-129.1475773814857
 30
0.0
 11
0.0000000000000001
 21
2.389322033300737
 31
0.0
210
0.0
220
0.0
230
1.0
 40
0.6486486486485942
 41
0.0
 42
6.283185307179586
  0
ELLIPSE
  5
194
330
79
100
AcDbEntity
  8
レイヤー 1
 62
   250
420
  2299925
370
    20
100
AcDbEllipse
 10
118.0352783775343
 20
-123.149510842371
 30
0.0
 11
0.0000000000000001
 21
1.773125450745183
 31
0.0
210
0.0
220
0.0
230
1.0
 40
0.6100259525617881
 41
0.0
 42
6.283185307179586
  0
ELLIPSE
  5
195
330
79
100
AcDbEntity
  8
レイヤー 1
 62
   250
420
  2299925
370
    20
100
AcDbEllipse
 10
120.6344732921388
 20
-124.1671324674778
 30
0.0
 11
0.0000000000000001
 21
2.15523305030887
 31
0.0
210
0.0
220
0.0
230
1.0
 40
0.5992509363294911
 41
0.0
 42
6.283185307179586
  0
ELLIPSE
  5
196
330
79
100
AcDbEntity
  8
レイヤー 1
 62
   250
420
  2299925
370
    20
100
AcDbEllipse
 10
123.2013800711579
 20
-125.4182977214021
 30
0.0
 11
0.0000000000000001
 21
2.179449151997662
 31
0.0
210
0.0
220
0.0
230
1.0
 40
0.5851851851851063
 41
0.0
 42
6.283185307179586
  0
ELLIPSE
  5
197
330
79
100
AcDbEntity
  8
レイヤー 1
 62
   250
420
  2299925
370
    20
100
AcDbEllipse
 10
125.9943037992733
 20
-126.4030858567491
 30
0.0
 11
0.0000000000000001
 21
2.389322033300737
 31
0.0
210
0.0
220
0.0
230
1.0
 40
0.581081081081024
 41
0.0
 42
6.283185307179586
  0
ELLIPSE
  5
198
330
79
100
AcDbEntity
  8
レイヤー 1
 62
   250
420
  2299925
370
    20
100
AcDbEllipse
 10
128.9648122731066
 20
-127.7753183995018
 30
0.0
 11
0.0000000000000001
 21
2.357020678099652
 31
0.0
210
0.0
220
0.0
230
1.0
 40
0.5753456926265144
 41
0.0
 42
6.283185307179586
  0
ELLIPSE
  5
199
330
79
100
AcDbEntity
  8
レイヤー 1
 62
   250
420
  2299925
370
    20
100
AcDbEllipse
 10
131.9837529503182
 20
-129.1637214492789
 30
0.0
 11
0.0000000000000001
 21
2.437754236678481
 31
0.0
210
0.0
220
0.0
230
1.0
 40
0.5894039735099481
 41
0.0
 42
6.283185307179586
  0
ELLIPSE
  5
19A
330
79
100
AcDbEntity
  8
レイヤー 1
 62
   250
420
  2299925
370
    20
100
AcDbEllipse
 10
134.9542614241518
 20
-130.3825919578117
 30
0.0
 11
0.0000000000000002
 21
2.607273558309908
 31
0.0
210
0.0
220
0.0
230
1.0
 40
0.5386983247220954
 41
0.0
 42
6.283185307179585
  0
ELLIPSE
  5
19B
330
79
100
AcDbEntity
  8
レイヤー 1
 62
   250
420
  2299925
370
    20
100
AcDbEllipse
 10
138.1830749826666
 20
-131.7871324655723
 30
0.0
 11
0.0000000000000002
 21
2.623411016293245
 31
0.0
210
0.0
220
0.0
230
1.0
 40
0.5969230769231063
 41
0.0
 42
6.283185307179586
  0
ELLIPSE
  5
19C
330
79
100
AcDbEntity
  8
レイヤー 1
 62
   250
420
  2299925
370
    20
100
AcDbEllipse
 10
141.2988800666335
 20
-133.4493710844103
 30
0.0
 11
0.0000000000000002
 21
2.719675059251699
 31
0.0
210
0.0
220
0.0
230
1.0
 40
0.4867543107723378
 41
0.0
 42
6.283185307179585
  0
ELLIPSE
  5
19D
330
79
100
AcDbEntity
  8
レイヤー 1
 62
   250
420
  2299925
370
    20
100
AcDbEllipse
 10
144.6164859980077
 20
-134.7172807699247
 30
0.0
 11
0.0000000000000002
 21
2.728347456944782
 31
0.0
210
0.0
220
0.0
230
1.0
 40
0.6301775147928508
 41
0.0
 42
6.283185307179586
  0
ELLIPSE
  5
19E
330
79
100
AcDbEntity
  8
レイヤー 1
 62
   250
420
  2299925
370
    20
100
AcDbEllipse
 10
116.711464818543
 20
-126.6936790770149
 30
0.0
 11
0.0000000000000001
 21
1.9049999995233
 31
0.0
210
0.0
220
0.0
230
1.0
 40
0.5000000000000843
 41
0.0
 42
6.283185307179585
  0
ELLIPSE
  5
19F
330
79
100
AcDbEntity
  8
レイヤー 1
 62
   250
420
  2299925
370
    20
100
AcDbEllipse
 10
118.8586258349556
 20
-127.7828859312795
 30
0.0
 11
0.0000000000000001
 21
2.349453146321905
 31
0.0
210
0.0
220
0.0
230
1.0
 40
0.5084847163353842
 41
0.0
 42
6.283185307179585
  0
ELLIPSE
  5
1A0
330
79
100
AcDbEntity
  8
レイヤー 1
 62
   250
420
  2299925
370
    20
100
AcDbEllipse
 10
121.5304690546264
 20
-129.1475773814869
 30
0.0
 11
0.0000000000000001
 21
2.292457626544287
 31
0.0
210
0.0
220
0.0
230
1.0
 40
0.5739436619722533
 41
0.0
 42
6.283185307179586
  0
ELLIPSE
  5
1A1
330
79
100
AcDbEntity
  8
レイヤー 1
 62
   250
420
  2299925
370
    20
100
AcDbEllipse
 10
124.2830326132602
 20
-130.2938061947588
 30
0.0
 11
0.0000000000000001
 21
2.147161016412179
 31
0.0
210
0.0
220
0.0
230
1.0
 40
0.5864661654135417
 41
0.0
 42
6.283185307179586
  0
ELLIPSE
  5
1A2
330
79
100
AcDbEntity
  8
レイヤー 1
 62
   250
420
  2299925
370
    20
100
AcDbEllipse
 10
127.1001724430647
 20
-131.561581900658
 30
0.0
 11
0.0000000000000001
 21
2.203198869504978
 31
0.0
210
0.0
220
0.0
230
1.0
 40
0.5605581970953133
 41
0.0
 42
6.283185307179586
  0
ELLIPSE
  5
1A3
330
79
100
AcDbEntity
  8
レイヤー 1
 62
   250
420
  2299925
370
    20
100
AcDbEllipse
 10
129.8048816395223
 20
-132.9852129976997
 30
0.0
 11
0.0000000000000001
 21
2.405333921653884
 31
0.0
210
0.0
220
0.0
230
1.0
 40
0.5506060461169589
 41
0.0
 42
6.283185307179585
  0
ELLIPSE
  5
1A4
330
79
100
AcDbEntity
  8
レイヤー 1
 62
   250
420
  2299925
370
    20
100
AcDbEllipse
 10
132.8555326111169
 20
-134.4751197530359
 30
0.0
 11
0.0000000000000002
 21
2.486186440056545
 31
0.0
210
0.0
220
0.0
230
1.0
 40
0.5779220779220113
 41
0.0
 42
6.283185307179586
  0
ELLIPSE
  5
1A5
330
79
100
AcDbEntity
  8
レイヤー 1
 62
   250
420
  2299925
370
    20
100
AcDbEllipse
 10
136.0359139662537
 20
-135.7703810114926
 30
0.0
 11
0.0000000000000001
 21
2.321009927082748
 31
0.0
210
0.0
220
0.0
230
1.0
 40
0.6399172272319703
 41
0.0
 42
6.283185307179586
  0
ELLIPSE
  5
1A6
330
79
100
AcDbEntity
  8
レイヤー 1
 62
   250
420
  2299925
370
    20
100
AcDbEllipse
 10
139.2808715925611
 20
-137.3971960234927
 30
0.0
 11
0.0000000000000002
 21
2.50233050785041
 31
0.0
210
0.0
220
0.0
230
1.0
 40
0.6129032258060846
 41
0.0
 42
6.283185307179586
  0
ELLIPSE
  5
1A7
330
79
100
AcDbEntity
  8
レイヤー 1
 62
   250
420
  2299925
370
    20
100
AcDbEllipse
 10
142.5581173544539
 20
-139.2211378274323
 30
0.0
 11
0.0000000000000001
 21
2.421948025506373
 31
0.0
210
0.0
220
0.0
230
1.0
 40
0.6132477746323142
 41
0.0
 42
6.283185307179586
  0
ELLIPSE
  5
1A8
330
79
100
AcDbEntity
  8
レイヤー 1
 62
   250
420
  2299925
370
    20
100
AcDbEllipse
 10
117.2442190556977
 20
-131.6026988435842
 30
0.0
 11
0.0000000000000001
 21
1.846672240826281
 31
0.0
210
0.0
220
0.0
230
1.0
 40
0.6469263956206031
 41
0.0
 42
6.283185307179586
  0
ELLIPSE
  5
1A9
330
79
100
AcDbEntity
  8
レイヤー 1
 62
   250
420
  2299925
370
    20
100
AcDbEllipse
 10
119.746567956854
 20
-132.6243638212979
 30
0.0
 11
0.0000000000000001
 21
2.04448474525212
 31
0.0
210
0.0
220
0.0
230
1.0
 40
0.497482148791479
 41
0.0
 42
6.283185307179585
  0
ELLIPSE
  5
1AA
330
79
100
AcDbEntity
  8
レイヤー 1
 62
   250
420
  2299925
370
    20
100
AcDbEllipse
 10
122.0470792239888
 20
-133.9585095836733
 30
0.0
 11
0.0000000000000001
 21
1.969576270693946
 31
0.0
210
0.0
220
0.0
230
1.0
 40
0.5860655737705338
 41
0.0
 42
6.283185307179586
  0
ELLIPSE
  5
1AB
330
79
100
AcDbEntity
  8
レイヤー 1
 62
   250
420
  2299925
370
    20
100
AcDbEllipse
 10
124.8319309182077
 20
-135.0862680699437
 30
0.0
 11
0.0000000000000001
 21
2.101055072244507
 31
0.0
210
0.0
220
0.0
230
1.0
 40
0.6300708517729711
 41
0.0
 42
6.283185307179586
  0
ELLIPSE
  5
1AC
330
79
100
AcDbEntity
  8
レイヤー 1
 62
   250
420
  2299925
370
    20
100
AcDbEllipse
 10
127.7862953242487
 20
-136.7030011084122
 30
0.0
 11
0.0000000000000001
 21
2.292457626546373
 31
0.0
210
0.0
220
0.0
230
1.0
 40
0.5985915492955016
 41
0.0
 42
6.283185307179586
  0
ELLIPSE
  5
1AD
330
79
100
AcDbEntity
  8
レイヤー 1
 62
   250
420
  2299925
370
    20
100
AcDbEllipse
 10
130.7568037980824
 20
-138.1094029238903
 30
0.0
 11
0.0000000000000001
 21
2.339021912397718
 31
0.0
210
0.0
220
0.0
230
1.0
 40
0.5866750350202584
 41
0.0
 42
6.283185307179586
  0
ELLIPSE
  5
1AE
330
79
100
AcDbEntity
  8
レイヤー 1
 62
   250
420
  2299925
370
    20
100
AcDbEllipse
 10
133.8241766786715
 20
-139.6492934805561
 30
0.0
 11
0.0000000000000001
 21
2.252097457063876
 31
0.0
210
0.0
220
0.0
230
1.0
 40
0.5663082437275806
 41
0.0
 42
6.283185307179586
  0
ELLIPSE
  5
1AF
330
79
100
AcDbEntity
  8
レイヤー 1
 62
   250
420
  2299925
370
    20
100
AcDbEllipse
 10
136.7704690508163
 20
-141.1426197513694
 30
0.0
 11
0.0000000000000001
 21
2.373177965508156
 31
0.0
210
0.0
220
0.0
230
1.0
 40
0.5952380952382482
 41
0.0
 42
6.283185307179586
  0
ELLIPSE
  5
1B0
330
79
100
AcDbEntity
  8
レイヤー 1
 62
   250
420
  2299925
370
    20
100
AcDbEllipse
 10
139.9266343042644
 20
-142.6763061916646
 30
0.0
 11
0.0000000000000002
 21
2.51847457564267
 31
0.0
210
0.0
220
0.0
230
1.0
 40
0.6346153846151298
 41
0.0
 42
6.283185307179586
  0
LWPOLYLINE
  5
1B1
330
79
100
AcDbEntity
  8
レイヤー 1
 62
   250
420
  2299925
370
    20
100
AcDbPolyline
 90
        4
 70
     0
 43
0.0
 10
166.1928762929992
 20
-82.81697194307589
 10
162.8996427730991
 20
-81.00910721779399
 10
162.415320739322
 20
-81.78088247807485
 10
164.9814592937584
 20
-83.19225863513182
  0
LWPOLYLINE
  5
1B2
330
79
100
AcDbEntity
  8
レイヤー 1
 62
   250
420
  2299925
370
    20
100
AcDbPolyline
 90
        4
 70
     1
 43
0.0
 10
161.6282974344337
 20
-86.92303702574209
 10
161.9673228580781
 20
-86.28507739220323
 10
163.7065930589858
 20
-87.40012815193496
 10
163.5958784599422
 20
-88.17995314027657
  0
LWPOLYLINE
  5
1B3
330
79
100
AcDbEntity
  8
レイヤー 1
 62
   250
420
  2299925
370
    20
100
AcDbPolyline
 90
        4
 70
     0
 43
0.0
 10
161.9606016485455
 20
-99.69812446903198
 10
159.6627571806875
 20
-100.1528316260271
 10
159.7919097230281
 20
-99.20033162626245
 10
162.0860865310716
 20
-98.81426409381667
  0
LWPOLYLINE
  5
1B4
330
79
100
AcDbEntity
  8
レイヤー 1
 62
   250
420
  2299925
370
    20
100
AcDbPolyline
 90
        4
 70
     0
 43
0.0
 10
161.4046015759858
 20
-103.6143446770805
 10
158.8878419266442
 20
-104.2292087436482
 10
158.8151936215772
 20
-105.1332765400327
 10
161.2826532487176
 20
-104.4732951109991
  0
LINE
  5
1B5
330
79
100
AcDbEntity
  8
レイヤー 1
 62
   250
420
  2299925
370
    20
100
AcDbLine
 10
156.2482868425582
 20
-120.4539968751857
 30
0.0
 11
159.0494995391091
 21
-120.2026486072843
 31
0.0
  0
LWPOLYLINE
  5
1B6
330
79
100
AcDbEntity
  8
レイヤー 1
 62
   250
420
  2299925
370
    20
100
AcDbPolyline
 90
        4
 70
     0
 43
0.0
 10
158.2601916354302
 20
-125.762186663684
 10
155.6832444698187
 20
-126.0721324670021
 10
155.5379478596846
 20
-126.847047721046
 10
158.1364750305331
 20
-126.6335920682517
  0
LWPOLYLINE
  5
1B7
330
79
100
AcDbEntity
  8
レイヤー 1
 62
   250
420
  2299925
370
    20
100
AcDbPolyline
 90
        4
 70
     0
 43
0.0
 10
157.5047033640792
 20
-131.0835140901154
 10
155.5379478596846
 20
-131.2301621267301
 10
155.5379478596846
 20
-131.9889333129793
 10
157.3936969331363
 20
-131.8653946141209
  0
LWPOLYLINE
  5
1B8
330
79
100
AcDbEntity
  8
レイヤー 1
 62
   250
420
  2299925
370
    20
100
AcDbPolyline
 90
        4
 70
     0
 43
0.0
 10
155.8817526914061
 20
-142.5148655137371
 10
153.3827148093764
 20
-143.0637638186846
 10
153.3827148093764
 20
-143.7741028015613
 10
155.767095073095
 20
-143.322463397259
  0
LWPOLYLINE
  5
1B9
330
79
100
AcDbEntity
  8
レイヤー 1
 62
   250
420
  2299925
370
    20
100
AcDbPolyline
 90
        4
 70
     0
 43
0.0
 10
155.8817526914061
 20
-146.2143764842261
 10
152.5835834536444
 20
-147.8424078852899
 10
152.9710410806656
 20
-148.8371588876812
 10
156.9368934264807
 20
-146.9017054735292
  0
LWPOLYLINE
  5
1BA
330
79
100
AcDbEntity
  8
レイヤー 1
 62
   250
420
  2299925
370
    20
100
AcDbPolyline
 90
        1
 70
     0
 43
0.0
 10
105.7980749907642
 20
-101.4462308409474
  0
ENDBLK
  5
7C
330
79
100
AcDbEntity
  8
0
100
AcDbBlockEnd
  0
ENDSEC
  0
SECTION
  2
ENTITIES
  0
INSERT
  5
7A
330
70
100
AcDbEntity
  8
レイヤー 1
100
AcDbBlockReference
  2
Block_0
 10
0.0
 20
0.0
 30
0.0
  0
ENDSEC
  0
SECTION
  2
OBJECTS
  0
DICTIONARY
  5
C
330
0
100
AcDbDictionary
281
     1
  3
ACAD_COLOR
350
63
  3
ACAD_DETAILVIEWSTYLE
350
6A
  3
ACAD_GROUP
350
D
  3
ACAD_LAYOUT
350
62
  3
ACAD_MATERIAL
350
10
  3
ACAD_MLEADERSTYLE
350
66
  3
ACAD_MLINESTYLE
350
5F
  3
ACAD_PLOTSETTINGS
350
61
  3
ACAD_PLOTSTYLENAME
350
E
  3
ACAD_SCALELIST
350
42
  3
ACAD_SECTIONVIEWSTYLE
350
68
  3
ACAD_TABLESTYLE
350
64
  3
ACAD_VISUALSTYLE
350
29
  3
ACDB_RECOMPOSE_DATA
350
1C3
  3
AcDbVariableDictionary
350
1BB
  0
DICTIONARY
  5
63
102
{ACAD_REACTORS
330
C
102
}
330
C
100
AcDbDictionary
281
     1
  0
DICTIONARY
  5
6A
102
{ACAD_REACTORS
330
C
102
}
330
C
100
AcDbDictionary
281
     1
  3
Imperial24
350
6B
  0
DICTIONARY
  5
D
102
{ACAD_REACTORS
330
C
102
}
330
C
100
AcDbDictionary
281
     1
  0
DICTIONARY
  5
62
102
{ACAD_REACTORS
330
C
102
}
330
C
100
AcDbDictionary
281
     1
  3
Layout1
350
6F
  3
Layout2
350
77
  3
Model
350
73
  0
DICTIONARY
  5
10
102
{ACAD_REACTORS
330
C
102
}
330
C
100
AcDbDictionary
281
     1
  3
ByBlock
350
19
  3
ByLayer
350
11
  3
Global
350
21
  0
DICTIONARY
  5
66
102
{ACAD_REACTORS
330
C
102
}
330
C
100
AcDbDictionary
281
     1
  3
Standard
350
67
  0
DICTIONARY
  5
5F
102
{ACAD_REACTORS
330
C
102
}
330
C
100
AcDbDictionary
281
     1
  3
Standard
350
60
  0
DICTIONARY
  5
61
102
{ACAD_REACTORS
330
C
102
}
330
C
100
AcDbDictionary
281
     1
  0
ACDBDICTIONARYWDFLT
  5
E
102
{ACAD_REACTORS
330
C
102
}
330
C
100
AcDbDictionary
281
     1
  3
Normal
350
F
100
AcDbDictionaryWithDefault
340
F
  0
DICTIONARY
  5
42
102
{ACAD_REACTORS
330
C
102
}
330
C
100
AcDbDictionary
281
     1
  3
A0
350
43
  3
A1
350
44
  3
A2
350
45
  3
A3
350
46
  3
A4
350
47
  3
A5
350
48
  3
A6
350
49
  3
A7
350
4A
  3
A8
350
4B
  3
A9
350
4C
  3
B0
350
4D
  3
B1
350
4E
  3
B2
350
4F
  3
B3
350
50
  3
B4
350
51
  3
B5
350
52
  3
B6
350
53
  0
DICTIONARY
  5
68
102
{ACAD_REACTORS
330
C
102
}
330
C
100
AcDbDictionary
281
     1
  3
Imperial24
350
69
  0
DICTIONARY
  5
64
102
{ACAD_REACTORS
330
C
102
}
330
C
100
AcDbDictionary
281
     1
  3
Standard
350
65
  0
DICTIONARY
  5
29
102
{ACAD_REACTORS
330
C
102
}
330
C
100
AcDbDictionary
281
     1
  3
2dWireframe
350
2F
  3
Basic
350
2E
  3
Brighten
350
35
  3
ColorChange
350
39
  3
Conceptual
350
32
  3
Dim
350
34
  3
EdgeColorOff
350
41
  3
Facepattern
350
38
  3
Flat
350
2A
  3
FlatWithEdges
350
2B
  3
Gouraud
350
2C
  3
GouraudWithEdges
350
2D
  3
Hidden
350
31
  3
JitterOff
350
3F
  3
Linepattern
350
37
  3
OverhangOff
350
40
  3
Realistic
350
33
  3
Shaded
350
3E
  3
Shaded with edges
350
3D
  3
Shades of Gray
350
3A
  3
Sketchy
350
3B
  3
Thicken
350
36
  3
Wireframe
350
30
  3
X-Ray
350
3C
  0
XRECORD
  5
1C3
102
{ACAD_REACTORS
330
C
102
}
330
C
100
AcDbXrecord
280
     1
 90
        1
330
65
  0
DICTIONARY
  5
1BB
102
{ACAD_REACTORS
330
C
102
}
330
C
100
AcDbDictionary
281
     1
  3
CANNOSCALE
350
1C0
  3
CMLEADERSTYLE
350
1BD
  3
CTABLESTYLE
350
1BC
  3
CVIEWDETAILSTYLE
350
1BE
  3
CVIEWSECTIONSTYLE
350
1BF
  0
ACDBDETAILVIEWSTYLE
  5
6B
102
{ACAD_REACTORS
330
6A
102
}
330
6A
100
AcDbModelDocViewStyle
 70
     0
  3
Imperial24
290
     1
300
Imperial24
 90
        0
100
AcDbDetailViewStyle
 70
     0
 71
     0
 90
        3
 71
     1
340
55
 62
   256
 40
0.24
340
0
 62
   256
 40
0.24
300

 40
0.36
280
     3
 71
     2
340
5D
 90
       25
 62
   256
 71
     3
340
55
 62
   256
 40
0.24
 90
        1
 40
0.75
 90
        1
300
%<\AcVar ViewType \f "%tc1">% %<\AcVar ViewDetailId>%\PSCALE %<\AcVar ViewScale \f "%sn">%
 71
     4
340
5D
 90
       25
 62
   256
340
5D
 90
       25
 62
   256
280
     0
  0
LAYOUT
  5
6F
102
{ACAD_REACTORS
330
62
102
}
330
62
100
AcDbPlotSettings
  1

  2

  4

  6

 40
0.0
 41
0.0
 42
0.0
 43
0.0
 44
0.0
 45
0.0
 46
0.0
 47
0.0
 48
0.0
 49
0.0
140
0.0
141
0.0
142
1.0
143
1.0
 70
   688
 72
     0
 73
     0
 74
     5
  7

 75
    16
147
1.0
 76
     0
 77
     2
 78
   300
148
0.0
149
0.0
100
AcDbLayout
  1
Layout1
 70
     1
 71
     1
 10
0.0
 20
0.0
 11
12.0
 21
9.0
 12
0.0
 22
0.0
 32
0.0
 14
0.0
 24
0.0
 34
0.0
 15
0.0
 25
0.0
 35
0.0
146
0.0
 13
0.0
 23
0.0
 33
0.0
 16
1.0
 26
0.0
 36
0.0
 17
0.0
 27
1.0
 37
0.0
 76
     0
330
6C
  0
LAYOUT
  5
77
102
{ACAD_REACTORS
330
62
102
}
330
62
100
AcDbPlotSettings
  1

  2

  4

  6

 40
0.0
 41
0.0
 42
0.0
 43
0.0
 44
0.0
 45
0.0
 46
0.0
 47
0.0
 48
0.0
 49
0.0
140
0.0
141
0.0
142
1.0
143
1.0
 70
   688
 72
     0
 73
     0
 74
     5
  7

 75
    16
147
1.0
 76
     0
 77
     2
 78
   300
148
0.0
149
0.0
100
AcDbLayout
  1
Layout2
 70
     1
 71
     2
 10
0.0
 20
0.0
 11
12.0
 21
9.0
 12
0.0
 22
0.0
 32
0.0
 14
0.0
 24
0.0
 34
0.0
 15
0.0
 25
0.0
 35
0.0
146
0.0
 13
0.0
 23
0.0
 33
0.0
 16
1.0
 26
0.0
 36
0.0
 17
0.0
 27
1.0
 37
0.0
 76
     0
330
74
  0
LAYOUT
  5
73
102
{ACAD_REACTORS
330
62
102
}
330
62
100
AcDbPlotSettings
  1

  2

  4

  6

 40
0.0
 41
0.0
 42
0.0
 43
0.0
 44
0.0
 45
0.0
 46
0.0
 47
0.0
 48
0.0
 49
0.0
140
0.0
141
0.0
142
1.0
143
1.0
 70
  1712
 72
     0
 73
     0
 74
     0
  7

 75
     0
147
1.0
 76
     0
 77
     2
 78
   300
148
0.0
149
0.0
100
AcDbLayout
  1
Model
 70
     1
 71
     0
 10
0.0
 20
0.0
 11
12.0
 21
9.0
 12
0.0
 22
0.0
 32
0.0
 14
0.0
 24
0.0
 34
0.0
 15
0.0
 25
0.0
 35
0.0
146
0.0
 13
0.0
 23
0.0
 33
0.0
 16
1.0
 26
0.0
 36
0.0
 17
0.0
 27
1.0
 37
0.0
 76
     0
330
70
  0
MATERIAL
  5
19
102
{ACAD_XDICTIONARY
360
1A
102
}
102
{ACAD_REACTORS
330
10
102
}
330
10
100
AcDbMaterial
  1
ByBlock
 72
     0
 43
0.0208333333333333
 43
0.0
 43
0.0
 43
0.0
 43
0.0
 43
0.0208333333333333
 43
0.0
 43
0.0
 43
0.0
 43
0.0
 43
1.0
 43
0.0
 43
0.0
 43
0.0
 43
0.0
 43
1.0
 77
     0
 47
0.0208333333333333
 47
0.0
 47
0.0
 47
0.0
 47
0.0
 47
0.0208333333333333
 47
0.0
 47
0.0
 47
0.0
 47
0.0
 47
1.0
 47
0.0
 47
0.0
 47
0.0
 47
0.0
 47
1.0
171
     0
 49
0.0208333333333333
 49
0.0
 49
0.0
 49
0.0
 49
0.0
 49
0.0208333333333333
 49
0.0
 49
0.0
 49
0.0
 49
0.0
 49
1.0
 49
0.0
 49
0.0
 49
0.0
 49
0.0
 49
1.0
175
     0
142
0.0208333333333333
142
0.0
142
0.0
142
0.0
142
0.0
142
0.0208333333333333
142
0.0
142
0.0
142
0.0
142
0.0
142
1.0
142
0.0
142
0.0
142
0.0
142
0.0
142
1.0
179
     0
144
0.0208333333333333
144
0.0
144
0.0
144
0.0
144
0.0
144
0.0208333333333333
144
0.0
144
0.0
144
0.0
144
0.0
144
1.0
144
0.0
144
0.0
144
0.0
144
0.0
144
1.0
147
0.0208333333333333
147
0.0
147
0.0
147
0.0
147
0.0
147
0.0208333333333333
147
0.0
147
0.0
147
0.0
147
0.0
147
1.0
147
0.0
147
0.0
147
0.0
147
0.0
147
1.0
  0
MATERIAL
  5
11
102
{ACAD_XDICTIONARY
360
12
102
}
102
{ACAD_REACTORS
330
10
102
}
330
10
100
AcDbMaterial
  1
ByLayer
 72
     0
 43
0.0208333333333333
 43
0.0
 43
0.0
 43
0.0
 43
0.0
 43
0.0208333333333333
 43
0.0
 43
0.0
 43
0.0
 43
0.0
 43
1.0
 43
0.0
 43
0.0
 43
0.0
 43
0.0
 43
1.0
 77
     0
 47
0.0208333333333333
 47
0.0
 47
0.0
 47
0.0
 47
0.0
 47
0.0208333333333333
 47
0.0
 47
0.0
 47
0.0
 47
0.0
 47
1.0
 47
0.0
 47
0.0
 47
0.0
 47
0.0
 47
1.0
171
     0
 49
0.0208333333333333
 49
0.0
 49
0.0
 49
0.0
 49
0.0
 49
0.0208333333333333
 49
0.0
 49
0.0
 49
0.0
 49
0.0
 49
1.0
 49
0.0
 49
0.0
 49
0.0
 49
0.0
 49
1.0
175
     0
142
0.0208333333333333
142
0.0
142
0.0
142
0.0
142
0.0
142
0.0208333333333333
142
0.0
142
0.0
142
0.0
142
0.0
142
1.0
142
0.0
142
0.0
142
0.0
142
0.0
142
1.0
179
     0
144
0.0208333333333333
144
0.0
144
0.0
144
0.0
144
0.0
144
0.0208333333333333
144
0.0
144
0.0
144
0.0
144
0.0
144
1.0
144
0.0
144
0.0
144
0.0
144
0.0
144
1.0
147
0.0208333333333333
147
0.0
147
0.0
147
0.0
147
0.0
147
0.0208333333333333
147
0.0
147
0.0
147
0.0
147
0.0
147
1.0
147
0.0
147
0.0
147
0.0
147
0.0
147
1.0
  0
MATERIAL
  5
21
102
{ACAD_XDICTIONARY
360
22
102
}
102
{ACAD_REACTORS
330
10
102
}
330
10
100
AcDbMaterial
  1
Global
 72
     0
 43
0.0208333333333333
 43
0.0
 43
0.0
 43
0.0
 43
0.0
 43
0.0208333333333333
 43
0.0
 43
0.0
 43
0.0
 43
0.0
 43
1.0
 43
0.0
 43
0.0
 43
0.0
 43
0.0
 43
1.0
 77
     0
 47
0.0208333333333333
 47
0.0
 47
0.0
 47
0.0
 47
0.0
 47
0.0208333333333333
 47
0.0
 47
0.0
 47
0.0
 47
0.0
 47
1.0
 47
0.0
 47
0.0
 47
0.0
 47
0.0
 47
1.0
171
     0
 49
0.0208333333333333
 49
0.0
 49
0.0
 49
0.0
 49
0.0
 49
0.0208333333333333
 49
0.0
 49
0.0
 49
0.0
 49
0.0
 49
1.0
 49
0.0
 49
0.0
 49
0.0
 49
0.0
 49
1.0
175
     0
142
0.0208333333333333
142
0.0
142
0.0
142
0.0
142
0.0
142
0.0208333333333333
142
0.0
142
0.0
142
0.0
142
0.0
142
1.0
142
0.0
142
0.0
142
0.0
142
0.0
142
1.0
179
     0
144
0.0208333333333333
144
0.0
144
0.0
144
0.0
144
0.0
144
0.0208333333333333
144
0.0
144
0.0
144
0.0
144
0.0
144
1.0
144
0.0
144
0.0
144
0.0
144
0.0
144
1.0
147
0.0208333333333333
147
0.0
147
0.0
147
0.0
147
0.0
147
0.0208333333333333
147
0.0
147
0.0
147
0.0
147
0.0
147
1.0
147
0.0
147
0.0
147
0.0
147
0.0
147
1.0
  0
MLEADERSTYLE
  5
67
102
{ACAD_REACTORS
330
66
102
}
330
66
100
AcDbMLeaderStyle
179
     2
170
     2
171
     1
172
     0
 90
        2
 40
0.0
 41
0.0
173
     1
 91
-1056964608
340
5B
 92
       -2
290
     1
 42
0.09
291
     1
 43
0.36
  3
Standard
 44
0.18
300

342
55
174
     1
178
     6
175
     1
176
     0
 93
-1056964608
 45
0.18
292
     0
297
     0
 46
0.18
 94
-1056964608
 47
1.0
 49
1.0
140
1.0
293
     1
141
0.0
294
     1
177
     0
142
1.0
295
     1
296
     0
143
0.125
271
     0
272
     9
273
     9
298
     1
  0
MLINESTYLE
  5
60
102
{ACAD_REACTORS
330
5F
102
}
330
5F
100
AcDbMlineStyle
  2
STANDARD
 70
     0
  3

 62
   256
 51
90.0
 52
90.0
 71
     2
 49
0.5
 62
   256
  6
BYLAYER
 49
-0.5
 62
   256
  6
BYLAYER
  0
ACDBPLACEHOLDER
  5
F
102
{ACAD_REACTORS
330
E
102
}
330
E
  0
SCALE
  5
43
102
{ACAD_REACTORS
330
42
102
}
330
42
100
AcDbScale
 70
     0
300
1:1
140
1.0
141
1.0
290
     1
  0
SCALE
  5
44
102
{ACAD_REACTORS
330
42
102
}
330
42
100
AcDbScale
 70
     0
300
1/128" = 1'-0"
140
0.0078125
141
12.0
290
     0
  0
SCALE
  5
45
102
{ACAD_REACTORS
330
42
102
}
330
42
100
AcDbScale
 70
     0
300
1/64" = 1'-0"
140
0.015625
141
12.0
290
     0
  0
SCALE
  5
46
102
{ACAD_REACTORS
330
42
102
}
330
42
100
AcDbScale
 70
     0
300
1/32" = 1'-0"
140
0.03125
141
12.0
290
     0
  0
SCALE
  5
47
102
{ACAD_REACTORS
330
42
102
}
330
42
100
AcDbScale
 70
     0
300
1/16" = 1'-0"
140
0.0625
141
12.0
290
     0
  0
SCALE
  5
48
102
{ACAD_REACTORS
330
42
102
}
330
42
100
AcDbScale
 70
     0
300
3/32" = 1'-0"
140
0.09375
141
12.0
290
     0
  0
SCALE
  5
49
102
{ACAD_REACTORS
330
42
102
}
330
42
100
AcDbScale
 70
     0
300
1/8" = 1'-0"
140
0.125
141
12.0
290
     0
  0
SCALE
  5
4A
102
{ACAD_REACTORS
330
42
102
}
330
42
100
AcDbScale
 70
     0
300
3/16" = 1'-0"
140
0.1875
141
12.0
290
     0
  0
SCALE
  5
4B
102
{ACAD_REACTORS
330
42
102
}
330
42
100
AcDbScale
 70
     0
300
1/4" = 1'-0"
140
0.25
141
12.0
290
     0
  0
SCALE
  5
4C
102
{ACAD_REACTORS
330
42
102
}
330
42
100
AcDbScale
 70
     0
300
3/8" = 1'-0"
140
0.375
141
12.0
290
     0
  0
SCALE
  5
4D
102
{ACAD_REACTORS
330
42
102
}
330
42
100
AcDbScale
 70
     0
300
1/2" = 1'-0"
140
0.5
141
12.0
290
     0
  0
SCALE
  5
4E
102
{ACAD_REACTORS
330
42
102
}
330
42
100
AcDbScale
 70
     0
300
3/4" = 1'-0"
140
0.75
141
12.0
290
     0
  0
SCALE
  5
4F
102
{ACAD_REACTORS
330
42
102
}
330
42
100
AcDbScale
 70
     0
300
1" = 1'-0"
140
1.0
141
12.0
290
     0
  0
SCALE
  5
50
102
{ACAD_REACTORS
330
42
102
}
330
42
100
AcDbScale
 70
     0
300
1-1/2" = 1'-0"
140
1.5
141
12.0
290
     0
  0
SCALE
  5
51
102
{ACAD_REACTORS
330
42
102
}
330
42
100
AcDbScale
 70
     0
300
3" = 1'-0"
140
3.0
141
12.0
290
     0
  0
SCALE
  5
52
102
{ACAD_REACTORS
330
42
102
}
330
42
100
AcDbScale
 70
     0
300
6" = 1'-0"
140
6.0
141
12.0
290
     0
  0
SCALE
  5
53
102
{ACAD_REACTORS
330
42
102
}
330
42
100
AcDbScale
 70
     0
300
1'-0" = 1'-0"
140
12.0
141
12.0
290
     0
  0
ACDBSECTIONVIEWSTYLE
  5
69
102
{ACAD_REACTORS
330
68
102
}
330
68
100
AcDbModelDocViewStyle
 70
     0
  3
Imperial24
290
     1
300
Imperial24
 90
        0
100
AcDbSectionViewStyle
 70
     0
 71
     0
 90
       78
 71
     1
340
55
 62
   256
 40
0.24
340
0
340
0
 62
   256
 40
0.24
300
I, O, Q, S, X, Z
 40
0.48
 90
        3
 40
0.18
 90
        1
 71
     2
340
5D
 90
       25
 62
   256
340
5D
 90
       50
 62
   256
 40
0.24
 40
0.0
 40
0.24
 71
     3
340
55
 62
   256
 40
0.24
 90
        1
 40
0.75
 90
        1
300
%<\AcVar ViewType \f "%tc1">% %<\AcVar ViewSectionStartId>%-%<\AcVar ViewSectionEndId>%\PSCALE %<\AcVar ViewScale \f "%sn">%
 71
     4
 62
   256
 62
   257
300
ANSI31
 40
1.0
 90
        0
290
     0
290
     0
 90
        6
 40
0.0
 40
1.570796326794896
 40
0.2617993877991494
 40
1.308996938995747
 40
-0.2617993877991494
 40
1.832595714594046
  0
TABLESTYLE
  5
65
102
{ACAD_XDICTIONARY
360
1C1
102
}
102
{ACAD_REACTORS
330
64
102
}
330
64
100
AcDbTableStyle
280
     0
  3
Standard
 70
     0
 71
     0
 40
0.06
 41
0.06
280
     0
281
     0
  7
Standard
140
0.18
170
     2
 62
     0
 63
     7
283
     0
 90
      512
 91
        0
  1

274
    -2
284
     1
 64
     0
275
    -2
285
     1
 65
     0
276
    -2
286
     1
 66
     0
277
    -2
287
     1
 67
     0
278
    -2
288
     1
 68
     0
279
    -2
289
     1
 69
     0
  7
Standard
140
0.25
170
     5
 62
     0
 63
     7
283
     0
 90
      512
 91
        0
  1

274
    -2
284
     1
 64
     0
275
    -2
285
     1
 65
     0
276
    -2
286
     1
 66
     0
277
    -2
287
     1
 67
     0
278
    -2
288
     1
 68
     0
279
    -2
289
     1
 69
     0
  7
Standard
140
0.18
170
     5
 62
     0
 63
     7
283
     0
 90
      512
 91
        0
  1

274
    -2
284
     1
 64
     0
275
    -2
285
     1
 65
     0
276
    -2
286
     1
 66
     0
277
    -2
287
     1
 67
     0
278
    -2
288
     1
 68
     0
279
    -2
289
     1
 69
     0
  0
VISUALSTYLE
  5
2F
102
{ACAD_REACTORS
330
29
102
}
330
29
100
AcDbVisualStyle
  2
2dWireframe
 70
     4
177
     3
291
     0
 70
    58
 90
        0
176
     1
 90
        2
176
     1
 90
        0
176
     1
 90
        0
176
     1
 40
0.6
176
     1
 40
30.0
176
     1
 62
     7
420
 16777215
176
     1
 90
        1
176
     1
 90
        4
176
     1
 62
     7
176
     1
 62
   257
176
     1
 90
        1
176
     1
 90
        1
176
     1
 40
1.0
176
     1
 90
        0
176
     1
 62
   257
176
     1
 40
1.0
176
     1
 90
        1
176
     1
 90
        6
176
     1
 90
        2
176
     1
 62
     7
176
     1
 90
        5
176
     1
 90
        0
176
     1
 90
        0
176
     1
290
     0
176
     1
 90
        1
176
     1
 40
0.0
176
     1
 90
        0
176
     1
290
     1
176
     1
290
     1
176
     1
290
     0
176
     1
290
     0
176
     1
290
     0
176
     1
290
     0
176
     1
290
     0
176
     1
290
     0
176
     1
290
     0
176
     1
 90
       50
176
     1
 40
0.0
176
     1
 40
1.0
176
     1
 90
        0
176
     1
 62
    18
420
        0
176
     1
 90
       50
176
     1
 90
        3
176
     1
 62
     5
420
      255
176
     1
290
     0
176
     1
 90
       50
176
     1
 90
       50
176
     1
 90
       50
176
     1
290
     0
176
     1
 90
       50
176
     1
 62
   256
176
     0
 40
1.0
176
     0
 90
        2
176
     1
  1
strokes_ogs.tif
176
     1
290
     0
176
     1
 40
1.0
176
     1
 40
1.0
176
     1
  0
VISUALSTYLE
  5
2E
102
{ACAD_REACTORS
330
29
102
}
330
29
100
AcDbVisualStyle
  2
Basic
 70
     7
177
     3
291
     1
 70
    58
 90
        1
176
     1
 90
        0
176
     1
 90
        1
176
     1
 90
        0
176
     1
 40
0.6
176
     1
 40
30.0
176
     1
 62
     7
420
 16777215
176
     1
 90
        0
176
     1
 90
        4
176
     1
 62
     7
176
     1
 62
   257
176
     1
 90
        1
176
     1
 90
        1
176
     1
 40
1.0
176
     1
 90
        8
176
     1
 62
     7
176
     1
 40
1.0
176
     1
 90
        1
176
     1
 90
        6
176
     1
 90
        2
176
     1
 62
     7
176
     1
 90
        5
176
     1
 90
        0
176
     1
 90
        0
176
     1
290
     0
176
     1
 90
        1
176
     1
 40
0.0
176
     1
 90
        0
176
     1
290
     0
176
     1
290
     1
176
     1
290
     1
176
     1
290
     0
176
     1
290
     0
176
     1
290
     0
176
     1
290
     0
176
     1
290
     0
176
     1
290
     0
176
     1
 90
       50
176
     1
 40
0.0
176
     1
 40
1.0
176
     1
 90
        0
176
     1
 62
    18
420
        0
176
     1
 90
       50
176
     1
 90
        3
176
     1
 62
     5
420
      255
176
     1
290
     0
176
     1
 90
       50
176
     1
 90
       50
176
     1
 90
       50
176
     1
290
     0
176
     1
 90
       50
176
     1
 62
   256
176
     0
 40
1.0
176
     0
 90
        2
176
     1
  1
strokes_ogs.tif
176
     1
290
     0
176
     1
 40
1.0
176
     1
 40
1.0
176
     1
  0
VISUALSTYLE
  5
35
102
{ACAD_REACTORS
330
29
102
}
330
29
100
AcDbVisualStyle
  2
Brighten
 70
    12
177
     3
291
     1
 70
    58
 90
        2
176
     1
 90
        2
176
     1
 90
        0
176
     1
 90
        0
176
     1
 40
0.6
176
     1
 40
30.0
176
     1
 62
     7
420
 16777215
176
     1
 90
        1
176
     1
 90
        4
176
     1
 62
     7
176
     1
 62
   257
176
     1
 90
        1
176
     1
 90
        1
176
     1
 40
1.0
176
     1
 90
        8
176
     1
 62
     7
176
     1
 40
1.0
176
     1
 90
        1
176
     1
 90
        6
176
     1
 90
        2
176
     1
 62
     7
176
     1
 90
        5
176
     1
 90
        0
176
     1
 90
        0
176
     1
290
     0
176
     1
 90
        1
176
     1
 40
50.0
176
     1
 90
        0
176
     1
290
     0
176
     1
290
     1
176
     1
290
     1
176
     1
290
     0
176
     1
290
     0
176
     1
290
     0
176
     1
290
     0
176
     1
290
     0
176
     1
290
     0
176
     1
 90
       50
176
     1
 40
0.0
176
     1
 40
1.0
176
     1
 90
        0
176
     1
 62
    18
420
        0
176
     1
 90
       50
176
     1
 90
        3
176
     1
 62
     5
420
      255
176
     1
290
     0
176
     1
 90
       50
176
     1
 90
       50
176
     1
 90
       50
176
     1
290
     0
176
     1
 90
       50
176
     1
 62
   256
176
     0
 40
1.0
176
     0
 90
        2
176
     1
  1
strokes_ogs.tif
176
     1
290
     0
176
     1
 40
1.0
176
     1
 40
1.0
176
     1
  0
VISUALSTYLE
  5
39
102
{ACAD_REACTORS
330
29
102
}
330
29
100
AcDbVisualStyle
  2
ColorChange
 70
    16
177
     3
291
     1
 70
    58
 90
        2
176
     1
 90
        2
176
     1
 90
        3
176
     1
 90
        0
176
     1
 40
0.6
176
     1
 40
30.0
176
     1
 62
     8
420
  8421504
176
     1
 90
        1
176
     1
 90
        4
176
     1
 62
     7
176
     1
 62
   257
176
     1
 90
        1
176
     1
 90
        1
176
     1
 40
1.0
176
     1
 90
        8
176
     1
 62
     8
420
  8421504
176
     1
 40
1.0
176
     1
 90
        1
176
     1
 90
        6
176
     1
 90
        2
176
     1
 62
     7
176
     1
 90
        5
176
     1
 90
        0
176
     1
 90
        0
176
     1
290
     0
176
     1
 90
        1
176
     1
 40
0.0
176
     1
 90
        0
176
     1
290
     0
176
     1
290
     1
176
     1
290
     1
176
     1
290
     0
176
     1
290
     0
176
     1
290
     0
176
     1
290
     0
176
     1
290
     0
176
     1
290
     0
176
     1
 90
       50
176
     1
 40
0.0
176
     1
 40
1.0
176
     1
 90
        0
176
     1
 62
    18
420
        0
176
     1
 90
       50
176
     1
 90
        3
176
     1
 62
     5
420
      255
176
     1
290
     0
176
     1
 90
       50
176
     1
 90
       50
176
     1
 90
       50
176
     1
290
     0
176
     1
 90
       50
176
     1
 62
   256
176
     0
 40
1.0
176
     0
 90
        2
176
     1
  1
strokes_ogs.tif
176
     1
290
     0
176
     1
 40
1.0
176
     1
 40
1.0
176
     1
  0
VISUALSTYLE
  5
32
102
{ACAD_REACTORS
330
29
102
}
330
29
100
AcDbVisualStyle
  2
Conceptual
 70
     9
177
     3
291
     0
 70
    58
 90
        3
176
     1
 90
        2
176
     1
 90
        0
176
     1
 90
        0
176
     1
 40
0.6
176
     1
 40
30.0
176
     1
 62
     7
420
 16777215
176
     1
 90
        2
176
     1
 90
        2
176
     1
 62
     7
176
     1
 62
   257
176
     1
 90
        1
176
     1
 90
        1
176
     1
 40
179.0
176
     1
 90
        8
176
     1
 62
     7
176
     1
 40
1.0
176
     1
 90
        1
176
     1
 90
        6
176
     1
 90
        2
176
     1
 62
     7
176
     1
 90
        3
176
     1
 90
        0
176
     1
 90
        0
176
     1
290
     0
176
     1
 90
        1
176
     1
 40
0.0
176
     1
 90
        0
176
     1
290
     0
176
     1
290
     1
176
     1
290
     1
176
     1
290
     0
176
     1
290
     0
176
     1
290
     0
176
     1
290
     0
176
     1
290
     0
176
     1
290
     0
176
     1
 90
       50
176
     1
 40
0.0
176
     1
 40
1.0
176
     1
 90
        0
176
     1
 62
    18
420
        0
176
     1
 90
       50
176
     1
 90
        3
176
     1
 62
     5
420
      255
176
     1
290
     0
176
     1
 90
       50
176
     1
 90
       50
176
     1
 90
       50
176
     1
290
     0
176
     1
 90
       50
176
     1
 62
   256
176
     0
 40
1.0
176
     0
 90
        2
176
     1
  1
strokes_ogs.tif
176
     1
290
     0
176
     1
 40
1.0
176
     1
 40
1.0
176
     1
  0
VISUALSTYLE
  5
34
102
{ACAD_REACTORS
330
29
102
}
330
29
100
AcDbVisualStyle
  2
Dim
 70
    11
177
     3
291
     1
 70
    58
 90
        2
176
     1
 90
        2
176
     1
 90
        0
176
     1
 90
        0
176
     1
 40
0.6
176
     1
 40
30.0
176
     1
 62
     7
420
 16777215
176
     1
 90
        1
176
     1
 90
        4
176
     1
 62
     7
176
     1
 62
   257
176
     1
 90
        1
176
     1
 90
        1
176
     1
 40
1.0
176
     1
 90
        8
176
     1
 62
     7
176
     1
 40
1.0
176
     1
 90
        1
176
     1
 90
        6
176
     1
 90
        2
176
     1
 62
     7
176
     1
 90
        5
176
     1
 90
        0
176
     1
 90
        0
176
     1
290
     0
176
     1
 90
        1
176
     1
 40
-50.0
176
     1
 90
        0
176
     1
290
     0
176
     1
290
     1
176
     1
290
     1
176
     1
290
     0
176
     1
290
     0
176
     1
290
     0
176
     1
290
     0
176
     1
290
     0
176
     1
290
     0
176
     1
 90
       50
176
     1
 40
0.0
176
     1
 40
1.0
176
     1
 90
        0
176
     1
 62
    18
420
        0
176
     1
 90
       50
176
     1
 90
        3
176
     1
 62
     5
420
      255
176
     1
290
     0
176
     1
 90
       50
176
     1
 90
       50
176
     1
 90
       50
176
     1
290
     0
176
     1
 90
       50
176
     1
 62
   256
176
     0
 40
1.0
176
     0
 90
        2
176
     1
  1
strokes_ogs.tif
176
     1
290
     0
176
     1
 40
1.0
176
     1
 40
1.0
176
     1
  0
VISUALSTYLE
  5
41
102
{ACAD_REACTORS
330
29
102
}
330
29
100
AcDbVisualStyle
  2
EdgeColorOff
 70
    22
177
     3
291
     1
 70
    58
 90
        2
176
     0
 90
        2
176
     0
 90
        0
176
     0
 90
        0
176
     0
 40
0.6
176
     0
 40
30.0
176
     0
 62
     7
420
 16777215
176
     0
 90
        1
176
     0
 90
        4
176
     0
 62
     7
176
     0
 62
   257
176
     0
 90
        1
176
     0
 90
        1
176
     0
 40
1.0
176
     0
 90
        8
176
     2
 62
     7
176
     0
 40
1.0
176
     0
 90
        1
176
     0
 90
        6
176
     0
 90
        2
176
     0
 62
     7
176
     0
 90
        5
176
     0
 90
        0
176
     0
 90
        0
176
     0
290
     0
176
     0
 90
        1
176
     0
 40
0.0
176
     0
 90
        0
176
     0
290
     0
176
     0
290
     1
176
     0
290
     1
176
     0
290
     0
176
     0
290
     0
176
     0
290
     0
176
     0
290
     0
176
     0
290
     0
176
     0
290
     0
176
     0
 90
       50
176
     0
 40
0.0
176
     0
 40
1.0
176
     0
 90
        0
176
     0
 62
    18
420
        0
176
     0
 90
       50
176
     0
 90
        3
176
     0
 62
     5
420
      255
176
     0
290
     0
176
     0
 90
       50
176
     0
 90
       50
176
     0
 90
       50
176
     0
290
     0
176
     0
 90
       50
176
     0
 62
   256
176
     0
 40
1.0
176
     0
 90
        2
176
     0
  1
strokes_ogs.tif
176
     0
290
     0
176
     0
 40
1.0
176
     0
 40
1.0
176
     0
  0
VISUALSTYLE
  5
38
102
{ACAD_REACTORS
330
29
102
}
330
29
100
AcDbVisualStyle
  2
Facepattern
 70
    15
177
     3
291
     1
 70
    58
 90
        2
176
     1
 90
        2
176
     1
 90
        0
176
     1
 90
        0
176
     1
 40
0.6
176
     1
 40
30.0
176
     1
 62
     7
420
 16777215
176
     1
 90
        1
176
     1
 90
        4
176
     1
 62
     7
176
     1
 62
   257
176
     1
 90
        1
176
     1
 90
        1
176
     1
 40
1.0
176
     1
 90
        8
176
     1
 62
     7
176
     1
 40
1.0
176
     1
 90
        1
176
     1
 90
        6
176
     1
 90
        2
176
     1
 62
     7
176
     1
 90
        5
176
     1
 90
        0
176
     1
 90
        0
176
     1
290
     0
176
     1
 90
        1
176
     1
 40
0.0
176
     1
 90
        0
176
     1
290
     0
176
     1
290
     1
176
     1
290
     1
176
     1
290
     0
176
     1
290
     0
176
     1
290
     0
176
     1
290
     0
176
     1
290
     0
176
     1
290
     0
176
     1
 90
       50
176
     1
 40
0.0
176
     1
 40
1.0
176
     1
 90
        0
176
     1
 62
    18
420
        0
176
     1
 90
       50
176
     1
 90
        3
176
     1
 62
     5
420
      255
176
     1
290
     0
176
     1
 90
       50
176
     1
 90
       50
176
     1
 90
       50
176
     1
290
     0
176
     1
 90
       50
176
     1
 62
   256
176
     0
 40
1.0
176
     0
 90
        2
176
     1
  1
strokes_ogs.tif
176
     1
290
     0
176
     1
 40
1.0
176
     1
 40
1.0
176
     1
  0
VISUALSTYLE
  5
2A
102
{ACAD_REACTORS
330
29
102
}
330
29
100
AcDbVisualStyle
  2
Flat
 70
     0
177
     3
291
     1
 70
    58
 90
        2
176
     1
 90
        1
176
     1
 90
        1
176
     1
 90
        2
176
     1
 40
0.6
176
     1
 40
30.0
176
     1
 62
     7
420
 16777215
176
     1
 90
        0
176
     1
 90
        0
176
     1
 62
     7
176
     1
 62
   257
176
     1
 90
        1
176
     1
 90
        1
176
     1
 40
1.0
176
     1
 90
        8
176
     1
 62
     7
176
     1
 40
1.0
176
     1
 90
        1
176
     1
 90
        6
176
     1
 90
        2
176
     1
 62
     7
176
     1
 90
        5
176
     1
 90
        0
176
     1
 90
        0
176
     1
290
     0
176
     1
 90
       13
176
     1
 40
0.0
176
     1
 90
        0
176
     1
290
     0
176
     1
290
     1
176
     1
290
     1
176
     1
290
     0
176
     1
290
     0
176
     1
290
     0
176
     1
290
     0
176
     1
290
     0
176
     1
290
     0
176
     1
 90
       50
176
     1
 40
0.0
176
     1
 40
1.0
176
     1
 90
        0
176
     1
 62
    18
420
        0
176
     1
 90
       50
176
     1
 90
        3
176
     1
 62
     5
420
      255
176
     1
290
     0
176
     1
 90
       50
176
     1
 90
       50
176
     1
 90
       50
176
     1
290
     0
176
     1
 90
       50
176
     1
 62
   256
176
     0
 40
1.0
176
     0
 90
        2
176
     1
  1
strokes_ogs.tif
176
     1
290
     0
176
     1
 40
1.0
176
     1
 40
1.0
176
     1
  0
VISUALSTYLE
  5
2B
102
{ACAD_REACTORS
330
29
102
}
330
29
100
AcDbVisualStyle
  2
FlatWithEdges
 70
     1
177
     3
291
     1
 70
    58
 90
        2
176
     1
 90
        1
176
     1
 90
        1
176
     1
 90
        2
176
     1
 40
0.6
176
     1
 40
30.0
176
     1
 62
     7
420
 16777215
176
     1
 90
        1
176
     1
 90
        0
176
     1
 62
     7
176
     1
 62
   257
176
     1
 90
        1
176
     1
 90
        1
176
     1
 40
1.0
176
     1
 90
        0
176
     1
 62
   257
176
     1
 40
1.0
176
     1
 90
        1
176
     1
 90
        6
176
     1
 90
        2
176
     1
 62
     7
176
     1
 90
        5
176
     1
 90
        0
176
     1
 90
        0
176
     1
290
     0
176
     1
 90
       13
176
     1
 40
0.0
176
     1
 90
        0
176
     1
290
     0
176
     1
290
     1
176
     1
290
     1
176
     1
290
     0
176
     1
290
     0
176
     1
290
     0
176
     1
290
     0
176
     1
290
     0
176
     1
290
     0
176
     1
 90
       50
176
     1
 40
0.0
176
     1
 40
1.0
176
     1
 90
        0
176
     1
 62
    18
420
        0
176
     1
 90
       50
176
     1
 90
        3
176
     1
 62
     5
420
      255
176
     1
290
     0
176
     1
 90
       50
176
     1
 90
       50
176
     1
 90
       50
176
     1
290
     0
176
     1
 90
       50
176
     1
 62
   256
176
     0
 40
1.0
176
     0
 90
        2
176
     1
  1
strokes_ogs.tif
176
     1
290
     0
176
     1
 40
1.0
176
     1
 40
1.0
176
     1
  0
VISUALSTYLE
  5
2C
102
{ACAD_REACTORS
330
29
102
}
330
29
100
AcDbVisualStyle
  2
Gouraud
 70
     2
177
     3
291
     1
 70
    58
 90
        2
176
     1
 90
        2
176
     1
 90
        1
176
     1
 90
        2
176
     1
 40
0.6
176
     1
 40
30.0
176
     1
 62
     7
420
 16777215
176
     1
 90
        0
176
     1
 90
        0
176
     1
 62
     7
176
     1
 62
   257
176
     1
 90
        1
176
     1
 90
        1
176
     1
 40
1.0
176
     1
 90
        0
176
     1
 62
     7
176
     1
 40
1.0
176
     1
 90
        1
176
     1
 90
        6
176
     1
 90
        2
176
     1
 62
     7
176
     1
 90
        5
176
     1
 90
        0
176
     1
 90
        0
176
     1
290
     0
176
     1
 90
       13
176
     1
 40
0.0
176
     1
 90
        0
176
     1
290
     0
176
     1
290
     1
176
     1
290
     1
176
     1
290
     0
176
     1
290
     0
176
     1
290
     0
176
     1
290
     0
176
     1
290
     0
176
     1
290
     0
176
     1
 90
       50
176
     1
 40
0.0
176
     1
 40
1.0
176
     1
 90
        0
176
     1
 62
    18
420
        0
176
     1
 90
       50
176
     1
 90
        3
176
     1
 62
     5
420
      255
176
     1
290
     0
176
     1
 90
       50
176
     1
 90
       50
176
     1
 90
       50
176
     1
290
     0
176
     1
 90
       50
176
     1
 62
   256
176
     0
 40
1.0
176
     0
 90
        2
176
     1
  1
strokes_ogs.tif
176
     1
290
     0
176
     1
 40
1.0
176
     1
 40
1.0
176
     1
  0
VISUALSTYLE
  5
2D
102
{ACAD_REACTORS
330
29
102
}
330
29
100
AcDbVisualStyle
  2
GouraudWithEdges
 70
     3
177
     3
291
     1
 70
    58
 90
        2
176
     1
 90
        2
176
     1
 90
        1
176
     1
 90
        2
176
     1
 40
0.6
176
     1
 40
30.0
176
     1
 62
     7
420
 16777215
176
     1
 90
        1
176
     1
 90
        0
176
     1
 62
     7
176
     1
 62
   257
176
     1
 90
        1
176
     1
 90
        1
176
     1
 40
1.0
176
     1
 90
        0
176
     1
 62
   257
176
     1
 40
1.0
176
     1
 90
        1
176
     1
 90
        6
176
     1
 90
        2
176
     1
 62
     7
176
     1
 90
        5
176
     1
 90
        0
176
     1
 90
        0
176
     1
290
     0
176
     1
 90
       13
176
     1
 40
0.0
176
     1
 90
        0
176
     1
290
     0
176
     1
290
     1
176
     1
290
     1
176
     1
290
     0
176
     1
290
     0
176
     1
290
     0
176
     1
290
     0
176
     1
290
     0
176
     1
290
     0
176
     1
 90
       50
176
     1
 40
0.0
176
     1
 40
1.0
176
     1
 90
        0
176
     1
 62
    18
420
        0
176
     1
 90
       50
176
     1
 90
        3
176
     1
 62
     5
420
      255
176
     1
290
     0
176
     1
 90
       50
176
     1
 90
       50
176
     1
 90
       50
176
     1
290
     0
176
     1
 90
       50
176
     1
 62
   256
176
     0
 40
1.0
176
     0
 90
        2
176
     1
  1
strokes_ogs.tif
176
     1
290
     0
176
     1
 40
1.0
176
     1
 40
1.0
176
     1
  0
VISUALSTYLE
  5
31
102
{ACAD_REACTORS
330
29
102
}
330
29
100
AcDbVisualStyle
  2
Hidden
 70
     6
177
     3
291
     0
 70
    58
 90
        1
176
     1
 90
        2
176
     1
 90
        2
176
     1
 90
        0
176
     1
 40
0.6
176
     1
 40
30.0
176
     1
 62
     7
420
 16777215
176
     1
 90
        2
176
     1
 90
        2
176
     1
 62
     7
176
     1
 62
   257
176
     1
 90
        2
176
     1
 90
        1
176
     1
 40
40.0
176
     1
 90
        0
176
     1
 62
   257
176
     1
 40
1.0
176
     1
 90
        1
176
     1
 90
        6
176
     1
 90
        2
176
     1
 62
     7
176
     1
 90
        3
176
     1
 90
        0
176
     1
 90
        0
176
     1
290
     0
176
     1
 90
        1
176
     1
 40
0.0
176
     1
 90
        0
176
     1
290
     0
176
     1
290
     1
176
     1
290
     1
176
     1
290
     0
176
     1
290
     0
176
     1
290
     0
176
     1
290
     0
176
     1
290
     0
176
     1
290
     0
176
     1
 90
       50
176
     1
 40
0.0
176
     1
 40
1.0
176
     1
 90
        0
176
     1
 62
    18
420
        0
176
     1
 90
       50
176
     1
 90
        3
176
     1
 62
     5
420
      255
176
     1
290
     0
176
     1
 90
       50
176
     1
 90
       50
176
     1
 90
       50
176
     1
290
     0
176
     1
 90
       50
176
     1
 62
   256
176
     0
 40
1.0
176
     0
 90
        2
176
     1
  1
strokes_ogs.tif
176
     1
290
     0
176
     1
 40
1.0
176
     1
 40
1.0
176
     1
  0
VISUALSTYLE
  5
3F
102
{ACAD_REACTORS
330
29
102
}
330
29
100
AcDbVisualStyle
  2
JitterOff
 70
    20
177
     3
291
     1
 70
    58
 90
        2
176
     0
 90
        2
176
     0
 90
        0
176
     0
 90
        0
176
     0
 40
0.6
176
     0
 40
30.0
176
     0
 62
     7
420
 16777215
176
     0
 90
        1
176
     0
 90
        4
176
     0
 62
     7
176
     0
 62
   257
176
     0
 90
        1
176
     0
 90
        1
176
     0
 40
1.0
176
     0
 90
       10
176
     2
 62
     7
176
     0
 40
1.0
176
     0
 90
        1
176
     0
 90
        6
176
     0
 90
        2
176
     0
 62
     7
176
     0
 90
        5
176
     0
 90
        0
176
     0
 90
        0
176
     0
290
     0
176
     0
 90
        1
176
     0
 40
0.0
176
     0
 90
        0
176
     0
290
     0
176
     0
290
     1
176
     0
290
     1
176
     0
290
     0
176
     0
290
     0
176
     0
290
     0
176
     0
290
     0
176
     0
290
     0
176
     0
290
     0
176
     0
 90
       50
176
     0
 40
0.0
176
     0
 40
1.0
176
     0
 90
        0
176
     0
 62
    18
420
        0
176
     0
 90
       50
176
     0
 90
        3
176
     0
 62
     5
420
      255
176
     0
290
     0
176
     0
 90
       50
176
     0
 90
       50
176
     0
 90
       50
176
     0
290
     0
176
     0
 90
       50
176
     0
 62
   256
176
     0
 40
1.0
176
     0
 90
        2
176
     0
  1
strokes_ogs.tif
176
     0
290
     0
176
     0
 40
1.0
176
     0
 40
1.0
176
     0
  0
VISUALSTYLE
  5
37
102
{ACAD_REACTORS
330
29
102
}
330
29
100
AcDbVisualStyle
  2
Linepattern
 70
    14
177
     3
291
     1
 70
    58
 90
        2
176
     1
 90
        2
176
     1
 90
        0
176
     1
 90
        0
176
     1
 40
0.6
176
     1
 40
30.0
176
     1
 62
     7
420
 16777215
176
     1
 90
        1
176
     1
 90
        4
176
     1
 62
     7
176
     1
 62
   257
176
     1
 90
        7
176
     1
 90
        7
176
     1
 40
1.0
176
     1
 90
        8
176
     1
 62
     7
176
     1
 40
1.0
176
     1
 90
        1
176
     1
 90
        6
176
     1
 90
        2
176
     1
 62
     7
176
     1
 90
        5
176
     1
 90
        0
176
     1
 90
        0
176
     1
290
     0
176
     1
 90
        1
176
     1
 40
0.0
176
     1
 90
        0
176
     1
290
     0
176
     1
290
     1
176
     1
290
     1
176
     1
290
     0
176
     1
290
     0
176
     1
290
     0
176
     1
290
     0
176
     1
290
     0
176
     1
290
     0
176
     1
 90
       50
176
     1
 40
0.0
176
     1
 40
1.0
176
     1
 90
        0
176
     1
 62
    18
420
        0
176
     1
 90
       50
176
     1
 90
        3
176
     1
 62
     5
420
      255
176
     1
290
     0
176
     1
 90
       50
176
     1
 90
       50
176
     1
 90
       50
176
     1
290
     0
176
     1
 90
       50
176
     1
 62
   256
176
     0
 40
1.0
176
     0
 90
        2
176
     1
  1
strokes_ogs.tif
176
     1
290
     0
176
     1
 40
1.0
176
     1
 40
1.0
176
     1
  0
VISUALSTYLE
  5
40
102
{ACAD_REACTORS
330
29
102
}
330
29
100
AcDbVisualStyle
  2
OverhangOff
 70
    21
177
     3
291
     1
 70
    58
 90
        2
176
     0
 90
        2
176
     0
 90
        0
176
     0
 90
        0
176
     0
 40
0.6
176
     0
 40
30.0
176
     0
 62
     7
420
 16777215
176
     0
 90
        1
176
     0
 90
        4
176
     0
 62
     7
176
     0
 62
   257
176
     0
 90
        1
176
     0
 90
        1
176
     0
 40
1.0
176
     0
 90
        9
176
     2
 62
     7
176
     0
 40
1.0
176
     0
 90
        1
176
     0
 90
        6
176
     0
 90
        2
176
     0
 62
     7
176
     0
 90
        5
176
     0
 90
        0
176
     0
 90
        0
176
     0
290
     0
176
     0
 90
        1
176
     0
 40
0.0
176
     0
 90
        0
176
     0
290
     0
176
     0
290
     1
176
     0
290
     1
176
     0
290
     0
176
     0
290
     0
176
     0
290
     0
176
     0
290
     0
176
     0
290
     0
176
     0
290
     0
176
     0
 90
       50
176
     0
 40
0.0
176
     0
 40
1.0
176
     0
 90
        0
176
     0
 62
    18
420
        0
176
     0
 90
       50
176
     0
 90
        3
176
     0
 62
     5
420
      255
176
     0
290
     0
176
     0
 90
       50
176
     0
 90
       50
176
     0
 90
       50
176
     0
290
     0
176
     0
 90
       50
176
     0
 62
   256
176
     0
 40
1.0
176
     0
 90
        2
176
     0
  1
strokes_ogs.tif
176
     0
290
     0
176
     0
 40
1.0
176
     0
 40
1.0
176
     0
  0
VISUALSTYLE
  5
33
102
{ACAD_REACTORS
330
29
102
}
330
29
100
AcDbVisualStyle
  2
Realistic
 70
     8
177
     3
291
     0
 70
    58
 90
        2
176
     1
 90
        3
176
     1
 90
        0
176
     1
 90
        2
176
     1
 40
0.6
176
     1
 40
30.0
176
     1
 62
     7
420
 16777215
176
     1
 90
        0
176
     1
 90
        0
176
     1
 62
     7
176
     1
 62
   257
176
     1
 90
        1
176
     1
 90
        1
176
     1
 40
1.0
176
     1
 90
        8
176
     1
 62
   257
176
     1
 40
1.0
176
     1
 90
        1
176
     1
 90
        6
176
     1
 90
        2
176
     1
 62
     7
176
     1
 90
        3
176
     1
 90
        0
176
     1
 90
        0
176
     1
290
     0
176
     1
 90
       13
176
     1
 40
0.0
176
     1
 90
        0
176
     1
290
     0
176
     1
290
     1
176
     1
290
     1
176
     1
290
     0
176
     1
290
     0
176
     1
290
     0
176
     1
290
     0
176
     1
290
     0
176
     1
290
     0
176
     1
 90
       50
176
     1
 40
0.0
176
     1
 40
1.0
176
     1
 90
        0
176
     1
 62
    18
420
        0
176
     1
 90
       50
176
     1
 90
        3
176
     1
 62
     5
420
      255
176
     1
290
     0
176
     1
 90
       50
176
     1
 90
       50
176
     1
 90
       50
176
     1
290
     0
176
     1
 90
       50
176
     1
 62
   256
176
     0
 40
1.0
176
     0
 90
        2
176
     1
  1
strokes_ogs.tif
176
     1
290
     0
176
     1
 40
1.0
176
     1
 40
1.0
176
     1
  0
VISUALSTYLE
  5
3E
102
{ACAD_REACTORS
330
29
102
}
330
29
100
AcDbVisualStyle
  2
Shaded
 70
    27
177
     3
291
     0
 70
    58
 90
        2
176
     1
 90
        2
176
     1
 90
        1
176
     1
 90
        2
176
     1
 40
0.6
176
     1
 40
30.0
176
     1
 62
     7
420
 16777215
176
     1
 90
        0
176
     1
 90
        4
176
     1
 62
     7
176
     1
 62
   257
176
     1
 90
        1
176
     1
 90
        1
176
     1
 40
1.0
176
     1
 90
        8
176
     1
 62
   257
176
     1
 40
1.0
176
     1
 90
        1
176
     1
 90
        6
176
     1
 90
        2
176
     1
 62
     8
420
  7895160
176
     1
 90
        3
176
     1
 90
        0
176
     1
 90
        0
176
     1
290
     0
176
     1
 90
        5
176
     1
 40
0.0
176
     1
 90
        0
176
     1
290
     0
176
     1
290
     1
176
     1
290
     1
176
     1
290
     0
176
     1
290
     0
176
     1
290
     0
176
     1
290
     0
176
     1
290
     0
176
     1
290
     0
176
     1
 90
       50
176
     1
 40
0.0
176
     1
 40
1.0
176
     1
 90
        0
176
     1
 62
    18
420
        0
176
     1
 90
       50
176
     1
 90
        3
176
     1
 62
     5
420
      255
176
     1
290
     0
176
     1
 90
       50
176
     1
 90
       50
176
     1
 90
       50
176
     1
290
     0
176
     1
 90
       50
176
     1
 62
   256
176
     0
 40
1.0
176
     0
 90
        2
176
     1
  1
strokes_ogs.tif
176
     1
290
     0
176
     1
 40
1.0
176
     1
 40
1.0
176
     1
  0
VISUALSTYLE
  5
3D
102
{ACAD_REACTORS
330
29
102
}
330
29
100
AcDbVisualStyle
  2
Shaded with edges
 70
    26
177
     3
291
     0
 70
    58
 90
        2
176
     1
 90
        2
176
     1
 90
        1
176
     1
 90
        2
176
     1
 40
0.6
176
     1
 40
30.0
176
     1
 62
     7
420
 16777215
176
     1
 90
        1
176
     1
 90
        2
176
     1
 62
     7
176
     1
 62
   257
176
     1
 90
        2
176
     1
 90
        1
176
     1
 40
1.0
176
     1
 90
        8
176
     1
 62
   257
176
     1
 40
1.0
176
     1
 90
        1
176
     1
 90
        6
176
     1
 90
        2
176
     1
 62
     7
176
     1
 90
        3
176
     1
 90
        0
176
     1
 90
        0
176
     1
290
     0
176
     1
 90
        5
176
     1
 40
0.0
176
     1
 90
        0
176
     1
290
     0
176
     1
290
     1
176
     1
290
     1
176
     1
290
     0
176
     1
290
     0
176
     1
290
     0
176
     1
290
     0
176
     1
290
     0
176
     1
290
     0
176
     1
 90
       50
176
     1
 40
0.0
176
     1
 40
1.0
176
     1
 90
        0
176
     1
 62
    18
420
        0
176
     1
 90
       50
176
     1
 90
        3
176
     1
 62
     5
420
      255
176
     1
290
     0
176
     1
 90
       50
176
     1
 90
       50
176
     1
 90
       50
176
     1
290
     0
176
     1
 90
       50
176
     1
 62
   256
176
     0
 40
1.0
176
     0
 90
        2
176
     1
  1
strokes_ogs.tif
176
     1
290
     0
176
     1
 40
1.0
176
     1
 40
1.0
176
     1
  0
VISUALSTYLE
  5
3A
102
{ACAD_REACTORS
330
29
102
}
330
29
100
AcDbVisualStyle
  2
Shades of Gray
 70
    23
177
     3
291
     0
 70
    58
 90
        2
176
     1
 90
        2
176
     1
 90
        3
176
     1
 90
        0
176
     1
 40
0.6
176
     1
 40
30.0
176
     1
 62
     7
420
 16777215
176
     1
 90
        2
176
     1
 90
        2
176
     1
 62
     7
176
     1
 62
     7
176
     1
 90
        1
176
     1
 90
        1
176
     1
 40
40.0
176
     1
 90
        8
176
     1
 62
     7
176
     1
 40
1.0
176
     1
 90
        1
176
     1
 90
        6
176
     1
 90
        2
176
     1
 62
     7
176
     1
 90
        3
176
     1
 90
        0
176
     1
 90
        0
176
     1
290
     0
176
     1
 90
        1
176
     1
 40
0.0
176
     1
 90
        0
176
     1
290
     0
176
     1
290
     1
176
     1
290
     1
176
     1
290
     0
176
     1
290
     0
176
     1
290
     0
176
     1
290
     0
176
     1
290
     0
176
     1
290
     0
176
     1
 90
       50
176
     1
 40
0.0
176
     1
 40
1.0
176
     1
 90
        0
176
     1
 62
    18
420
        0
176
     1
 90
       50
176
     1
 90
        3
176
     1
 62
     5
420
      255
176
     1
290
     0
176
     1
 90
       50
176
     1
 90
       50
176
     1
 90
       50
176
     1
290
     0
176
     1
 90
       50
176
     1
 62
   256
176
     0
 40
1.0
176
     0
 90
        2
176
     1
  1
strokes_ogs.tif
176
     1
290
     0
176
     1
 40
1.0
176
     1
 40
1.0
176
     1
  0
VISUALSTYLE
  5
3B
102
{ACAD_REACTORS
330
29
102
}
330
29
100
AcDbVisualStyle
  2
Sketchy
 70
    24
177
     3
291
     0
 70
    58
 90
        1
176
     1
 90
        2
176
     1
 90
        2
176
     1
 90
        0
176
     1
 40
0.6
176
     1
 40
30.0
176
     1
 62
     7
420
 16777215
176
     1
 90
        2
176
     1
 90
        2
176
     1
 62
     7
176
     1
 62
     7
176
     1
 90
        1
176
     1
 90
        1
176
     1
 40
40.0
176
     1
 90
       11
176
     1
 62
     7
176
     1
 40
1.0
176
     1
 90
        1
176
     1
 90
        6
176
     1
 90
        2
176
     1
 62
     7
176
     1
 90
        6
176
     1
 90
        0
176
     1
 90
        0
176
     1
290
     0
176
     1
 90
        1
176
     1
 40
0.0
176
     1
 90
        0
176
     1
290
     0
176
     1
290
     1
176
     1
290
     1
176
     1
290
     0
176
     1
290
     0
176
     1
290
     0
176
     1
290
     0
176
     1
290
     0
176
     1
290
     0
176
     1
 90
       50
176
     1
 40
0.0
176
     1
 40
1.0
176
     1
 90
        0
176
     1
 62
    18
420
        0
176
     1
 90
       50
176
     1
 90
        3
176
     1
 62
     5
420
      255
176
     1
290
     0
176
     1
 90
       50
176
     1
 90
       50
176
     1
 90
       50
176
     1
290
     0
176
     1
 90
       50
176
     1
 62
   256
176
     0
 40
1.0
176
     0
 90
        2
176
     1
  1
strokes_ogs.tif
176
     1
290
     0
176
     1
 40
1.0
176
     1
 40
1.0
176
     1
  0
VISUALSTYLE
  5
36
102
{ACAD_REACTORS
330
29
102
}
330
29
100
AcDbVisualStyle
  2
Thicken
 70
    13
177
     3
291
     1
 70
    58
 90
        2
176
     1
 90
        2
176
     1
 90
        0
176
     1
 90
        0
176
     1
 40
0.6
176
     1
 40
30.0
176
     1
 62
     7
420
 16777215
176
     1
 90
        1
176
     1
 90
        4
176
     1
 62
     7
176
     1
 62
   257
176
     1
 90
        1
176
     1
 90
        1
176
     1
 40
1.0
176
     1
 90
       12
176
     1
 62
     7
176
     1
 40
1.0
176
     1
 90
        1
176
     1
 90
        6
176
     1
 90
        2
176
     1
 62
     7
176
     1
 90
        5
176
     1
 90
        0
176
     1
 90
        0
176
     1
290
     0
176
     1
 90
        1
176
     1
 40
0.0
176
     1
 90
        0
176
     1
290
     0
176
     1
290
     1
176
     1
290
     1
176
     1
290
     0
176
     1
290
     0
176
     1
290
     0
176
     1
290
     0
176
     1
290
     0
176
     1
290
     0
176
     1
 90
       50
176
     1
 40
0.0
176
     1
 40
1.0
176
     1
 90
        0
176
     1
 62
    18
420
        0
176
     1
 90
       50
176
     1
 90
        3
176
     1
 62
     5
420
      255
176
     1
290
     0
176
     1
 90
       50
176
     1
 90
       50
176
     1
 90
       50
176
     1
290
     0
176
     1
 90
       50
176
     1
 62
   256
176
     0
 40
1.0
176
     0
 90
        2
176
     1
  1
strokes_ogs.tif
176
     1
290
     0
176
     1
 40
1.0
176
     1
 40
1.0
176
     1
  0
VISUALSTYLE
  5
30
102
{ACAD_REACTORS
330
29
102
}
330
29
100
AcDbVisualStyle
  2
Wireframe
 70
     5
177
     3
291
     0
 70
    58
 90
        0
176
     1
 90
        2
176
     1
 90
        0
176
     1
 90
        0
176
     1
 40
0.6
176
     1
 40
30.0
176
     1
 62
     7
420
 16777215
176
     1
 90
        1
176
     1
 90
        4
176
     1
 62
     7
176
     1
 62
   257
176
     1
 90
        1
176
     1
 90
        1
176
     1
 40
1.0
176
     1
 90
        0
176
     1
 62
   257
176
     1
 40
1.0
176
     1
 90
        1
176
     1
 90
        6
176
     1
 90
        2
176
     1
 62
     7
176
     1
 90
        3
176
     1
 90
        0
176
     1
 90
        0
176
     1
290
     0
176
     1
 90
        1
176
     1
 40
0.0
176
     1
 90
        0
176
     1
290
     0
176
     1
290
     1
176
     1
290
     1
176
     1
290
     0
176
     1
290
     0
176
     1
290
     0
176
     1
290
     0
176
     1
290
     0
176
     1
290
     0
176
     1
 90
       50
176
     1
 40
0.0
176
     1
 40
1.0
176
     1
 90
        0
176
     1
 62
    18
420
        0
176
     1
 90
       50
176
     1
 90
        3
176
     1
 62
     5
420
      255
176
     1
290
     0
176
     1
 90
       50
176
     1
 90
       50
176
     1
 90
       50
176
     1
290
     0
176
     1
 90
       50
176
     1
 62
   256
176
     0
 40
1.0
176
     0
 90
        2
176
     1
  1
strokes_ogs.tif
176
     1
290
     0
176
     1
 40
1.0
176
     1
 40
1.0
176
     1
  0
VISUALSTYLE
  5
3C
102
{ACAD_REACTORS
330
29
102
}
330
29
100
AcDbVisualStyle
  2
X-Ray
 70
    25
177
     3
291
     0
 70
    58
 90
        2
176
     1
 90
        2
176
     1
 90
        1
176
     1
 90
        1
176
     1
 40
0.5
176
     1
 40
30.0
176
     1
 62
     7
420
 16777215
176
     1
 90
        1
176
     1
 90
        0
176
     1
 62
     7
176
     1
 62
   257
176
     1
 90
        1
176
     1
 90
        1
176
     1
 40
1.0
176
     1
 90
        8
176
     1
 62
     7
176
     1
 40
1.0
176
     1
 90
        1
176
     1
 90
        6
176
     1
 90
        2
176
     1
 62
     7
176
     1
 90
        3
176
     1
 90
        0
176
     1
 90
        0
176
     1
290
     0
176
     1
 90
       13
176
     1
 40
0.0
176
     1
 90
        0
176
     1
290
     0
176
     1
290
     1
176
     1
290
     1
176
     1
290
     0
176
     1
290
     0
176
     1
290
     0
176
     1
290
     0
176
     1
290
     0
176
     1
290
     0
176
     1
 90
       50
176
     1
 40
0.0
176
     1
 40
1.0
176
     1
 90
        0
176
     1
 62
    18
420
        0
176
     1
 90
       50
176
     1
 90
        3
176
     1
 62
     5
420
      255
176
     1
290
     0
176
     1
 90
       50
176
     1
 90
       50
176
     1
 90
       50
176
     1
290
     0
176
     1
 90
       50
176
     1
 62
   256
176
     0
 40
1.0
176
     0
 90
        2
176
     1
  1
strokes_ogs.tif
176
     1
290
     0
176
     1
 40
1.0
176
     1
 40
1.0
176
     1
  0
DICTIONARYVAR
  5
1C0
102
{ACAD_REACTORS
330
1BB
102
}
330
1BB
100
DictionaryVariables
280
     0
  1
1:1
  0
DICTIONARYVAR
  5
1BD
102
{ACAD_REACTORS
330
1BB
102
}
330
1BB
100
DictionaryVariables
280
     0
  1
STANDARD
  0
DICTIONARYVAR
  5
1BC
102
{ACAD_REACTORS
330
1BB
102
}
330
1BB
100
DictionaryVariables
280
     0
  1
STANDARD
  0
DICTIONARYVAR
  5
1BE
102
{ACAD_REACTORS
330
1BB
102
}
330
1BB
100
DictionaryVariables
280
     0
  1
Imperial24
  0
DICTIONARYVAR
  5
1BF
102
{ACAD_REACTORS
330
1BB
102
}
330
1BB
100
DictionaryVariables
280
     0
  1
Imperial24
  0
DICTIONARY
  5
1A
330
19
100
AcDbDictionary
280
     1
281
     1
  3
BUMPTILE
360
1C
  3
DIFFUSETILE
360
1B
  3
OPACITYTILE
360
1F
  3
REFLECTIONTILE
360
1E
  3
REFRACTIONTILE
360
20
  3
SPECULARTILE
360
1D
  0
DICTIONARY
  5
12
330
11
100
AcDbDictionary
280
     1
281
     1
  3
BUMPTILE
360
14
  3
DIFFUSETILE
360
13
  3
OPACITYTILE
360
17
  3
REFLECTIONTILE
360
16
  3
REFRACTIONTILE
360
18
  3
SPECULARTILE
360
15
  0
DICTIONARY
  5
22
330
21
100
AcDbDictionary
280
     1
281
     1
  3
BUMPTILE
360
24
  3
DIFFUSETILE
360
23
  3
OPACITYTILE
360
27
  3
REFLECTIONTILE
360
26
  3
REFRACTIONTILE
360
28
  3
SPECULARTILE
360
25
  0
DICTIONARY
  5
1C1
330
65
100
AcDbDictionary
280
     1
281
     1
  3
ACAD_ROUNDTRIP_2008_TABLESTYLE_CELLSTYLEMAP
360
1C2
  0
XRECORD
  5
1C
102
{ACAD_REACTORS
330
1A
102
}
330
1A
100
AcDbXrecord
280
     1
270
     1
271
     1
  0
XRECORD
  5
1B
102
{ACAD_REACTORS
330
1A
102
}
330
1A
100
AcDbXrecord
280
     1
270
     1
271
     1
  0
XRECORD
  5
1F
102
{ACAD_REACTORS
330
1A
102
}
330
1A
100
AcDbXrecord
280
     1
270
     1
271
     1
  0
XRECORD
  5
1E
102
{ACAD_REACTORS
330
1A
102
}
330
1A
100
AcDbXrecord
280
     1
270
     1
271
     1
  0
XRECORD
  5
20
102
{ACAD_REACTORS
330
1A
102
}
330
1A
100
AcDbXrecord
280
     1
270
     1
271
     1
  0
XRECORD
  5
1D
102
{ACAD_REACTORS
330
1A
102
}
330
1A
100
AcDbXrecord
280
     1
270
     1
271
     1
  0
XRECORD
  5
14
102
{ACAD_REACTORS
330
12
102
}
330
12
100
AcDbXrecord
280
     1
270
     1
271
     1
  0
XRECORD
  5
13
102
{ACAD_REACTORS
330
12
102
}
330
12
100
AcDbXrecord
280
     1
270
     1
271
     1
  0
XRECORD
  5
17
102
{ACAD_REACTORS
330
12
102
}
330
12
100
AcDbXrecord
280
     1
270
     1
271
     1
  0
XRECORD
  5
16
102
{ACAD_REACTORS
330
12
102
}
330
12
100
AcDbXrecord
280
     1
270
     1
271
     1
  0
XRECORD
  5
18
102
{ACAD_REACTORS
330
12
102
}
330
12
100
AcDbXrecord
280
     1
270
     1
271
     1
  0
XRECORD
  5
15
102
{ACAD_REACTORS
330
12
102
}
330
12
100
AcDbXrecord
280
     1
270
     1
271
     1
  0
XRECORD
  5
24
102
{ACAD_REACTORS
330
22
102
}
330
22
100
AcDbXrecord
280
     1
270
     1
271
     1
  0
XRECORD
  5
23
102
{ACAD_REACTORS
330
22
102
}
330
22
100
AcDbXrecord
280
     1
270
     1
271
     1
  0
XRECORD
  5
27
102
{ACAD_REACTORS
330
22
102
}
330
22
100
AcDbXrecord
280
     1
270
     1
271
     1
  0
XRECORD
  5
26
102
{ACAD_REACTORS
330
22
102
}
330
22
100
AcDbXrecord
280
     1
270
     1
271
     1
  0
XRECORD
  5
28
102
{ACAD_REACTORS
330
22
102
}
330
22
100
AcDbXrecord
280
     1
270
     1
271
     1
  0
XRECORD
  5
25
102
{ACAD_REACTORS
330
22
102
}
330
22
100
AcDbXrecord
280
     1
270
     1
271
     1
  0
CELLSTYLEMAP
  5
1C2
102
{ACAD_REACTORS
330
1C1
102
}
330
1C1
100
AcDbCellStyleMap
 90
        3
300
CELLSTYLE
  1
TABLEFORMAT_BEGIN
 90
        5
170
     1
 91
        0
 92
    32768
 62
   257
 93
        1
300
CONTENTFORMAT
  1
CONTENTFORMAT_BEGIN
 90
        0
 91
        0
 92
      512
 93
        0
300

 40
0.0
140
1.0
 94
        5
 62
     0
340
55
144
0.25
309
CONTENTFORMAT_END
171
     0
 94
        0
309
TABLEFORMAT_END
  1
CELLSTYLE_BEGIN
 90
        1
 91
        1
300
_TITLE
309
CELLSTYLE_END
300
CELLSTYLE
  1
TABLEFORMAT_BEGIN
 90
        5
170
     1
 91
        0
 92
        0
 62
   257
 93
        1
300
CONTENTFORMAT
  1
CONTENTFORMAT_BEGIN
 90
        0
 91
        0
 92
      512
 93
        0
300

 40
0.0
140
1.0
 94
        5
 62
     0
340
55
144
0.18
309
CONTENTFORMAT_END
171
     0
 94
        0
309
TABLEFORMAT_END
  1
CELLSTYLE_BEGIN
 90
        2
 91
        1
300
_HEADER
309
CELLSTYLE_END
300
CELLSTYLE
  1
TABLEFORMAT_BEGIN
 90
        5
170
     1
 91
        0
 92
        0
 62
   257
 93
        1
300
CONTENTFORMAT
  1
CONTENTFORMAT_BEGIN
 90
        0
 91
        0
 92
      512
 93
        0
300

 40
0.0
140
1.0
 94
        2
 62
     0
340
55
144
0.18
309
CONTENTFORMAT_END
171
     0
 94
        0
309
TABLEFORMAT_END
  1
CELLSTYLE_BEGIN
 90
        3
 91
        2
300
_DATA
309
CELLSTYLE_END
  0
ENDSEC
  0
EOF
