  0
SECTION
  2
HEADER
  9
$ACADVER
  1
AC1032
  9
$ACADMAINTVER
 90
      228
  9
$DWGCODEPAGE
  3
ANSI_932
  9
$REQUIREDVERSIONS
160
                 0
  9
$INSBASE
 10
0.0
 20
0.0
 30
0.0
  9
$EXTMIN
 10
1.000000000000000E+20
 20
1.000000000000000E+20
 30
1.000000000000000E+20
  9
$EXTMAX
 10
-1.000000000000000E+20
 20
-1.000000000000000E+20
 30
-1.000000000000000E+20
  9
$LIMMIN
 10
0.0
 20
0.0
  9
$LIMMAX
 10
12.0
 20
9.0
  9
$ORTHOMODE
 70
     0
  9
$REGENMODE
 70
     1
  9
$FILLMODE
 70
     1
  9
$QTEXTMODE
 70
     0
  9
$MIRRTEXT
 70
     0
  9
$LTSCALE
 40
1.0
  9
$ATTMODE
 70
     1
  9
$TEXTSIZE
 40
0.2
  9
$TRACEWID
 40
0.05
  9
$TEXTSTYLE
  7
Standard
  9
$CLAYER
  8
0
  9
$CELTYPE
  6
ByLayer
  9
$CECOLOR
 62
   256
  9
$CELTSCALE
 40
1.0
  9
$DISPSILH
 70
     0
  9
$DIMSCALE
 40
1.0
  9
$DIMASZ
 40
0.18
  9
$DIMEXO
 40
0.0625
  9
$DIMDLI
 40
0.38
  9
$DIMRND
 40
0.0
  9
$DIMDLE
 40
0.0
  9
$DIMEXE
 40
0.18
  9
$DIMTP
 40
0.0
  9
$DIMTM
 40
0.0
  9
$DIMTXT
 40
0.18
  9
$DIMCEN
 40
0.09
  9
$DIMTSZ
 40
0.0
  9
$DIMTOL
 70
     0
  9
$DIMLIM
 70
     0
  9
$DIMTIH
 70
     1
  9
$DIMTOH
 70
     1
  9
$DIMSE1
 70
     0
  9
$DIMSE2
 70
     0
  9
$DIMTAD
 70
     0
  9
$DIMZIN
 70
     0
  9
$DIMBLK
  1

  9
$DIMASO
 70
     1
  9
$DIMSHO
 70
     1
  9
$DIMPOST
  1

  9
$DIMAPOST
  1

  9
$DIMALT
 70
     0
  9
$DIMALTD
 70
     2
  9
$DIMALTF
 40
25.4
  9
$DIMLFAC
 40
1.0
  9
$DIMTOFL
 70
     0
  9
$DIMTVP
 40
0.0
  9
$DIMTIX
 70
     0
  9
$DIMSOXD
 70
     0
  9
$DIMSAH
 70
     0
  9
$DIMBLK1
  1

  9
$DIMBLK2
  1

  9
$DIMSTYLE
  2
Standard
  9
$DIMCLRD
 70
     0
  9
$DIMCLRE
 70
     0
  9
$DIMCLRT
 70
     0
  9
$DIMTFAC
 40
1.0
  9
$DIMGAP
 40
0.09
  9
$DIMJUST
 70
     0
  9
$DIMSD1
 70
     0
  9
$DIMSD2
 70
     0
  9
$DIMTOLJ
 70
     1
  9
$DIMTZIN
 70
     0
  9
$DIMALTZ
 70
     0
  9
$DIMALTTZ
 70
     0
  9
$DIMUPT
 70
     0
  9
$DIMDEC
 70
     4
  9
$DIMTDEC
 70
     4
  9
$DIMALTU
 70
     2
  9
$DIMALTTD
 70
     2
  9
$DIMTXSTY
  7
Standard
  9
$DIMAUNIT
 70
     0
  9
$DIMADEC
 70
     0
  9
$DIMALTRND
 40
0.0
  9
$DIMAZIN
 70
     0
  9
$DIMDSEP
 70
    46
  9
$DIMATFIT
 70
     3
  9
$DIMFRAC
 70
     0
  9
$DIMLDRBLK
  1

  9
$DIMLUNIT
 70
     2
  9
$DIMLWD
 70
    -2
  9
$DIMLWE
 70
    -2
  9
$DIMTMOVE
 70
     0
  9
$DIMFXL
 40
1.0
  9
$DIMFXLON
 70
     0
  9
$DIMJOGANG
 40
0.7853981633974483
  9
$DIMTFILL
 70
     0
  9
$DIMTFILLCLR
 70
     0
  9
$DIMARCSYM
 70
     0
  9
$DIMLTYPE
  6

  9
$DIMLTEX1
  6

  9
$DIMLTEX2
  6

  9
$DIMTXTDIRECTION
 70
     0
  9
$LUNITS
 70
     2
  9
$LUPREC
 70
     4
  9
$SKETCHINC
 40
0.1
  9
$FILLETRAD
 40
0.0
  9
$AUNITS
 70
     0
  9
$AUPREC
 70
     0
  9
$MENU
  1
.
  9
$ELEVATION
 40
0.0
  9
$PELEVATION
 40
0.0
  9
$THICKNESS
 40
0.0
  9
$LIMCHECK
 70
     0
  9
$CHAMFERA
 40
0.0
  9
$CHAMFERB
 40
0.0
  9
$CHAMFERC
 40
0.0
  9
$CHAMFERD
 40
0.0
  9
$SKPOLY
 70
     0
  9
$TDCREATE
 40
2460181.721620370
  9
$TDUCREATE
 40
2460181.346620370
  9
$TDUPDATE
 40
2460181.721620370
  9
$TDUUPDATE
 40
2460181.346620370
  9
$TDINDWG
 40
0.0000000000
  9
$TDUSRTIMER
 40
0.0000000000
  9
$USRTIMER
 70
     1
  9
$ANGBASE
 50
0.0
  9
$ANGDIR
 70
     0
  9
$PDMODE
 70
     0
  9
$PDSIZE
 40
0.0
  9
$PLINEWID
 40
0.0
  9
$SPLFRAME
 70
     0
  9
$SPLINETYPE
 70
     6
  9
$SPLINESEGS
 70
     8
  9
$HANDSEED
  5
193
  9
$SURFTAB1
 70
     6
  9
$SURFTAB2
 70
     6
  9
$SURFTYPE
 70
     6
  9
$SURFU
 70
     6
  9
$SURFV
 70
     6
  9
$UCSBASE
  2

  9
$UCSNAME
  2

  9
$UCSORG
 10
0.0
 20
0.0
 30
0.0
  9
$UCSXDIR
 10
1.0
 20
0.0
 30
0.0
  9
$UCSYDIR
 10
0.0
 20
1.0
 30
0.0
  9
$UCSORTHOREF
  2

  9
$UCSORTHOVIEW
 70
     0
  9
$UCSORGTOP
 10
0.0
 20
0.0
 30
0.0
  9
$UCSORGBOTTOM
 10
0.0
 20
0.0
 30
0.0
  9
$UCSORGLEFT
 10
0.0
 20
0.0
 30
0.0
  9
$UCSORGRIGHT
 10
0.0
 20
0.0
 30
0.0
  9
$UCSORGFRONT
 10
0.0
 20
0.0
 30
0.0
  9
$UCSORGBACK
 10
0.0
 20
0.0
 30
0.0
  9
$PUCSBASE
  2

  9
$PUCSNAME
  2

  9
$PUCSORG
 10
0.0
 20
0.0
 30
0.0
  9
$PUCSXDIR
 10
1.0
 20
0.0
 30
0.0
  9
$PUCSYDIR
 10
0.0
 20
1.0
 30
0.0
  9
$PUCSORTHOREF
  2

  9
$PUCSORTHOVIEW
 70
     0
  9
$PUCSORGTOP
 10
0.0
 20
0.0
 30
0.0
  9
$PUCSORGBOTTOM
 10
0.0
 20
0.0
 30
0.0
  9
$PUCSORGLEFT
 10
0.0
 20
0.0
 30
0.0
  9
$PUCSORGRIGHT
 10
0.0
 20
0.0
 30
0.0
  9
$PUCSORGFRONT
 10
0.0
 20
0.0
 30
0.0
  9
$PUCSORGBACK
 10
0.0
 20
0.0
 30
0.0
  9
$USERI1
 70
     0
  9
$USERI2
 70
     0
  9
$USERI3
 70
     0
  9
$USERI4
 70
     0
  9
$USERI5
 70
     0
  9
$USERR1
 40
0.0
  9
$USERR2
 40
0.0
  9
$USERR3
 40
0.0
  9
$USERR4
 40
0.0
  9
$USERR5
 40
0.0
  9
$WORLDVIEW
 70
     1
  9
$SHADEDGE
 70
     3
  9
$SHADEDIF
 70
    70
  9
$TILEMODE
 70
     1
  9
$MAXACTVP
 70
    64
  9
$PINSBASE
 10
0.0
 20
0.0
 30
0.0
  9
$PLIMCHECK
 70
     0
  9
$PEXTMIN
 10
1.000000000000000E+20
 20
1.000000000000000E+20
 30
1.000000000000000E+20
  9
$PEXTMAX
 10
-1.000000000000000E+20
 20
-1.000000000000000E+20
 30
-1.000000000000000E+20
  9
$PLIMMIN
 10
0.0
 20
0.0
  9
$PLIMMAX
 10
12.0
 20
9.0
  9
$UNITMODE
 70
     0
  9
$VISRETAIN
 70
     1
  9
$PLINEGEN
 70
     0
  9
$PSLTSCALE
 70
     1
  9
$TREEDEPTH
 70
  3020
  9
$CMLSTYLE
  2
Standard
  9
$CMLJUST
 70
     0
  9
$CMLSCALE
 40
1.0
  9
$PROXYGRAPHICS
 70
     1
  9
$MEASUREMENT
 70
     0
  9
$CELWEIGHT
370
    -1
  9
$ENDCAPS
280
     0
  9
$JOINSTYLE
280
     0
  9
$LWDISPLAY
290
     1
  9
$INSUNITS
 70
     4
  9
$HYPERLINKBASE
  1

  9
$STYLESHEET
  1

  9
$XEDIT
290
     1
  9
$CEPSNTYPE
380
     0
  9
$PSTYLEMODE
290
     1
  9
$FINGERPRINTGUID
  2
{123175BD-4D6E-AE4E-B866-195646D09A1B}
  9
$VERSIONGUID
  2
{44398AEE-4A28-234C-9347-86685473D464}
  9
$EXTNAMES
290
     1
  9
$PSVPSCALE
 40
0.0
  9
$OLESTARTUP
290
     0
  9
$SORTENTS
280
   127
  9
$INDEXCTL
280
     0
  9
$HIDETEXT
280
     1
  9
$XCLIPFRAME
280
     2
  9
$HALOGAP
280
     0
  9
$OBSCOLOR
 70
   257
  9
$OBSLTYPE
280
     0
  9
$INTERSECTIONDISPLAY
280
     0
  9
$INTERSECTIONCOLOR
 70
   257
  9
$DIMASSOC
280
     2
  9
$PROJECTNAME
  1

  9
$CAMERADISPLAY
290
     0
  9
$LENSLENGTH
 40
50.0
  9
$CAMERAHEIGHT
 40
0.0
  9
$STEPSPERSEC
 40
2.0
  9
$STEPSIZE
 40
6.0
  9
$3DDWFPREC
 40
2.0
  9
$PSOLWIDTH
 40
0.25
  9
$PSOLHEIGHT
 40
4.0
  9
$LOFTANG1
 40
1.570796326794896
  9
$LOFTANG2
 40
1.570796326794896
  9
$LOFTMAG1
 40
0.0
  9
$LOFTMAG2
 40
0.0
  9
$LOFTPARAM
 70
     7
  9
$LOFTNORMALS
280
     1
  9
$LATITUDE
 40
37.795
  9
$LONGITUDE
 40
-122.394
  9
$NORTHDIRECTION
 40
0.0
  9
$TIMEZONE
 70
 -8000
  9
$LIGHTGLYPHDISPLAY
280
     1
  9
$TILEMODELIGHTSYNCH
280
     1
  9
$CMATERIAL
347
11
  9
$SOLIDHIST
280
     0
  9
$SHOWHIST
280
     1
  9
$DWFFRAME
280
     2
  9
$DGNFRAME
280
     0
  9
$REALWORLDSCALE
290
     1
  9
$INTERFERECOLOR
 62
     1
  9
$INTERFEREOBJVS
345
33
  9
$INTERFEREVPVS
346
30
  9
$CSHADOW
280
     0
  9
$SHADOWPLANELOCATION
 40
0.0
  0
ENDSEC
  0
SECTION
  2
CLASSES
  0
CLASS
  1
ACDBDICTIONARYWDFLT
  2
AcDbDictionaryWithDefault
  3
ObjectDBX Classes
 90
        0
 91
        1
280
     0
281
     0
  0
CLASS
  1
MATERIAL
  2
AcDbMaterial
  3
ObjectDBX Classes
 90
     1153
 91
        3
280
     0
281
     0
  0
CLASS
  1
VISUALSTYLE
  2
AcDbVisualStyle
  3
ObjectDBX Classes
 90
     4095
 91
       24
280
     0
281
     0
  0
CLASS
  1
SCALE
  2
AcDbScale
  3
ObjectDBX Classes
 90
     1153
 91
       17
280
     0
281
     0
  0
CLASS
  1
TABLESTYLE
  2
AcDbTableStyle
  3
ObjectDBX Classes
 90
     4095
 91
        1
280
     0
281
     0
  0
CLASS
  1
MLEADERSTYLE
  2
AcDbMLeaderStyle
  3
ACDB_MLEADERSTYLE_CLASS
 90
     4095
 91
        1
280
     0
281
     0
  0
CLASS
  1
ACDBSECTIONVIEWSTYLE
  2
AcDbSectionViewStyle
  3
ObjectDBX Classes
 90
     1025
 91
        1
280
     0
281
     0
  0
CLASS
  1
ACDBDETAILVIEWSTYLE
  2
AcDbDetailViewStyle
  3
ObjectDBX Classes
 90
     1025
 91
        1
280
     0
281
     0
  0
CLASS
  1
DICTIONARYVAR
  2
AcDbDictionaryVar
  3
ObjectDBX Classes
 90
        0
 91
        5
280
     0
281
     0
  0
CLASS
  1
CELLSTYLEMAP
  2
AcDbCellStyleMap
  3
ObjectDBX Classes
 90
     1152
 91
        1
280
     0
281
     0
  0
ENDSEC
  0
SECTION
  2
TABLES
  0
TABLE
  2
VPORT
  5
8
330
0
100
AcDbSymbolTable
 70
     1
  0
VPORT
  5
57
330
8
100
AcDbSymbolTableRecord
100
AcDbViewportTableRecord
  2
*Active
 70
     0
 10
0.0
 20
0.0
 11
1.0
 21
1.0
 12
0.0
 22
0.0
 13
0.0
 23
0.0
 14
1.0
 24
1.0
 15
0.0
 25
0.0
 16
0.0
 26
0.0
 36
1.0
 17
148.5000119155931
 27
-104.9999970067632
 37
0.0
 40
214.199993893797
 41
1.414285868084624
 42
50.0
 43
0.0
 44
0.0
 50
0.0
 51
0.0
 71
     0
 72
   100
 73
     1
 74
     1
 75
     0
 76
     0
 77
     0
 78
     0
281
     0
 65
     1
110
0.0
120
0.0
130
0.0
111
1.0
121
0.0
131
0.0
112
0.0
122
1.0
132
0.0
 79
     0
146
0.0
 60
     3
 61
     5
292
     1
282
     1
141
0.0
142
0.0
 63
   250
421
  3355443
  0
ENDTAB
  0
TABLE
  2
LTYPE
  5
5
330
0
100
AcDbSymbolTable
 70
     1
  0
LTYPE
  5
5B
330
5
100
AcDbSymbolTableRecord
100
AcDbLinetypeTableRecord
  2
ByBlock
 70
     0
  3

 72
    65
 73
     0
 40
0.0
  0
LTYPE
  5
5C
330
5
100
AcDbSymbolTableRecord
100
AcDbLinetypeTableRecord
  2
ByLayer
 70
     0
  3

 72
    65
 73
     0
 40
0.0
  0
LTYPE
  5
5D
330
5
100
AcDbSymbolTableRecord
100
AcDbLinetypeTableRecord
  2
Continuous
 70
     0
  3
Solid line
 72
    65
 73
     0
 40
0.0
  0
ENDTAB
  0
TABLE
  2
LAYER
  5
2
330
0
100
AcDbSymbolTable
 70
     2
  0
LAYER
  5
54
330
2
100
AcDbSymbolTableRecord
100
AcDbLayerTableRecord
  2
0
 70
     0
 62
     7
  6
Continuous
370
    -3
390
F
347
21
348
0
  0
LAYER
  5
78
330
2
100
AcDbSymbolTableRecord
100
AcDbLayerTableRecord
  2
レイヤー 1
 70
     0
 62
     7
  6
Continuous
370
     0
390
F
347
21
348
0
  0
ENDTAB
  0
TABLE
  2
STYLE
  5
3
330
0
100
AcDbSymbolTable
 70
     2
  0
STYLE
  5
55
330
3
100
AcDbSymbolTableRecord
100
AcDbTextStyleTableRecord
  2
Standard
 70
     0
 40
0.0
 41
1.0
 50
0.0
 71
     0
 42
0.2
  3
txt
  4

  0
STYLE
  5
5A
330
3
100
AcDbSymbolTableRecord
100
AcDbTextStyleTableRecord
  2
Annotative
 70
     0
 40
0.0
 41
1.0
 50
0.0
 71
     0
 42
0.2
  3
txt
  4

1001
AcadAnnotative
1000
AnnotativeData
1002
{
1070
     1
1070
     1
1002
}
  0
ENDTAB
  0
TABLE
  2
VIEW
  5
6
330
0
100
AcDbSymbolTable
 70
     0
  0
ENDTAB
  0
TABLE
  2
UCS
  5
7
330
0
100
AcDbSymbolTable
 70
     0
  0
ENDTAB
  0
TABLE
  2
APPID
  5
9
330
0
100
AcDbSymbolTable
 70
     2
  0
APPID
  5
56
330
9
100
AcDbSymbolTableRecord
100
AcDbRegAppTableRecord
  2
ACAD
 70
     0
  0
APPID
  5
5E
330
9
100
AcDbSymbolTableRecord
100
AcDbRegAppTableRecord
  2
AcadAnnotative
 70
     0
  0
ENDTAB
  0
TABLE
  2
DIMSTYLE
  5
A
330
0
100
AcDbSymbolTable
 70
     2
100
AcDbDimStyleTable
 71
     0
  0
DIMSTYLE
105
58
330
A
100
AcDbSymbolTableRecord
100
AcDbDimStyleTableRecord
  2
Standard
 70
     0
340
55
  0
DIMSTYLE
105
59
330
A
100
AcDbSymbolTableRecord
100
AcDbDimStyleTableRecord
  2
Annotative
 70
     0
340
55
1001
AcadAnnotative
1000
AnnotativeData
1002
{
1070
     1
1070
     1
1002
}
  0
ENDTAB
  0
TABLE
  2
BLOCK_RECORD
  5
1
330
0
100
AcDbSymbolTable
 70
     1
  0
BLOCK_RECORD
  5
70
330
1
100
AcDbSymbolTableRecord
100
AcDbBlockTableRecord
  2
*Model_Space
340
73
 70
     0
280
     1
281
     0
  0
BLOCK_RECORD
  5
6C
330
1
100
AcDbSymbolTableRecord
100
AcDbBlockTableRecord
  2
*Paper_Space
340
6F
 70
     0
280
     1
281
     0
  0
BLOCK_RECORD
  5
74
330
1
100
AcDbSymbolTableRecord
100
AcDbBlockTableRecord
  2
*Paper_Space0
340
77
 70
     0
280
     1
281
     0
  0
ENDTAB
  0
ENDSEC
  0
SECTION
  2
BLOCKS
  0
BLOCK
  5
71
330
70
100
AcDbEntity
  8
0
100
AcDbBlockBegin
  2
*Model_Space
 70
     0
 10
0.0
 20
0.0
 30
0.0
  3
*Model_Space
  1

  0
ENDBLK
  5
72
330
70
100
AcDbEntity
  8
0
100
AcDbBlockEnd
  0
BLOCK
  5
6D
330
6C
100
AcDbEntity
 67
     1
  8
0
100
AcDbBlockBegin
  2
*Paper_Space
 70
     0
 10
0.0
 20
0.0
 30
0.0
  3
*Paper_Space
  1

  0
ENDBLK
  5
6E
330
6C
100
AcDbEntity
 67
     1
  8
0
100
AcDbBlockEnd
  0
BLOCK
  5
75
330
74
100
AcDbEntity
 67
     1
  8
0
100
AcDbBlockBegin
  2
*Paper_Space0
 70
     0
 10
0.0
 20
0.0
 30
0.0
  3
*Paper_Space0
  1

  0
ENDBLK
  5
76
330
74
100
AcDbEntity
 67
     1
  8
0
100
AcDbBlockEnd
  0
ENDSEC
  0
SECTION
  2
ENTITIES
  0
LWPOLYLINE
  5
79
330
70
100
AcDbEntity
  8
レイヤー 1
100
AcDbPolyline
 90
        1
 70
     0
 43
0.0
 10
21.166666661375
 20
-153.366306181819
  0
SPLINE
  5
7A
330
70
100
AcDbEntity
  8
レイヤー 1
 62
   250
420
  2299925
370
     9
100
AcDbSpline
210
0.0
220
0.0
230
1.0
 70
     8
 71
     3
 72
   101
 73
    97
 74
     0
 42
0.0000000001
 43
0.0000000001
 40
0.0
 40
0.0
 40
0.0
 40
0.0
 40
1.0
 40
1.0
 40
1.0
 40
2.0
 40
2.0
 40
2.0
 40
3.0
 40
3.0
 40
3.0
 40
4.0
 40
4.0
 40
4.0
 40
5.0
 40
5.0
 40
5.0
 40
6.0
 40
6.0
 40
6.0
 40
7.0
 40
7.0
 40
7.0
 40
8.0
 40
8.0
 40
8.0
 40
9.0
 40
9.0
 40
9.0
 40
10.0
 40
10.0
 40
10.0
 40
11.0
 40
11.0
 40
11.0
 40
12.0
 40
12.0
 40
12.0
 40
13.0
 40
13.0
 40
13.0
 40
14.0
 40
14.0
 40
14.0
 40
15.0
 40
15.0
 40
15.0
 40
16.0
 40
16.0
 40
16.0
 40
17.0
 40
17.0
 40
17.0
 40
18.0
 40
18.0
 40
18.0
 40
19.0
 40
19.0
 40
19.0
 40
20.0
 40
20.0
 40
20.0
 40
21.0
 40
21.0
 40
21.0
 40
22.0
 40
22.0
 40
22.0
 40
23.0
 40
23.0
 40
23.0
 40
24.0
 40
24.0
 40
24.0
 40
25.0
 40
25.0
 40
25.0
 40
26.0
 40
26.0
 40
26.0
 40
27.0
 40
27.0
 40
27.0
 40
28.0
 40
28.0
 40
28.0
 40
29.0
 40
29.0
 40
29.0
 40
30.0
 40
30.0
 40
30.0
 40
31.0
 40
31.0
 40
31.0
 40
32.0
 40
32.0
 40
32.0
 40
32.0
 10
176.0151764897471
 20
-149.7187649156111
 30
0.0
 10
176.0151764897471
 20
-149.7187649156111
 30
0.0
 10
174.7589252883314
 20
-155.9307803744423
 30
0.0
 10
174.7589252883314
 20
-155.9307803744423
 30
0.0
 10
174.7589252883314
 20
-155.9307803744423
 30
0.0
 10
171.5995470585493
 20
-171.5535325658074
 30
0.0
 10
171.5995470585493
 20
-171.5535325658074
 30
0.0
 10
171.5995470585493
 20
-171.5535325658074
 30
0.0
 10
170.0810687980597
 20
-172.1402173482692
 30
0.0
 10
170.0810687980597
 20
-172.1402173482692
 30
0.0
 10
170.0810687980597
 20
-172.1402173482692
 30
0.0
 10
104.4183876550546
 20
-149.9267209770109
 30
0.0
 10
104.4183876550546
 20
-149.9267209770109
 30
0.0
 10
104.4183876550546
 20
-149.9267209770109
 30
0.0
 10
121.5012680855638
 20
-78.22463766160371
 30
0.0
 10
121.5012680855638
 20
-78.22463766160371
 30
0.0
 10
121.5012680855638
 20
-78.22463766160371
 30
0.0
 10
127.6902173593791
 20
-78.47771737168606
 30
0.0
 10
127.6902173593791
 20
-78.47771737168606
 30
0.0
 10
127.6902173593791
 20
-78.47771737168606
 30
0.0
 10
129.3927535908366
 20
-72.26576085150021
 30
0.0
 10
129.3927535908366
 20
-72.26576085150021
 30
0.0
 10
129.3927535908366
 20
-72.26576085150021
 30
0.0
 10
128.3919383736956
 20
-70.68976447508257
 30
0.0
 10
129.921920257371
 20
-70.68976447508257
 30
0.0
 10
129.921920257371
 20
-70.68976447508257
 30
0.0
 10
130.2440217065655
 20
-67.84836954825603
 30
0.0
 10
130.2440217065655
 20
-67.84836954825603
 30
0.0
 10
130.2440217065655
 20
-67.84836954825603
 30
0.0
 10
130.6006340253172
 20
-67.41123186720608
 30
0.0
 10
130.6006340253172
 20
-67.41123186720608
 30
0.0
 10
130.6006340253172
 20
-67.41123186720608
 30
0.0
 10
130.4855977934618
 20
-67.15815215712438
 30
0.0
 10
130.4855977934618
 20
-67.15815215712438
 30
0.0
 10
130.4855977934618
 20
-67.15815215712438
 30
0.0
 10
130.5316122862043
 20
-53.11222824759152
 30
0.0
 10
130.5316122862043
 20
-53.11222824759152
 30
0.0
 10
130.5316122862043
 20
-53.11222824759152
 30
0.0
 10
130.6236412716884
 20
-52.31847824778996
 30
0.0
 10
131.4519021410467
 20
-51.9388586826674
 30
0.0
 10
131.4519021410467
 20
-51.9388586826674
 30
0.0
 10
182.493478215242
 20
-49.59211955281912
 30
0.0
 10
182.493478215242
 20
-49.59211955281912
 30
0.0
 10
182.493478215242
 20
-49.59211955281912
 30
0.0
 10
183.9314311134334
 20
-49.6496376687465
 30
0.0
 10
184.0579709684742
 20
-51.19112317560773
 30
0.0
 10
184.0579709684742
 20
-51.19112317560773
 30
0.0
 10
182.6430253166551
 20
-67.52626809906018
 30
0.0
 10
182.6430253166551
 20
-67.52626809906018
 30
0.0
 10
182.6430253166551
 20
-67.52626809906018
 30
0.0
 10
182.746557925325
 20
-67.75634056277063
 30
0.0
 10
182.746557925325
 20
-67.99791664966687
 30
0.0
 10
182.746557925325
 20
-67.99791664966687
 30
0.0
 10
182.4474637225014
 20
-70.79329708374991
 30
0.0
 10
182.4474637225014
 20
-70.79329708374991
 30
0.0
 10
182.4474637225014
 20
-70.79329708374991
 30
0.0
 10
182.9996376354067
 20
-70.87382244604855
 30
0.0
 10
182.8040760412531
 20
-71.52952896762378
 30
0.0
 10
182.8040760412531
 20
-71.52952896762378
 30
0.0
 10
183.7243658960954
 20
-71.55253621399506
 30
0.0
 10
183.7243658960954
 20
-71.55253621399506
 30
0.0
 10
183.7243658960954
 20
-71.55253621399506
 30
0.0
 10
184.4721014031545
 20
-72.18523548919901
 30
0.0
 10
183.7473731424664
 20
-73.16304345996911
 30
0.0
 10
183.7473731424664
 20
-73.16304345996911
 30
0.0
 10
182.6890398093977
 20
-73.18605070634039
 30
0.0
 10
182.6890398093977
 20
-73.18605070634039
 30
0.0
 10
182.6890398093977
 20
-73.18605070634039
 30
0.0
 10
181.3891303894327
 20
-80.85896737108948
 30
0.0
 10
181.3891303894327
 20
-80.85896737108948
 30
0.0
 10
181.3891303894327
 20
-80.85896737108948
 30
0.0
 10
188.7629528513575
 20
-81.12355070435667
 30
0.0
 10
188.7629528513575
 20
-81.12355070435667
 30
0.0
 10
188.7629528513575
 20
-81.12355070435667
 30
0.0
 10
189.7177535757563
 20
-83.02164852996886
 30
0.0
 10
189.7177535757563
 20
-83.02164852996886
 30
0.0
 10
189.7177535757563
 20
-83.02164852996886
 30
0.0
 10
178.6627716944599
 20
-136.0418477920763
 30
0.0
 10
178.6627716944599
 20
-136.0418477920763
 30
0.0
 10
178.6627716944599
 20
-136.0418477920763
 30
0.0
 10
179.9166666216836
 20
-136.927626777361
 30
0.0
 10
178.9733695204696
 20
-141.5980977906865
 30
0.0
 10
178.9733695204696
 20
-141.5980977906865
 30
0.0
 10
181.5386774908432
 20
-149.8116847451561
 30
0.0
 10
181.5386774908432
 20
-149.8116847451561
 30
0.0
 10
181.5386774908432
 20
-149.8116847451561
 30
0.0
 10
179.8124023797558
 20
-156.6716538140526
 30
0.0
 10
179.8124023797558
 20
-156.6716538140526
 30
0.0
 10
179.7898513512028
 20
-156.7612683588919
 30
0.0
 10
179.7315720503246
 20
-156.8387060422763
 30
0.0
 10
179.6493853599871
 20
-156.8809513197275
 30
0.0
 10
179.4406800368172
 20
-156.9882292043411
 30
0.0
 10
179.0008245607226
 20
-157.1594941090668
 30
0.0
 10
178.4902173466778
 20
-157.0359601056685
 30
0.0
 10
178.4902173466778
 20
-157.0359601056685
 30
0.0
 10
174.8205615504942
 20
-155.9431159030433
 30
0.0
 10
174.8205615504942
 20
-155.9431159030433
 30
0.0
  0
LWPOLYLINE
  5
7B
330
70
100
AcDbEntity
  8
レイヤー 1
 62
   250
420
  2299925
370
     9
100
AcDbPolyline
 90
        3
 70
     1
 43
0.0
 10
179.4389553366498
 20
-147.6780435610509
 10
178.9848731436557
 20
-149.765670252411
 10
178.9848731436557
 20
-148.2356883687353
  0
LWPOLYLINE
  5
7C
330
70
100
AcDbEntity
  8
レイヤー 1
 62
   250
420
  2299925
370
     9
100
AcDbPolyline
 90
        5
 70
     0
 43
0.0
 10
178.7004828947129
 20
-147.1610508144037
 10
179.2034419841811
 20
-146.4066122822359
 10
179.168931114624
 20
-146.7517209778014
 10
178.5132245930487
 20
-149.1214673540213
 10
178.5132245930487
 20
-148.6555706150096
  0
SPLINE
  5
7D
330
70
100
AcDbEntity
  8
レイヤー 1
 62
   250
420
  2299925
370
     9
100
AcDbSpline
210
0.0
220
0.0
230
1.0
 70
     8
 71
     3
 72
    26
 73
    22
 74
     0
 42
0.0000000001
 43
0.0000000001
 40
0.0
 40
0.0
 40
0.0
 40
0.0
 40
1.0
 40
1.0
 40
1.0
 40
2.0
 40
2.0
 40
2.0
 40
3.0
 40
3.0
 40
3.0
 40
4.0
 40
4.0
 40
4.0
 40
5.0
 40
5.0
 40
5.0
 40
6.0
 40
6.0
 40
6.0
 40
7.0
 40
7.0
 40
7.0
 40
7.0
 10
178.6466666220055
 20
-147.0487851294783
 30
0.0
 10
178.2670470568829
 20
-147.40539744823
 30
0.0
 10
178.1105977815552
 20
-148.0056159050245
 30
0.0
 10
178.1105977815552
 20
-148.0056159050245
 30
0.0
 10
177.9380444869604
 20
-148.7389674070523
 30
0.0
 10
177.9811814941317
 20
-148.9915092780601
 30
0.0
 10
178.0378003793534
 20
-149.077787954938
 30
0.0
 10
178.0717722634092
 20
-149.1295560036352
 30
0.0
 10
178.1105977815552
 20
-149.1214673540213
 30
0.0
 10
178.1105977815552
 20
-149.1214673540213
 30
0.0
 10
179.0999093755105
 20
-148.2241847455498
 30
0.0
 10
178.6627716944612
 20
-147.0278079342547
 30
0.0
 10
178.6627716944612
 20
-147.0278079342547
 30
0.0
 10
178.6627716944612
 20
-147.0278079342547
 30
0.0
 10
177.2823369121972
 20
-146.6251811227612
 30
0.0
 10
177.2823369121972
 20
-146.6251811227612
 30
0.0
 10
177.2823369121972
 20
-146.6251811227612
 30
0.0
 10
176.5921195210662
 20
-147.7295289485725
 30
0.0
 10
176.6956521297355
 20
-148.5980524990796
 30
0.0
 10
176.6956521297355
 20
-148.5980524990796
 30
0.0
 10
178.1105977815552
 20
-149.1214673540213
 30
0.0
 10
178.1105977815552
 20
-149.1214673540213
 30
0.0
  0
SPLINE
  5
7E
330
70
100
AcDbEntity
  8
レイヤー 1
 62
   250
420
  2299925
370
     9
100
AcDbSpline
210
0.0
220
0.0
230
1.0
 70
     9
 71
     3
 72
    11
 73
     7
 74
     0
 42
0.0000000001
 43
0.0000000001
 40
0.0
 40
0.0
 40
0.0
 40
0.0
 40
1.0
 40
1.0
 40
1.0
 40
2.0
 40
2.0
 40
2.0
 40
2.0
 10
178.5592390857913
 20
-147.5339673544181
 30
0.0
 10
178.5592390857913
 20
-147.5339673544181
 30
0.0
 10
178.616578893291
 20
-148.4099720778544
 30
0.0
 10
178.2371376365961
 20
-148.6958332961568
 30
0.0
 10
178.2371376365961
 20
-148.6958332961568
 30
0.0
 10
178.2566053066022
 20
-148.1489687477984
 30
0.0
 10
178.5592390857913
 20
-147.5339673544181
 30
0.0
  0
LWPOLYLINE
  5
7F
330
70
100
AcDbEntity
  8
レイヤー 1
 62
   250
420
  2299925
370
     9
100
AcDbPolyline
 90
        5
 70
     0
 43
0.0
 10
178.3291666220844
 20
-146.9305064548115
 10
178.3291666220844
 20
-146.2139265938808
 10
178.7957789694215
 20
-145.6157348745235
 10
178.7589806277695
 20
-145.7307744200902
 10
178.4162654833521
 20
-146.9559102893478
  0
SPLINE
  5
80
330
70
100
AcDbEntity
  8
レイヤー 1
 62
   250
420
  2299925
370
     9
100
AcDbSpline
210
0.0
220
0.0
230
1.0
 70
     8
 71
     3
 72
    14
 73
    10
 74
     0
 42
0.0000000001
 43
0.0000000001
 40
0.0
 40
0.0
 40
0.0
 40
0.0
 40
1.0
 40
1.0
 40
1.0
 40
2.0
 40
2.0
 40
2.0
 40
3.0
 40
3.0
 40
3.0
 40
3.0
 10
177.3197236875542
 20
-146.6251811227612
 30
0.0
 10
177.3197236875542
 20
-146.6251811227612
 30
0.0
 10
177.3887454266677
 20
-146.599297970591
 30
0.0
 10
177.1903079267173
 20
-146.4066122822359
 30
0.0
 10
177.1903079267173
 20
-146.4066122822359
 30
0.0
 10
176.3189084704128
 20
-147.1859827530534
 30
0.0
 10
176.5691122746985
 20
-148.5980524990796
 30
0.0
 10
176.5691122746985
 20
-148.5980524990796
 30
0.0
 10
176.6956521297355
 20
-148.5980524990796
 30
0.0
 10
176.6956521297355
 20
-148.5980524990796
 30
0.0
  0
SPLINE
  5
81
330
70
100
AcDbEntity
  8
レイヤー 1
 62
   250
420
  2299925
370
     9
100
AcDbSpline
210
0.0
220
0.0
230
1.0
 70
     8
 71
     3
 72
    14
 73
    10
 74
     0
 42
0.0000000001
 43
0.0000000001
 40
0.0
 40
0.0
 40
0.0
 40
0.0
 40
1.0
 40
1.0
 40
1.0
 40
2.0
 40
2.0
 40
2.0
 40
3.0
 40
3.0
 40
3.0
 40
3.0
 10
176.5239676517029
 20
-148.5980524990796
 30
0.0
 10
176.5239676517029
 20
-148.5980524990796
 30
0.0
 10
176.310280753024
 20
-148.5980524990796
 30
0.0
 10
176.310280753024
 20
-148.5980524990796
 30
0.0
 10
176.0945878182954
 20
-146.9702898183248
 30
0.0
 10
176.9276542052016
 20
-146.2398097460485
 30
0.0
 10
176.9276542052016
 20
-146.2398097460485
 30
0.0
 10
176.9276542052016
 20
-146.2398097460485
 30
0.0
 10
177.1903079267173
 20
-146.4066122822359
 30
0.0
 10
177.1903079267173
 20
-146.4066122822359
 30
0.0
  0
SPLINE
  5
82
330
70
100
AcDbEntity
  8
レイヤー 1
 62
   250
420
  2299925
370
     9
100
AcDbSpline
210
0.0
220
0.0
230
1.0
 70
     8
 71
     3
 72
    14
 73
    10
 74
     0
 42
0.0000000001
 43
0.0000000001
 40
0.0
 40
0.0
 40
0.0
 40
0.0
 40
1.0
 40
1.0
 40
1.0
 40
2.0
 40
2.0
 40
2.0
 40
3.0
 40
3.0
 40
3.0
 40
3.0
 10
176.9276542052016
 20
-146.2398097460485
 30
0.0
 10
176.9276542052016
 20
-146.2398097460485
 30
0.0
 10
176.7324608794712
 20
-146.0154890939304
 30
0.0
 10
176.7324608794712
 20
-146.0154890939304
 30
0.0
 10
175.7138122019304
 20
-146.9127717024012
 30
0.0
 10
176.1636095574089
 20
-148.8453803975712
 30
0.0
 10
176.1636095574089
 20
-148.8453803975712
 30
0.0
 10
176.1636095574089
 20
-148.8453803975712
 30
0.0
 10
176.310280753024
 20
-148.5980524990796
 30
0.0
 10
176.310280753024
 20
-148.5980524990796
 30
0.0
  0
SPLINE
  5
83
330
70
100
AcDbEntity
  8
レイヤー 1
 62
   250
420
  2299925
370
     9
100
AcDbSpline
210
0.0
220
0.0
230
1.0
 70
     8
 71
     3
 72
    14
 73
    10
 74
     0
 42
0.0000000001
 43
0.0000000001
 40
0.0
 40
0.0
 40
0.0
 40
0.0
 40
1.0
 40
1.0
 40
1.0
 40
2.0
 40
2.0
 40
2.0
 40
3.0
 40
3.0
 40
3.0
 40
3.0
 10
176.2746138322245
 20
-146.6849999633291
 30
0.0
 10
176.2562023462032
 20
-146.4923142749689
 30
0.0
 10
176.0869581344665
 20
-146.4255444837366
 30
0.0
 10
176.0869581344665
 20
-146.4255444837366
 30
0.0
 10
175.7332217215116
 20
-146.6613687590369
 30
0.0
 10
175.7926177096751
 20
-147.7640398181283
 30
0.0
 10
175.7926177096751
 20
-147.7640398181283
 30
0.0
 10
175.7926177096751
 20
-147.7640398181283
 30
0.0
 10
176.0331558176698
 20
-147.7640398181283
 30
0.0
 10
176.0331558176698
 20
-147.7640398181283
 30
0.0
  0
SPLINE
  5
84
330
70
100
AcDbEntity
  8
レイヤー 1
 62
   250
420
  2299925
370
     9
100
AcDbSpline
210
0.0
220
0.0
230
1.0
 70
     9
 71
     3
 72
    17
 73
    13
 74
     0
 42
0.0000000001
 43
0.0000000001
 40
0.0
 40
0.0
 40
0.0
 40
0.0
 40
1.0
 40
1.0
 40
1.0
 40
2.0
 40
2.0
 40
2.0
 40
3.0
 40
3.0
 40
3.0
 40
4.0
 40
4.0
 40
4.0
 40
4.0
 10
175.896150318345
 20
-145.3770380071341
 30
0.0
 10
175.896150318345
 20
-145.3770380071341
 30
0.0
 10
176.0983056465336
 20
-145.4719428984145
 30
0.0
 10
176.0317388519958
 20
-145.730774420089
 30
0.0
 10
176.0317388519958
 20
-145.730774420089
 30
0.0
 10
175.8128975770896
 20
-146.0246856173507
 30
0.0
 10
175.8271285792316
 20
-146.4813858329447
 30
0.0
 10
175.8271285792316
 20
-146.4813858329447
 30
0.0
 10
175.6373187966706
 20
-146.7402173546191
 30
0.0
 10
175.6373187966706
 20
-146.7402173546191
 30
0.0
 10
175.6373187966706
 20
-146.7402173546191
 30
0.0
 10
175.585552492336
 20
-145.7048912679213
 30
0.0
 10
175.896150318345
 20
-145.3770380071341
 30
0.0
  0
SPLINE
  5
85
330
70
100
AcDbEntity
  8
レイヤー 1
 62
   250
420
  2299925
370
     9
100
AcDbSpline
210
0.0
220
0.0
230
1.0
 70
     8
 71
     3
 72
    38
 73
    34
 74
     0
 42
0.0000000001
 43
0.0000000001
 40
0.0
 40
0.0
 40
0.0
 40
0.0
 40
1.0
 40
1.0
 40
1.0
 40
2.0
 40
2.0
 40
2.0
 40
3.0
 40
3.0
 40
3.0
 40
4.0
 40
4.0
 40
4.0
 40
5.0
 40
5.0
 40
5.0
 40
6.0
 40
6.0
 40
6.0
 40
7.0
 40
7.0
 40
7.0
 40
8.0
 40
8.0
 40
8.0
 40
9.0
 40
9.0
 40
9.0
 40
10.0
 40
10.0
 40
10.0
 40
11.0
 40
11.0
 40
11.0
 40
11.0
 10
177.443885862425
 20
-150.1654211581104
 30
0.0
 10
177.443885862425
 20
-150.1654211581104
 30
0.0
 10
177.1040307528256
 20
-150.1654211581104
 30
0.0
 10
177.1040307528256
 20
-150.1654211581104
 30
0.0
 10
177.1040307528256
 20
-150.1654211581104
 30
0.0
 10
177.0091258615451
 20
-150.3983695276179
 30
0.0
 10
177.0091258615451
 20
-150.3983695276179
 30
0.0
 10
177.0091258615451
 20
-150.3983695276179
 30
0.0
 10
177.3313407587002
 20
-150.5968070275683
 30
0.0
 10
177.3313407587002
 20
-150.5968070275683
 30
0.0
 10
177.3313407587002
 20
-150.5968070275683
 30
0.0
 10
177.4663948831699
 20
-150.0791439842187
 30
0.0
 10
177.4663948831699
 20
-150.0791439842187
 30
0.0
 10
177.4663948831699
 20
-150.0791439842187
 30
0.0
 10
176.9659872745967
 20
-148.9834238757969
 30
0.0
 10
176.9659872745967
 20
-148.9834238757969
 30
0.0
 10
176.9659872745967
 20
-148.9834238757969
 30
0.0
 10
176.8710823833162
 20
-148.9834238757969
 30
0.0
 10
176.8710823833162
 20
-148.9834238757969
 30
0.0
 10
176.8710823833162
 20
-148.9834238757969
 30
0.0
 10
176.8193160789835
 20
-149.0179347453539
 30
0.0
 10
176.8193160789835
 20
-149.0179347453539
 30
0.0
 10
176.4224410790827
 20
-149.6822689843179
 30
0.0
 10
175.788863871767
 20
-149.7901154516825
 30
0.0
 10
175.788863871767
 20
-149.7901154516825
 30
0.0
 10
175.788863871767
 20
-149.7901154516825
 30
0.0
 10
174.8608242316466
 20
-149.2595108322502
 30
0.0
 10
175.0765171663752
 20
-146.8437499632884
 30
0.0
 10
175.0765171663752
 20
-146.8437499632884
 30
0.0
 10
178.1911231438567
 20
-136.5249999658681
 30
0.0
 10
178.1911231438567
 20
-136.5249999658681
 30
0.0
 10
178.1911231438567
 20
-136.5249999658681
 30
0.0
 10
178.439101891785
 20
-135.9024424694406
 30
0.0
 10
178.6720502612924
 20
-135.9973473607217
 30
0.0
  0
LWPOLYLINE
  5
86
330
70
100
AcDbEntity
  8
レイヤー 1
 62
   250
420
  2299925
370
     9
100
AcDbPolyline
 90
        1
 70
     0
 43
0.0
 10
179.5888133608983
 20
-136.5940217049816
  0
SPLINE
  5
87
330
70
100
AcDbEntity
  8
レイヤー 1
 62
   250
420
  2299925
370
     9
100
AcDbSpline
210
0.0
220
0.0
230
1.0
 70
     8
 71
     3
 72
    20
 73
    16
 74
     0
 42
0.0000000001
 43
0.0000000001
 40
0.0
 40
0.0
 40
0.0
 40
0.0
 40
1.0
 40
1.0
 40
1.0
 40
2.0
 40
2.0
 40
2.0
 40
3.0
 40
3.0
 40
3.0
 40
4.0
 40
4.0
 40
4.0
 40
5.0
 40
5.0
 40
5.0
 40
5.0
 10
178.5879981437575
 20
-135.9852074016114
 30
0.0
 10
178.0271965134634
 20
-135.9394904634577
 30
0.0
 10
177.7769927091778
 20
-136.5940217049816
 30
0.0
 10
177.7769927091778
 20
-136.5940217049816
 30
0.0
 10
177.7769927091778
 20
-136.5940217049816
 30
0.0
 10
174.6278758621379
 20
-146.869633115458
 30
0.0
 10
174.6278758621379
 20
-146.869633115458
 30
0.0
 10
174.6278758621379
 20
-146.869633115458
 30
0.0
 10
174.2482562970146
 20
-147.7755434413182
 30
0.0
 10
174.7314084708071
 20
-148.8971467019071
 30
0.0
 10
174.7314084708071
 20
-148.8971467019071
 30
0.0
 10
174.7075213312642
 20
-148.9834238757943
 30
0.0
 10
175.044002309441
 20
-149.4148097452553
 30
0.0
 10
175.044002309441
 20
-149.4148097452553
 30
0.0
 10
175.1973052098214
 20
-149.6908967017086
 30
0.0
 10
175.788863871767
 20
-149.7901154516825
 30
0.0
  0
SPLINE
  5
88
330
70
100
AcDbEntity
  8
レイヤー 1
 62
   250
420
  2299925
370
     9
100
AcDbSpline
210
0.0
220
0.0
230
1.0
 70
     9
 71
     3
 72
    17
 73
    13
 74
     0
 42
0.0000000001
 43
0.0000000001
 40
0.0
 40
0.0
 40
0.0
 40
0.0
 40
1.0
 40
1.0
 40
1.0
 40
2.0
 40
2.0
 40
2.0
 40
3.0
 40
3.0
 40
3.0
 40
4.0
 40
4.0
 40
4.0
 40
4.0
 10
178.2699073301633
 20
-138.9062499652734
 30
0.0
 10
178.2514384020149
 20
-139.1656765517911
 30
0.0
 10
178.1569872092856
 20
-139.4977943919376
 30
0.0
 10
178.2774040624185
 20
-139.4497999054587
 30
0.0
 10
178.3641881708766
 20
-139.4152089936021
 30
0.0
 10
178.4432826015303
 20
-139.1140317960614
 30
0.0
 10
178.5879981437575
 20
-138.8091623774635
 30
0.0
 10
178.7645915851467
 20
-138.4371351287501
 30
0.0
 10
178.8010908739466
 20
-138.1734356911211
 30
0.0
 10
178.5880009522605
 20
-138.1643169540085
 30
0.0
 10
178.4584868938619
 20
-138.158772503462
 30
0.0
 10
178.2976534499577
 20
-138.5165099062142
 30
0.0
 10
178.2699073301633
 20
-138.9062499652734
 30
0.0
  0
SPLINE
  5
89
330
70
100
AcDbEntity
  8
レイヤー 1
 62
   250
420
  2299925
370
     9
100
AcDbSpline
210
0.0
220
0.0
230
1.0
 70
     9
 71
     3
 72
    17
 73
    13
 74
     0
 42
0.0000000001
 43
0.0000000001
 40
0.0
 40
0.0
 40
0.0
 40
0.0
 40
1.0
 40
1.0
 40
1.0
 40
2.0
 40
2.0
 40
2.0
 40
3.0
 40
3.0
 40
3.0
 40
4.0
 40
4.0
 40
4.0
 40
4.0
 10
178.4389889908684
 20
-139.7632698925951
 30
0.0
 10
178.3895606438078
 20
-140.152955128007
 30
0.0
 10
178.3877613064437
 20
-140.4592390953195
 30
0.0
 10
178.4799711384077
 20
-140.4592390953195
 30
0.0
 10
178.5721809703722
 20
-140.4592390953195
 30
0.0
 10
178.6637425503309
 20
-140.1546648756397
 30
0.0
 10
178.7690050827396
 20
-139.7949048563574
 30
0.0
 10
178.881340534989
 20
-139.4109714325401
 30
0.0
 10
178.8365964131835
 20
-139.0673006898707
 30
0.0
 10
178.744386581219
 20
-139.0673006898707
 30
0.0
 10
178.652176749255
 20
-139.0673006898707
 30
0.0
 10
178.4861568331163
 20
-139.3914061179934
 30
0.0
 10
178.4389889908684
 20
-139.7632698925951
 30
0.0
  0
SPLINE
  5
8A
330
70
100
AcDbEntity
  8
レイヤー 1
 62
   250
420
  2299925
370
     9
100
AcDbSpline
210
0.0
220
0.0
230
1.0
 70
    11
 71
     3
 72
    17
 73
    13
 74
     0
 42
0.0000000001
 43
0.0000000001
 40
0.0
 40
0.0
 40
0.0
 40
0.0
 40
1.0
 40
1.0
 40
1.0
 40
2.0
 40
2.0
 40
2.0
 40
3.0
 40
3.0
 40
3.0
 40
4.0
 40
4.0
 40
4.0
 40
4.0
 10
177.971497110554
 20
-138.0038297228927
 30
0.0
 10
177.971497110554
 20
-138.3723197107559
 30
0.0
 10
177.9073099990791
 20
-139.0267159671888
 30
0.0
 10
177.96680249174
 20
-139.039979584807
 30
0.0
 10
177.9931144085086
 20
-139.0458470130553
 30
0.0
 10
178.1618103429649
 20
-138.3971402140173
 30
0.0
 10
178.2779315926647
 20
-138.0089640802167
 30
0.0
 10
178.3835345352109
 20
-137.6559386862891
 30
0.0
 10
178.3118030563856
 20
-137.6293477916794
 30
0.0
 10
178.2508398216023
 20
-137.6293477916794
 30
0.0
 10
178.1898765868196
 20
-137.6293477916794
 30
0.0
 10
177.971497110554
 20
-137.6353397350296
 30
0.0
 10
177.971497110554
 20
-138.0038297228927
 30
0.0
  0
SPLINE
  5
8B
330
70
100
AcDbEntity
  8
レイヤー 1
 62
   250
420
  2299925
370
     9
100
AcDbSpline
210
0.0
220
0.0
230
1.0
 70
     9
 71
     3
 72
    17
 73
    13
 74
     0
 42
0.0000000001
 43
0.0000000001
 40
0.0
 40
0.0
 40
0.0
 40
0.0
 40
1.0
 40
1.0
 40
1.0
 40
2.0
 40
2.0
 40
2.0
 40
3.0
 40
3.0
 40
3.0
 40
4.0
 40
4.0
 40
4.0
 40
4.0
 10
177.5584238686557
 20
-143.0820651816198
 30
0.0
 10
177.5584238686557
 20
-143.9175209299651
 30
0.0
 10
177.6641649594342
 20
-144.6465579348519
 30
0.0
 10
177.7654890859929
 20
-144.6465579348519
 30
0.0
 10
177.8668132125516
 20
-144.6465579348519
 30
0.0
 10
178.9848731436557
 20
-144.0325571618205
 30
0.0
 10
178.9848731436557
 20
-143.1971014134751
 30
0.0
 10
178.9848731436557
 20
-142.3616456651304
 30
0.0
 10
178.352163948161
 20
-141.5175724283882
 30
0.0
 10
178.2508398216023
 20
-141.5175724283882
 30
0.0
 10
178.1495156950436
 20
-141.5175724283882
 30
0.0
 10
177.5584238686557
 20
-142.246609433275
 30
0.0
 10
177.5584238686557
 20
-143.0820651816198
 30
0.0
  0
SPLINE
  5
8C
330
70
100
AcDbEntity
  8
レイヤー 1
 62
   250
420
  2299925
370
     9
100
AcDbSpline
210
0.0
220
0.0
230
1.0
 70
     9
 71
     3
 72
    17
 73
    13
 74
     0
 42
0.0000000001
 43
0.0000000001
 40
0.0
 40
0.0
 40
0.0
 40
0.0
 40
1.0
 40
1.0
 40
1.0
 40
2.0
 40
2.0
 40
2.0
 40
3.0
 40
3.0
 40
3.0
 40
4.0
 40
4.0
 40
4.0
 40
4.0
 10
178.4799711384077
 20
-143.1510869207332
 30
0.0
 10
178.4799711384077
 20
-143.4782806168534
 30
0.0
 10
178.460693034131
 20
-143.818297065494
 30
0.0
 10
178.5358914623424
 20
-143.818297065494
 30
0.0
 10
178.6110898905538
 20
-143.818297065494
 30
0.0
 10
178.7589806277695
 20
-143.5530541675591
 30
0.0
 10
178.7589806277695
 20
-143.2258604714388
 30
0.0
 10
178.7589806277695
 20
-142.8986667753193
 30
0.0
 10
178.6935669616961
 20
-142.6334238773844
 30
0.0
 10
178.6183685334846
 20
-142.6334238773844
 30
0.0
 10
178.5431701052733
 20
-142.6334238773844
 30
0.0
 10
178.4799711384077
 20
-142.8238932246137
 30
0.0
 10
178.4799711384077
 20
-143.1510869207332
 30
0.0
  0
SPLINE
  5
8D
330
70
100
AcDbEntity
  8
レイヤー 1
 62
   250
420
  2299925
370
     9
100
AcDbSpline
210
0.0
220
0.0
230
1.0
 70
     8
 71
     3
 72
    14
 73
    10
 74
     0
 42
0.0000000001
 43
0.0000000001
 40
0.0
 40
0.0
 40
0.0
 40
0.0
 40
1.0
 40
1.0
 40
1.0
 40
2.0
 40
2.0
 40
2.0
 40
3.0
 40
3.0
 40
3.0
 40
3.0
 10
177.7654844051571
 20
-144.6465541901838
 30
0.0
 10
177.7654844051571
 20
-144.6465541901838
 30
0.0
 10
177.5052182071699
 20
-145.4098581586345
 30
0.0
 10
177.3313377784753
 20
-144.2899437437669
 30
0.0
 10
177.0110946212746
 20
-142.2273543108244
 30
0.0
 10
177.8313980800099
 20
-141.533542164105
 30
0.0
 10
177.8313980800099
 20
-141.533542164105
 30
0.0
 10
177.8313980800099
 20
-141.533542164105
 30
0.0
 10
178.132416206813
 20
-141.5865941675011
 30
0.0
 10
178.132416206813
 20
-141.5865941675011
 30
0.0
  0
LWPOLYLINE
  5
8E
330
70
100
AcDbEntity
  8
レイヤー 1
 62
   250
420
  2299925
370
     9
100
AcDbPolyline
 90
        1
 70
     0
 43
0.0
 10
177.9995342049834
 20
-141.5406047038503
  0
SPLINE
  5
8F
330
70
100
AcDbEntity
  8
レイヤー 1
 62
   250
420
  2299925
370
     9
100
AcDbSpline
210
0.0
220
0.0
230
1.0
 70
     8
 71
     3
 72
    20
 73
    16
 74
     0
 42
0.0000000001
 43
0.0000000001
 40
0.0
 40
0.0
 40
0.0
 40
0.0
 40
1.0
 40
1.0
 40
1.0
 40
2.0
 40
2.0
 40
2.0
 40
3.0
 40
3.0
 40
3.0
 40
4.0
 40
4.0
 40
4.0
 40
5.0
 40
5.0
 40
5.0
 40
5.0
 10
177.4781032076893
 20
-144.8263146026583
 30
0.0
 10
177.4553006626504
 20
-144.9485531545372
 30
0.0
 10
177.2637575632996
 20
-145.118206485459
 30
0.0
 10
177.2637575632996
 20
-145.118206485459
 30
0.0
 10
176.9365054089385
 20
-145.3401920229277
 30
0.0
 10
176.8236299376789
 20
-144.3589673552144
 30
0.0
 10
176.8236299376789
 20
-144.3589673552144
 30
0.0
 10
176.4117973831734
 20
-141.9786150126947
 30
0.0
 10
177.6432630896481
 20
-141.4255434429025
 30
0.0
 10
177.6432630896481
 20
-141.4255434429025
 30
0.0
 10
177.6432630896481
 20
-141.4255434429025
 30
0.0
 10
177.8352039283695
 20
-141.3033174465557
 30
0.0
 10
177.8977807526284
 20
-141.3608355624837
 30
0.0
 10
177.8977807526284
 20
-141.3608355624837
 30
0.0
 10
177.9969995026037
 20
-141.3956509397165
 30
0.0
 10
177.9495470569631
 20
-141.533542164105
 30
0.0
  0
SPLINE
  5
90
330
70
100
AcDbEntity
  8
レイヤー 1
 62
   250
420
  2299925
370
     9
100
AcDbSpline
210
0.0
220
0.0
230
1.0
 70
     8
 71
     3
 72
    14
 73
    10
 74
     0
 42
0.0000000001
 43
0.0000000001
 40
0.0
 40
0.0
 40
0.0
 40
0.0
 40
1.0
 40
1.0
 40
1.0
 40
2.0
 40
2.0
 40
2.0
 40
3.0
 40
3.0
 40
3.0
 40
3.0
 10
178.3421081981672
 20
-141.533542164105
 30
0.0
 10
178.3421081981672
 20
-141.533542164105
 30
0.0
 10
178.3896575386102
 20
-140.9288760715148
 30
0.0
 10
178.7344499661684
 20
-140.4974902020569
 30
0.0
 10
178.7344499661684
 20
-140.4974902020569
 30
0.0
 10
178.7864356437092
 20
-140.7741507800252
 30
0.0
 10
178.7044723285122
 20
-141.1192594755907
 30
0.0
 10
178.7044723285122
 20
-141.1192594755907
 30
0.0
 10
178.6219442611526
 20
-141.4595833056592
 30
0.0
 10
178.4364483372858
 20
-141.6537069469149
 30
0.0
  0
LINE
  5
91
330
70
100
AcDbEntity
  8
レイヤー 1
 62
   250
420
  2299925
370
     9
100
AcDbLine
 10
177.3313407587002
 20
-150.5968070275683
 30
0.0
 11
179.8124023797558
 21
-156.6716538140526
 31
0.0
  0
LINE
  5
92
330
70
100
AcDbEntity
  8
レイヤー 1
 62
   250
420
  2299925
370
     9
100
AcDbLine
 10
176.6381340138152
 20
-150.9620470637093
 30
0.0
 11
179.0423912595908
 21
-156.6103260478047
 31
0.0
  0
LINE
  5
93
330
70
100
AcDbEntity
  8
レイヤー 1
 62
   250
420
  2299925
370
     9
100
AcDbLine
 10
174.620662898518
 20
-148.5980524990796
 30
0.0
 11
170.0810687980597
 21
-172.1402173482692
 31
0.0
  0
LWPOLYLINE
  5
94
330
70
100
AcDbEntity
  8
レイヤー 1
 62
   250
420
  2299925
370
     9
100
AcDbPolyline
 90
        4
 70
     0
 43
0.0
 10
169.0572463345512
 20
-170.4376811168125
 10
105.4652173649401
 20
-149.3630434409245
 10
122.0534419984737
 20
-79.23695650193057
 10
187.1409419822031
 20
-82.20489128379796
  0
LINE
  5
95
330
70
100
AcDbEntity
  8
レイヤー 1
 62
   250
420
  2299925
370
     9
100
AcDbLine
 10
175.6340834026504
 20
-142.7024456165049
 30
0.0
 11
188.7629528513575
 21
-81.12355070435667
 31
0.0
  0
LINE
  5
96
330
70
100
AcDbEntity
  8
レイヤー 1
 62
   250
420
  2299925
370
     9
100
AcDbLine
 10
145.658175691166
 20
-90.28674682851573
 30
0.0
 11
140.2406702547935
 21
-89.91231881809992
 31
0.0
  0
LINE
  5
97
330
70
100
AcDbEntity
  8
レイヤー 1
 62
   250
420
  2299925
370
     9
100
AcDbLine
 10
139.9623500722098
 20
-89.85990076626981
 30
0.0
 11
129.6515851125149
 21
-89.07255432555777
 31
0.0
  0
LINE
  5
98
330
70
100
AcDbEntity
  8
レイヤー 1
 62
   250
420
  2299925
370
     9
100
AcDbLine
 10
129.3064764169491
 20
-89.07255432555777
 30
0.0
 11
124.6302535920311
 21
-88.71019019521371
 31
0.0
  0
LWPOLYLINE
  5
99
330
70
100
AcDbEntity
  8
レイヤー 1
 62
   250
420
  2299925
370
     9
100
AcDbPolyline
 90
        8
 70
     0
 43
0.0
 10
124.3541666355784
 20
-88.71019019521371
 10
122.0246829405084
 20
-88.48586954309601
 10
123.2613224329526
 20
-83.38976447190596
 10
125.0903985194517
 20
-81.79076084911704
 10
148.5000119155931
 20
-83.05615939952529
 10
150.0187499624946
 20
-85.03478258743646
 10
148.7073369193435
 20
-90.55652171648969
 10
145.9643730816177
 20
-90.30617150371051
  0
LINE
  5
9A
330
70
100
AcDbEntity
  8
レイヤー 1
 62
   250
420
  2299925
370
     9
100
AcDbLine
 10
124.4576992442487
 20
-89.27961954289822
 30
0.0
 11
129.1631662976123
 21
-89.63127367981099
 31
0.0
  0
LINE
  5
9B
330
70
100
AcDbEntity
  8
レイヤー 1
 62
   250
420
  2299925
370
     9
100
AcDbLine
 10
129.5307970690674
 20
-89.64198367324257
 30
0.0
 11
139.8251094441197
 21
-90.46065146018614
 31
0.0
  0
LINE
  5
9C
330
70
100
AcDbEntity
  8
レイヤー 1
 62
   250
420
  2299925
370
     9
100
AcDbLine
 10
140.1083785881628
 20
-90.45298910782234
 30
0.0
 11
145.5316374341951
 21
-90.84675709924979
 31
0.0
  0
LWPOLYLINE
  5
9D
330
70
100
AcDbEntity
  8
レイヤー 1
 62
   250
420
  2299925
370
     9
100
AcDbPolyline
 90
        4
 70
     0
 43
0.0
 10
145.8442258519965
 20
-90.83789398595792
 10
148.5000119155931
 20
-91.02241845550588
 10
146.8214231081094
 20
-98.48663463366923
 10
144.1123198479171
 20
-98.19329224243803
  0
LINE
  5
9E
330
70
100
AcDbEntity
  8
レイヤー 1
 62
   250
420
  2299925
370
     9
100
AcDbLine
 10
143.8528079350539
 20
-98.20067932326644
 30
0.0
 11
138.5109518731395
 21
-97.6480733277882
 31
0.0
  0
LINE
  5
9F
330
70
100
AcDbEntity
  8
レイヤー 1
 62
   250
420
  2299925
370
     9
100
AcDbLine
 10
138.1843573222171
 20
-97.64280290829162
 30
0.0
 11
127.8570198955732
 21
-96.5786684541165
 31
0.0
  0
LINE
  5
A0
330
70
100
AcDbEntity
  8
レイヤー 1
 62
   250
420
  2299925
370
     9
100
AcDbLine
 10
127.4946557652292
 20
-96.5786684541165
 30
0.0
 11
122.8356883750894
 21
-96.14728258465898
 31
0.0
  0
LWPOLYLINE
  5
A1
330
70
100
AcDbEntity
  8
レイヤー 1
 62
   250
420
  2299925
370
     9
100
AcDbPolyline
 90
        4
 70
     0
 43
0.0
 10
122.6048033615306
 20
-96.15668995834306
 10
120.1956068540103
 20
-95.92296193254126
 10
121.8176177231695
 20
-89.07255432555777
 10
124.2333785921306
 20
-89.27961954289822
  0
LINE
  5
A2
330
70
100
AcDbEntity
  8
レイヤー 1
 62
   250
420
  2299925
370
     9
100
AcDbLine
 10
122.7494112011977
 20
-96.45788041066774
 30
0.0
 11
127.4256340261154
 21
-96.88926628012461
 31
0.0
  0
LINE
  5
A3
330
70
100
AcDbEntity
  8
レイヤー 1
 62
   250
420
  2299925
370
     9
100
AcDbLine
 10
127.8570198955732
 20
-96.89788034841441
 30
0.0
 11
138.1393878388004
 21
-97.92437632552747
 31
0.0
  0
LINE
  5
A4
330
70
100
AcDbEntity
  8
レイヤー 1
 62
   250
420
  2299925
370
     9
100
AcDbLine
 10
138.4301552067791
 20
-98.00174328005319
 30
0.0
 11
143.79450944231
 21
-98.53462589341262
 31
0.0
  0
LWPOLYLINE
  5
A5
330
70
100
AcDbEntity
  8
レイヤー 1
 62
   250
420
  2299925
370
     9
100
AcDbPolyline
 90
        4
 70
     0
 43
0.0
 10
144.07712858717
 20
-98.59755432317619
 10
146.7172101082485
 20
-98.85638584485064
 10
145.0434329347537
 20
-106.6213314950832
 10
142.3295017778706
 20
-106.2126071401606
  0
LINE
  5
A6
330
70
100
AcDbEntity
  8
レイヤー 1
 62
   250
420
  2299925
370
     9
100
AcDbLine
 10
142.0596156112626
 20
-106.2126071401606
 30
0.0
 11
136.7134968852998
 21
-105.5160442278626
 31
0.0
  0
LINE
  5
A7
330
70
100
AcDbEntity
  8
レイヤー 1
 62
   250
420
  2299925
370
     9
100
AcDbLine
 10
136.3294383717147
 20
-105.4997282344937
 30
0.0
 11
126.0969655481861
 21
-104.1538043217871
 31
0.0
  0
LINE
  5
A8
330
70
100
AcDbEntity
  8
レイヤー 1
 62
   250
420
  2299925
370
     9
100
AcDbLine
 10
125.7803266421894
 20
-104.1657798484649
 30
0.0
 11
121.16386706727
 21
-103.4767565669324
 31
0.0
  0
LWPOLYLINE
  5
A9
330
70
100
AcDbEntity
  8
レイヤー 1
 62
   250
420
  2299925
370
     9
100
AcDbPolyline
 90
        4
 70
     0
 43
0.0
 10
120.88315996082
 20
-103.4754424987184
 10
118.4873188109574
 20
-103.1357336698672
 10
120.1093296801186
 20
-96.23355975855004
 10
122.4733242447451
 20
-96.45788041066774
  0
LINE
  5
AA
330
70
100
AcDbEntity
  8
レイヤー 1
 62
   250
420
  2299925
370
     9
100
AcDbLine
 10
121.0324954407564
 20
-103.9646550050864
 30
0.0
 11
125.6652038055475
 21
-104.6604097303874
 31
0.0
  0
LINE
  5
AB
330
70
100
AcDbEntity
  8
レイヤー 1
 62
   250
420
  2299925
370
     9
100
AcDbLine
 10
126.0183757184015
 20
-104.6822803960444
 30
0.0
 11
136.2663202434721
 21
-106.0387285321182
 31
0.0
  0
LWPOLYLINE
  5
AC
330
70
100
AcDbEntity
  8
レイヤー 1
 62
   250
420
  2299925
370
     9
100
AcDbPolyline
 90
        1
 70
     0
 43
0.0
 10
136.5882698933892
 20
-106.0173912778426
  0
LINE
  5
AD
330
70
100
AcDbEntity
  8
レイヤー 1
 62
   250
420
  2299925
370
     9
100
AcDbLine
 10
136.5882698933892
 20
-106.0864130169567
 30
0.0
 11
141.8856883703282
 21
-106.7248641037441
 31
0.0
  0
LWPOLYLINE
  5
AE
330
70
100
AcDbEntity
  8
レイヤー 1
 62
   250
420
  2299925
370
     9
100
AcDbPolyline
 90
        5
 70
     0
 43
0.0
 10
142.2407528399093
 20
-106.7853912419143
 10
144.8536231521917
 20
-107.1562499732109
 10
143.6284872829327
 20
-112.7297554066001
 10
141.5060688052024
 20
-114.3172554062032
 10
124.3541666355778
 20
-111.6081521460112
  0
LINE
  5
AF
330
70
100
AcDbEntity
  8
レイヤー 1
 62
   250
420
  2299925
370
     9
100
AcDbLine
 10
124.0487895687711
 20
-111.6053982869293
 30
0.0
 11
119.3846014194296
 21
-110.8661684505443
 31
0.0
  0
LWPOLYLINE
  5
B0
330
70
100
AcDbEntity
  8
レイヤー 1
 62
   250
420
  2299925
370
     9
100
AcDbPolyline
 90
        5
 70
     0
 43
0.0
 10
119.2293025064273
 20
-110.7971467114301
 10
118.2802535936186
 20
-110.6418477984256
 10
117.1413948982512
 20
-108.795516277148
 10
118.4873188109574
 20
-103.5843749741032
 10
120.747780766915
 20
-103.8949728001123
  0
LINE
  5
B1
330
70
100
AcDbEntity
  8
レイヤー 1
 62
   250
420
  2299925
370
     9
100
AcDbLine
 10
134.7764492416686
 20
-113.8168477976325
 30
0.0
 11
140.1439475236065
 21
-114.6906265951835
 31
0.0
  0
LWPOLYLINE
  5
B2
330
70
100
AcDbEntity
  8
レイヤー 1
 62
   250
420
  2299925
370
     9
100
AcDbPolyline
 90
        5
 70
     0
 43
0.0
 10
140.4017209793927
 20
-114.7658967104373
 10
141.3507698921992
 20
-114.9039401886643
 10
142.6621829353496
 20
-117.285190188069
 10
141.4370470660902
 20
-122.9449727953498
 10
138.7089107500335
 20
-122.4158793426531
  0
LINE
  5
B3
330
70
100
AcDbEntity
  8
レイヤー 1
 62
   250
420
  2299925
370
     9
100
AcDbLine
 10
138.4126480576046
 20
-122.3527005472496
 30
0.0
 11
133.0509057638389
 21
-121.3229619261903
 31
0.0
  0
LINE
  5
B4
330
70
100
AcDbEntity
  8
レイヤー 1
 62
   250
420
  2299925
370
     9
100
AcDbLine
 10
132.7884740783237
 20
-121.2624893536761
 30
0.0
 11
122.576856853414
 21
-119.3903532310216
 31
0.0
  0
LINE
  5
B5
330
70
100
AcDbEntity
  8
レイヤー 1
 62
   250
420
  2299925
370
     9
100
AcDbLine
 10
122.2535583607274
 20
-119.3186811277633
 30
0.0
 11
117.6488344324546
 21
-118.4046350183992
 31
0.0
  0
LWPOLYLINE
  5
B6
330
70
100
AcDbEntity
  8
レイヤー 1
 62
   250
420
  2299925
370
     9
100
AcDbPolyline
 90
        5
 70
     0
 43
0.0
 10
117.3661659131112
 20
-118.4014623187704
 10
115.0103833280743
 20
-117.887022161618
 10
116.34764489845
 20
-112.4364130153705
 10
118.0386775067224
 20
-111.2285325808886
 10
134.4894201347074
 20
-113.8168477976325
  0
LINE
  5
B7
330
70
100
AcDbEntity
  8
レイヤー 1
 62
   250
420
  2299925
370
     9
100
AcDbLine
 10
114.9844655509645
 20
-118.3895380138822
 30
0.0
 11
117.2579862967288
 21
-118.8602278514519
 31
0.0
  0
LINE
  5
B8
330
70
100
AcDbEntity
  8
レイヤー 1
 62
   250
420
  2299925
370
     9
100
AcDbLine
 10
117.5385442815031
 20
-118.8730226946585
 30
0.0
 11
122.1799818535135
 21
-119.752717361366
 31
0.0
  0
LINE
  5
B9
330
70
100
AcDbEntity
  8
レイヤー 1
 62
   250
420
  2299925
370
     9
100
AcDbLine
 10
122.4728596422727
 20
-119.851620239427
 30
0.0
 11
132.6813286813578
 21
-121.7315025932163
 31
0.0
  0
LINE
  5
BA
330
70
100
AcDbEntity
  8
レイヤー 1
 62
   250
420
  2299925
370
     9
100
AcDbLine
 10
133.0509057638389
 20
-121.823369534761
 30
0.0
 11
138.295254618277
 21
-122.8722393279616
 31
0.0
  0
LWPOLYLINE
  5
BB
330
70
100
AcDbEntity
  8
レイヤー 1
 62
   250
420
  2299925
370
     9
100
AcDbPolyline
 90
        4
 70
     0
 43
0.0
 10
138.5899003276716
 20
-122.9449727953498
 10
141.2990035878652
 20
-123.4626358387
 10
139.6079709795912
 20
-131.210326054156
 10
136.8601238314279
 20
-130.597853846809
  0
LINE
  5
BC
330
70
100
AcDbEntity
  8
レイヤー 1
 62
   250
420
  2299925
370
     9
100
AcDbLine
 10
136.5696250475559
 20
-130.5092204767348
 30
0.0
 11
131.2830631454323
 21
-129.2865947724441
 31
0.0
  0
LINE
  5
BD
330
70
100
AcDbEntity
  8
レイヤー 1
 62
   250
420
  2299925
370
     9
100
AcDbLine
 10
130.9457427208869
 20
-129.2604619242091
 30
0.0
 11
120.809112352381
 21
-126.9698923081375
 31
0.0
  0
LINE
  5
BE
330
70
100
AcDbEntity
  8
レイヤー 1
 62
   250
420
  2299925
370
     9
100
AcDbLine
 10
120.4199275061273
 20
-126.9482336639192
 30
0.0
 11
115.8711464554
 21
-125.954240613311
 31
0.0
  0
LWPOLYLINE
  5
BF
330
70
100
AcDbEntity
  8
レイヤー 1
 62
   250
420
  2299925
370
     9
100
AcDbPolyline
 90
        3
 70
     0
 43
0.0
 10
115.5594052571794
 20
-125.8836157737149
 10
113.1899003340216
 20
-125.3952445338725
 10
114.9844655509645
 20
-118.3895380138822
  0
LINE
  5
C0
330
70
100
AcDbEntity
  8
レイヤー 1
 62
   250
420
  2299925
370
     9
100
AcDbLine
 10
115.7491985629522
 20
-126.4721371750222
 30
0.0
 11
120.3628472031347
 21
-127.4421973988125
 31
0.0
  0
LINE
  5
C1
330
70
100
AcDbEntity
  8
レイヤー 1
 62
   250
420
  2299925
370
     9
100
AcDbLine
 10
120.7132698973582
 20
-127.5346565400809
 30
0.0
 11
130.8076992426595
 21
-129.7608695327792
 31
0.0
  0
LINE
  5
C2
330
70
100
AcDbEntity
  8
レイヤー 1
 62
   250
420
  2299925
370
     9
100
AcDbLine
 10
131.143407400746
 20
-129.8979076245892
 30
0.0
 11
136.4394246935753
 21
-131.0854377981016
 31
0.0
  0
LWPOLYLINE
  5
C3
330
70
100
AcDbEntity
  8
レイヤー 1
 62
   250
420
  2299925
370
     9
100
AcDbPolyline
 90
        4
 70
     0
 43
0.0
 10
136.7217305127521
 20
-131.210326054156
 10
139.4441344340546
 20
-131.8297312530961
 10
137.8479166322034
 20
-139.4411684434018
 10
134.9662590242283
 20
-138.7854619218272
  0
LINE
  5
C4
330
70
100
AcDbEntity
  8
レイヤー 1
 62
   250
420
  2299925
370
     9
100
AcDbLine
 10
134.7101358192279
 20
-138.7386136350545
 30
0.0
 11
129.4246116132528
 21
-137.4215648681126
 31
0.0
  0
LINE
  5
C5
330
70
100
AcDbEntity
  8
レイヤー 1
 62
   250
420
  2299925
370
     9
100
AcDbLine
 10
129.1166666343859
 20
-137.3187499656722
 30
0.0
 11
118.9187046804137
 21
-134.7476901837059
 31
0.0
  0
LWPOLYLINE
  5
C6
330
70
100
AcDbEntity
  8
レイヤー 1
 62
   250
420
  2299925
370
     9
100
AcDbPolyline
 90
        6
 70
     0
 43
0.0
 10
118.701063628866
 20
-134.6527852924261
 10
114.0354166381562
 20
-133.5570651840036
 10
113.6730525078121
 20
-133.4535325753337
 10
111.3608242475206
 20
-132.9186140972065
 10
113.0173459862379
 20
-125.8611412728861
 10
115.4817816714272
 20
-126.3905385700563
  0
LINE
  5
C7
330
70
100
AcDbEntity
  8
レイヤー 1
 62
   250
420
  2299925
370
     9
100
AcDbLine
 10
113.948318441533
 20
-134.1202367380063
 30
0.0
 11
118.5908514196261
 21
-135.2135869227208
 31
0.0
  0
LINE
  5
C8
330
70
100
AcDbEntity
  8
レイヤー 1
 62
   250
420
  2299925
370
     9
100
AcDbLine
 10
118.8764832541104
 20
-135.2385637662256
 30
0.0
 11
128.9932616604169
 21
-137.8754743373756
 31
0.0
  0
LINE
  5
C9
330
70
100
AcDbEntity
  8
レイヤー 1
 62
   250
420
  2299925
370
     9
100
AcDbLine
 10
129.3582427212824
 20
-137.9744564872474
 30
0.0
 11
134.5761001606616
 21
-139.3318045580101
 31
0.0
  0
LWPOLYLINE
  5
CA
330
70
100
AcDbEntity
  8
レイヤー 1
 62
   250
420
  2299925
370
     9
100
AcDbPolyline
 90
        4
 70
     0
 43
0.0
 10
134.8799818503363
 20
-139.4411684434018
 10
137.6063405453068
 20
-140.1141303997565
 10
135.8980525022559
 20
-148.0861412673267
 10
133.0854166333937
 20
-147.2751358327463
  0
LINE
  5
CB
330
70
100
AcDbEntity
  8
レイヤー 1
 62
   250
420
  2299925
370
     9
100
AcDbLine
 10
132.7794202566603
 20
-147.1917007304656
 30
0.0
 11
127.546422069561
 21
-145.6703803983649
 31
0.0
  0
LINE
  5
CC
330
70
100
AcDbEntity
  8
レイヤー 1
 62
   250
420
  2299925
370
     9
100
AcDbLine
 10
127.233270352035
 20
-145.5795778124882
 30
0.0
 11
117.1586503330278
 21
-142.5126358339369
 31
0.0
  0
LINE
  5
CD
330
70
100
AcDbEntity
  8
レイヤー 1
 62
   250
420
  2299925
370
     9
100
AcDbLine
 10
116.8480525070184
 20
-142.4263586600458
 30
0.0
 11
112.2408514212136
 21
-141.16671192123
 31
0.0
  0
LWPOLYLINE
  5
CE
330
70
100
AcDbEntity
  8
レイヤー 1
 62
   250
420
  2299925
370
     9
100
AcDbPolyline
 90
        4
 70
     0
 43
0.0
 10
111.9302535952045
 20
-141.080434747337
 10
109.6352807696915
 20
-140.5455162692099
 10
111.2745470736292
 20
-133.4362771405561
 10
113.6212862034775
 20
-134.0057064882403
  0
LINE
  5
CF
330
70
100
AcDbEntity
  8
レイヤー 1
 62
   250
420
  2299925
370
     9
100
AcDbLine
 10
112.1373188125449
 20
-141.7965352906376
 30
0.0
 11
116.7445198983495
 21
-143.013043442505
 31
0.0
  0
LINE
  5
D0
330
70
100
AcDbEntity
  8
レイヤー 1
 62
   250
420
  2299925
370
     9
100
AcDbLine
 10
117.0551177243595
 20
-143.0993206163961
 30
0.0
 11
127.1133246315144
 21
-146.1046225884983
 31
0.0
  0
LINE
  5
D1
330
70
100
AcDbEntity
  8
レイヤー 1
 62
   250
420
  2299925
370
     9
100
AcDbLine
 10
127.4296308005481
 20
-146.1541623944795
 30
0.0
 11
132.6897370283504
 21
-147.680131409629
 31
0.0
  0
LWPOLYLINE
  5
D2
330
70
100
AcDbEntity
  8
レイヤー 1
 62
   250
420
  2299925
370
     9
100
AcDbPolyline
 90
        8
 70
     0
 43
0.0
 10
132.9818840247257
 20
-147.7755434413125
 10
135.78334311804
 20
-148.5606657237271
 10
134.4485959808807
 20
-154.349864091843
 10
132.2571557640373
 20
-155.9546195262243
 10
109.4799818566873
 20
-148.8453803975667
 10
108.272101422207
 20
-146.4209918112213
 10
109.4799818566873
 20
-141.16671192123
 10
111.7922101169788
 20
-141.7188858341328
  0
SPLINE
  5
D3
330
70
100
AcDbEntity
  8
レイヤー 1
 62
   250
420
  2299925
370
     9
100
AcDbSpline
210
0.0
220
0.0
230
1.0
 70
     8
 71
     3
 72
     8
 73
     4
 74
     0
 42
0.0000000001
 43
0.0000000001
 40
0.0
 40
0.0
 40
0.0
 40
0.0
 40
1.0
 40
1.0
 40
1.0
 40
1.0
 10
125.9429066331625
 20
-81.83684288016339
 30
0.0
 10
125.872644896069
 20
-82.42921193590989
 30
0.0
 10
110.1324653924211
 20
-149.049034349629
 30
0.0
 10
110.1324653924211
 20
-149.049034349629
 30
0.0
  0
LINE
  5
D4
330
70
100
AcDbEntity
  8
レイヤー 1
 62
   250
420
  2299925
370
     9
100
AcDbLine
 10
110.4124891794447
 20
-149.1364357134575
 30
0.0
 11
126.2553896230375
 21
-81.85373404003529
 31
0.0
  0
LINE
  5
D5
330
70
100
AcDbEntity
  8
レイヤー 1
 62
   250
420
  2299925
370
     9
100
AcDbLine
 10
130.9147338973295
 20
-82.10559328225206
 30
0.0
 11
114.9816845308816
 21
-150.5625785049667
 31
0.0
  0
LINE
  5
D6
330
70
100
AcDbEntity
  8
レイヤー 1
 62
   250
420
  2299925
370
     9
100
AcDbLine
 10
115.2735248738316
 20
-150.6536680665539
 30
0.0
 11
131.2904574241061
 21
-82.12590288745957
 31
0.0
  0
LWPOLYLINE
  5
D7
330
70
100
AcDbEntity
  8
レイヤー 1
 62
   250
420
  2299925
370
     9
100
AcDbPolyline
 90
        4
 70
     0
 43
0.0
 10
125.6610303338771
 20
-153.8958288616592
 10
141.9719655442218
 20
-82.49823367502434
 10
141.6441122834323
 20
-82.49823367502434
 10
125.3552388599252
 20
-153.8003848561532
  0
LWPOLYLINE
  5
D8
330
70
100
AcDbEntity
  8
レイヤー 1
 62
   250
420
  2299925
370
     9
100
AcDbPolyline
 90
        4
 70
     0
 43
0.0
 10
131.2047675755092
 20
-155.6261468491991
 10
147.6662590210578
 20
-82.77432063147347
 10
147.35566119505
 20
-82.77432063147347
 10
130.9147338973295
 20
-155.5356211860093
  0
LINE
  5
D9
330
70
100
AcDbEntity
  8
レイヤー 1
 62
   250
420
  2299925
370
     9
100
AcDbLine
 10
178.648820025319
 20
-92.65269526753591
 30
0.0
 11
171.966916330857
 21
-92.16212537022114
 31
0.0
  0
LINE
  5
DA
330
70
100
AcDbEntity
  8
レイヤー 1
 62
   250
420
  2299925
370
     9
100
AcDbLine
 10
171.4615035803275
 20
-92.14402171609313
 30
0.0
 11
158.7787590182807
 21
-91.19497280328575
 31
0.0
  0
LINE
  5
DB
330
70
100
AcDbEntity
  8
レイヤー 1
 62
   250
420
  2299925
370
     9
100
AcDbLine
 10
158.3991394531574
 20
-91.19497280328575
 30
0.0
 11
152.6185688024285
 21
-90.83789398595792
 31
0.0
  0
LWPOLYLINE
  5
DC
330
70
100
AcDbEntity
  8
レイヤー 1
 62
   250
420
  2299925
370
     9
100
AcDbPolyline
 90
        8
 70
     0
 43
0.0
 10
152.2216938025277
 20
-90.83789398595792
 10
149.3745470641094
 20
-90.64987310353608
 10
150.7032155420394
 20
-84.86222823965114
 10
152.8256340197696
 20
-83.24021737049127
 10
182.0735959689786
 20
-84.63790758753408
 10
183.7991394468081
 20
-86.79483693482104
 10
182.5049818384358
 20
-92.93777171589406
 10
179.0554641045329
 20
-92.69710813150309
  0
LINE
  5
DD
330
70
100
AcDbEntity
  8
レイヤー 1
 62
   250
420
  2299925
370
     9
100
AcDbLine
 10
152.5322916285374
 20
-91.19497280328575
 30
0.0
 11
158.2581721586733
 21
-91.58231177210744
 31
0.0
  0
LINE
  5
DE
330
70
100
AcDbEntity
  8
レイヤー 1
 62
   250
420
  2299925
370
     9
100
AcDbLine
 10
158.7129258270951
 20
-91.58635462292082
 30
0.0
 11
171.3924818412146
 21
-92.6444293246635
 31
0.0
  0
LINE
  5
DF
330
70
100
AcDbEntity
  8
レイヤー 1
 62
   250
420
  2299925
370
     9
100
AcDbLine
 10
171.8924592709156
 20
-92.65094628197159
 30
0.0
 11
178.5431646693887
 21
-93.15584301419418
 31
0.0
  0
LWPOLYLINE
  5
E0
330
70
100
AcDbEntity
  8
レイヤー 1
 62
   250
420
  2299925
370
     9
100
AcDbPolyline
 90
        4
 70
     0
 43
0.0
 10
178.9602597194581
 20
-93.15096573509434
 10
182.3841937949884
 20
-93.36915758534997
 10
180.6241394476025
 20
-101.9105978006059
 10
177.1856414029715
 20
-101.6109123622626
  0
LINE
  5
E1
330
70
100
AcDbEntity
  8
レイヤー 1
 62
   250
420
  2299925
370
     9
100
AcDbLine
 10
176.7745174461158
 20
-101.5784246920113
 30
0.0
 11
170.1135646416098
 21
-100.9512578520146
 31
0.0
  0
LINE
  5
E2
330
70
100
AcDbEntity
  8
レイヤー 1
 62
   250
420
  2299925
370
     9
100
AcDbLine
 10
169.5806611894947
 20
-100.8235054095731
 30
0.0
 11
156.897916627448
 21
-99.61562497509321
 31
0.0
  0
LINE
  5
E3
330
70
100
AcDbEntity
  8
レイヤー 1
 62
   250
420
  2299925
370
     9
100
AcDbLine
 10
156.5010416275472
 20
-99.61562497509321
 30
0.0
 11
150.8501208158889
 21
-98.95380543997191
 31
0.0
  0
LWPOLYLINE
  5
E4
330
70
100
AcDbEntity
  8
レイヤー 1
 62
   250
420
  2299925
370
     9
100
AcDbPolyline
 90
        4
 70
     0
 43
0.0
 10
150.4791878277858
 20
-98.95380543997191
 10
147.5454709776126
 20
-98.68383149706403
 10
149.3055253249959
 20
-91.01643339462167
 10
152.2562046720848
 20
-91.19497280328575
  0
LINE
  5
E5
330
70
100
AcDbEntity
  8
レイヤー 1
 62
   250
420
  2299925
370
     9
100
AcDbLine
 10
150.7453976844483
 20
-99.36779644405884
 30
0.0
 11
156.3975090188779
 21
-100.0297554097709
 31
0.0
  0
LINE
  5
E6
330
70
100
AcDbEntity
  8
レイヤー 1
 62
   250
420
  2299925
370
     9
100
AcDbLine
 10
156.897916627448
 20
-100.0297554097709
 30
0.0
 11
169.4081068417126
 21
-101.3756793224784
 31
0.0
  0
LINE
  5
E7
330
70
100
AcDbEntity
  8
レイヤー 1
 62
   250
420
  2299925
370
     9
100
AcDbLine
 10
170.0200256706807
 20
-101.387710124037
 30
0.0
 11
176.6640340562562
 21
-102.1045643104105
 31
0.0
  0
LWPOLYLINE
  5
E8
330
70
100
AcDbEntity
  8
レイヤー 1
 62
   250
420
  2299925
370
     9
100
AcDbPolyline
 90
        4
 70
     0
 43
0.0
 10
177.0838904539171
 20
-102.0959786947036
 10
180.417074230264
 20
-102.3764945396198
 10
178.6742753176563
 20
-110.9697010592103
 10
175.3138523796364
 20
-110.5340904268741
  0
LINE
  5
E9
330
70
100
AcDbEntity
  8
レイヤー 1
 62
   250
420
  2299925
370
     9
100
AcDbLine
 10
174.8796012041719
 20
-110.4923263922412
 30
0.0
 11
168.2565673046669
 21
-109.615996183016
 31
0.0
  0
LINE
  5
EA
330
70
100
AcDbEntity
  8
レイヤー 1
 62
   250
420
  2299925
370
     9
100
AcDbLine
 10
167.8346798960796
 20
-109.5864115892628
 30
0.0
 11
155.0343296713941
 21
-108.0190217121215
 31
0.0
  0
LINE
  5
EB
330
70
100
AcDbEntity
  8
レイヤー 1
 62
   250
420
  2299925
370
     9
100
AcDbLine
 10
154.6374546714933
 20
-107.9327445382304
 30
0.0
 11
148.9259057598778
 21
-107.2252717123199
 31
0.0
  0
LWPOLYLINE
  5
EC
330
70
100
AcDbEntity
  8
レイヤー 1
 62
   250
420
  2299925
370
     9
100
AcDbPolyline
 90
        4
 70
     0
 43
0.0
 10
148.6153079338613
 20
-107.2252717123218
 10
145.6473731520016
 20
-106.8801630167544
 10
147.4074274993866
 20
-99.0634510621866
 10
150.3870340451586
 20
-99.36495886835526
  0
LINE
  5
ED
330
70
100
AcDbEntity
  8
レイヤー 1
 62
   250
420
  2299925
370
     9
100
AcDbLine
 10
148.9014913938781
 20
-107.594441302097
 30
0.0
 11
154.5511774976016
 21
-108.2605977990177
 31
0.0
  0
LINE
  5
EE
330
70
100
AcDbEntity
  8
レイヤー 1
 62
   250
420
  2299925
370
     9
100
AcDbLine
 10
155.0343296713941
 20
-108.3296195381306
 30
0.0
 11
167.7367990675892
 21
-110.0477499023195
 31
0.0
  0
LINE
  5
EF
330
70
100
AcDbEntity
  8
レイヤー 1
 62
   250
420
  2299925
370
     9
100
AcDbLine
 10
168.1551809732581
 20
-110.0890641915278
 30
0.0
 11
174.8093444701482
 21
-110.9368935168432
 31
0.0
  0
LWPOLYLINE
  5
F0
330
70
100
AcDbEntity
  8
レイヤー 1
 62
   250
420
  2299925
370
     9
100
AcDbPolyline
 90
        6
 70
     0
 43
0.0
 10
175.2177432939132
 20
-110.9922609123539
 10
178.5017209698741
 20
-111.4355977982246
 10
177.2075633615026
 20
-117.8891304053077
 10
174.6019927099798
 20
-119.68369562225
 10
159.5897644528637
 20
-117.3197010576235
 10
153.2052535848941
 20
-116.2498641013693
  0
LINE
  5
F1
330
70
100
AcDbEntity
  8
レイヤー 1
 62
   250
420
  2299925
370
     9
100
AcDbLine
 10
152.8783701448961
 20
-116.1964861331765
 30
0.0
 11
147.1651395320866
 21
-115.3412287546951
 31
0.0
  0
SPLINE
  5
F2
330
70
100
AcDbEntity
  8
レイヤー 1
 62
   250
420
  2299925
370
     9
100
AcDbSpline
210
0.0
220
0.0
230
1.0
 70
     8
 71
     3
 72
    17
 73
    13
 74
     0
 42
0.0000000001
 43
0.0000000001
 40
0.0
 40
0.0
 40
0.0
 40
0.0
 40
1.0
 40
1.0
 40
1.0
 40
2.0
 40
2.0
 40
2.0
 40
3.0
 40
3.0
 40
3.0
 40
4.0
 40
4.0
 40
4.0
 40
4.0
 10
146.8264298638579
 20
-115.2509548038899
 30
0.0
 10
146.8264298638579
 20
-115.2509548038899
 30
0.0
 10
145.7336503258921
 20
-115.0592391016669
 30
0.0
 10
145.7336503258921
 20
-115.0592391016669
 30
0.0
 10
145.7336503258921
 20
-115.0592391016669
 30
0.0
 10
144.3014492392938
 20
-112.7987771457104
 30
0.0
 10
144.3014492392938
 20
-112.7987771457104
 30
0.0
 10
144.3014492392938
 20
-112.7987771457104
 30
0.0
 10
145.56109597811
 20
-107.2252717123199
 30
0.0
 10
145.56109597811
 20
-107.2252717123199
 30
0.0
 10
145.6301177172231
 20
-107.2252717123199
 30
0.0
 10
148.5000119155931
 20
-107.5790081252748
 30
0.0
 10
148.5000119155931
 20
-107.5790081252748
 30
0.0
  0
LINE
  5
F3
330
70
100
AcDbEntity
  8
レイヤー 1
 62
   250
420
  2299925
370
     9
100
AcDbLine
 10
166.2321455536352
 20
-119.0619358164882
 30
0.0
 11
172.8761425090524
 21
-120.1431112423422
 31
0.0
  0
LWPOLYLINE
  5
F4
330
70
100
AcDbEntity
  8
レイヤー 1
 62
   250
420
  2299925
370
     9
100
AcDbPolyline
 90
        5
 70
     0
 43
0.0
 10
173.2988789671539
 20
-120.1398559970817
 10
174.3776720578612
 20
-120.2876358394893
 10
176.1204709704688
 20
-122.8414401866767
 10
174.843568796869
 20
-129.2865947724441
 10
171.5014779047099
 20
-128.7084123534691
  0
LINE
  5
F5
330
70
100
AcDbEntity
  8
レイヤー 1
 62
   250
420
  2299925
370
     9
100
AcDbLine
 10
171.0963487391309
 20
-128.6187745626349
 30
0.0
 11
164.4586589361139
 21
-127.3370136362867
 31
0.0
  0
LINE
  5
F6
330
70
100
AcDbEntity
  8
レイヤー 1
 62
   250
420
  2299925
370
     9
100
AcDbLine
 10
164.0866115565727
 20
-127.2520520588295
 30
0.0
 11
151.4039088587922
 21
-124.7756850175367
 31
0.0
  0
LINE
  5
F7
330
70
100
AcDbEntity
  8
レイヤー 1
 62
   250
420
  2299925
370
     9
100
AcDbLine
 10
151.0141694034909
 20
-124.7257520755809
 30
0.0
 11
145.2676800997441
 21
-123.670274081743
 31
0.0
  0
LWPOLYLINE
  5
F8
330
70
100
AcDbEntity
  8
レイヤー 1
 62
   250
420
  2299925
370
     9
100
AcDbPolyline
 90
        5
 70
     0
 43
0.0
 10
144.9492639018788
 20
-123.6261207375066
 10
141.9719655442218
 20
-123.0197463460586
 10
143.2546195294038
 20
-117.2909419996656
 10
145.4057970651038
 20
-115.7537703514926
 10
165.8534872773844
 20
-118.9743251608034
  0
LINE
  5
F9
330
70
100
AcDbEntity
  8
レイヤー 1
 62
   250
420
  2299925
370
     9
100
AcDbLine
 10
145.1539705933356
 20
-124.1887353372831
 30
0.0
 11
150.8821736421962
 21
-125.3296714531184
 31
0.0
  0
LINE
  5
FA
330
70
100
AcDbEntity
  8
レイヤー 1
 62
   250
420
  2299925
370
     9
100
AcDbLine
 10
151.3071557592761
 20
-125.4047097517906
 30
0.0
 11
163.9151267706167
 21
-127.8453368600886
 31
0.0
  0
LINE
  5
FB
330
70
100
AcDbEntity
  8
レイヤー 1
 62
   250
420
  2299925
370
     9
100
AcDbLine
 10
164.3355461929267
 20
-127.911456950614
 30
0.0
 11
170.9753328000274
 21
-129.1950718694172
 31
0.0
  0
LWPOLYLINE
  5
FC
330
70
100
AcDbEntity
  8
レイヤー 1
 62
   250
420
  2299925
370
     9
100
AcDbPolyline
 90
        4
 70
     0
 43
0.0
 10
171.3828195839562
 20
-129.2740793766945
 10
174.6134963331589
 20
-129.8644021414465
 10
172.9224637248865
 20
-138.6071557624498
 10
169.5832166297631
 20
-137.8531325742904
  0
LINE
  5
FD
330
70
100
AcDbEntity
  8
レイヤー 1
 62
   250
420
  2299925
370
     9
100
AcDbLine
 10
169.1791253203416
 20
-137.7488999075302
 30
0.0
 11
162.5369008786474
 21
-136.3039250971594
 31
0.0
  0
LINE
  5
FE
330
70
100
AcDbEntity
  8
レイヤー 1
 62
   250
420
  2299925
370
     9
100
AcDbLine
 10
162.1809006342541
 20
-136.2341732324888
 30
0.0
 11
149.3975543104791
 21
-133.3960144594069
 31
0.0
  0
LINE
  5
FF
330
70
100
AcDbEntity
  8
レイヤー 1
 62
   250
420
  2299925
370
     9
100
AcDbLine
 10
149.0409419917274
 20
-133.3039854739225
 30
0.0
 11
143.419017298928
 21
-132.0546687839456
 31
0.0
  0
LWPOLYLINE
  5
100
330
70
100
AcDbEntity
  8
レイヤー 1
 62
   250
420
  2299925
370
     9
100
AcDbPolyline
 90
        4
 70
     0
 43
0.0
 10
143.0697912345696
 20
-131.9682800280046
 10
140.1371376461275
 20
-131.3483695323836
 10
141.8971919935114
 20
-123.5949275053355
 10
144.8343446386334
 20
-124.1388446618395
  0
LINE
  5
101
330
70
100
AcDbEntity
  8
レイヤー 1
 62
   250
420
  2299925
370
     9
100
AcDbLine
 10
139.9990941679005
 20
-131.9465579380308
 30
0.0
 11
142.9333725620187
 21
-132.5593389688767
 31
0.0
  0
LINE
  5
102
330
70
100
AcDbEntity
  8
レイヤー 1
 62
   250
420
  2299925
370
     9
100
AcDbLine
 10
143.2653111321288
 20
-132.6316325329141
 30
0.0
 11
148.891394890315
 21
-133.8561593868297
 31
0.0
  0
LINE
  5
103
330
70
100
AcDbEntity
  8
レイヤー 1
 62
   250
420
  2299925
370
     9
100
AcDbLine
 10
149.3285325713643
 20
-133.9481883723123
 30
0.0
 11
162.0164265861364
 21
-136.7341853144859
 31
0.0
  0
LINE
  5
104
330
70
100
AcDbEntity
  8
レイヤー 1
 62
   250
420
  2299925
370
     9
100
AcDbLine
 10
162.3851448869396
 20
-136.8240941686943
 30
0.0
 11
169.0411790513059
 21
-138.3346834524013
 31
0.0
  0
LWPOLYLINE
  5
105
330
70
100
AcDbEntity
  8
レイヤー 1
 62
   250
420
  2299925
370
     9
100
AcDbPolyline
 90
        4
 70
     0
 43
0.0
 10
169.4637689843384
 20
-138.4225624599449
 10
172.7614130002886
 20
-139.1018115594297
 10
171.0703803920168
 20
-147.8330615572456
 10
167.6648895211492
 20
-146.9981666368589
  0
LINE
  5
106
330
70
100
AcDbEntity
  8
レイヤー 1
 62
   250
420
  2299925
370
     9
100
AcDbLine
 10
167.251191464567
 20
-146.9300300707516
 30
0.0
 11
160.6151058349027
 21
-145.2710091357838
 31
0.0
  0
LINE
  5
107
330
70
100
AcDbEntity
  8
レイヤー 1
 62
   250
420
  2299925
370
     9
100
AcDbLine
 10
160.2830060049997
 20
-145.1794541432264
 30
0.0
 11
147.6144927167222
 21
-142.0007246021833
 31
0.0
  0
LINE
  5
108
330
70
100
AcDbEntity
  8
レイヤー 1
 62
   250
420
  2299925
370
     9
100
AcDbLine
 10
147.2313297146345
 20
-141.9139298244789
 30
0.0
 11
141.540579674763
 21
-140.459239095322
 31
0.0
  0
LWPOLYLINE
  5
109
330
70
100
AcDbEntity
  8
レイヤー 1
 62
   250
420
  2299925
370
     9
100
AcDbPolyline
 90
        3
 70
     0
 43
0.0
 10
141.195230727097
 20
-140.3751197050527
 10
138.3080615596281
 20
-139.6769927187059
 10
139.9990941679005
 20
-131.8890398221022
  0
LINE
  5
10A
330
70
100
AcDbEntity
  8
レイヤー 1
 62
   250
420
  2299925
370
     9
100
AcDbLine
 10
141.3795289501645
 20
-141.0689311241567
 30
0.0
 11
147.1271111407768
 21
-142.5101853288976
 31
0.0
  0
LINE
  5
10B
330
70
100
AcDbEntity
  8
レイヤー 1
 62
   250
420
  2299925
370
     9
100
AcDbLine
 10
147.4764492384946
 20
-142.6104166310166
 30
0.0
 11
160.1655268144691
 21
-145.7331647361467
 31
0.0
  0
LINE
  5
10C
330
70
100
AcDbEntity
  8
レイヤー 1
 62
   250
420
  2299925
370
     9
100
AcDbLine
 10
160.4640398149565
 20
-145.8199274997799
 30
0.0
 11
167.0768257143027
 21
-147.5023323906578
 31
0.0
  0
LWPOLYLINE
  5
10D
330
70
100
AcDbEntity
  8
レイヤー 1
 62
   250
420
  2299925
370
     9
100
AcDbPolyline
 90
        4
 70
     0
 43
0.0
 10
167.5919601011683
 20
-147.6346352485842
 10
170.9093296674183
 20
-148.4197463397106
 10
169.0917572041037
 20
-157.5536231490206
 10
165.6719657524701
 20
-156.4988173167285
  0
LINE
  5
10E
330
70
100
AcDbEntity
  8
レイヤー 1
 62
   250
420
  2299925
370
     9
100
AcDbLine
 10
165.2035325673949
 20
-156.3687499609116
 30
0.0
 11
158.6234601052723
 21
-154.378623149815
 31
0.0
  0
LINE
  5
10F
330
70
100
AcDbEntity
  8
レイヤー 1
 62
   250
420
  2299925
370
     9
100
AcDbLine
 10
158.3460833481148
 20
-154.308684502563
 30
0.0
 11
145.6818840215504
 21
-150.7779890927456
 31
0.0
  0
LINE
  5
110
330
70
100
AcDbEntity
  8
レイヤー 1
 62
   250
420
  2299925
370
     9
100
AcDbLine
 10
145.3388792477972
 20
-150.6918714762888
 30
0.0
 11
139.6079709795905
 21
-149.017934745359
 31
0.0
  0
LWPOLYLINE
  5
111
330
70
100
AcDbEntity
  8
レイヤー 1
 62
   250
420
  2299925
370
     9
100
AcDbPolyline
 90
        4
 70
     0
 43
0.0
 10
139.2904964591935
 20
-148.9489130062456
 10
136.3869564876424
 20
-148.2011774991859
 10
138.1700180814018
 20
-140.2291666316132
 10
141.0588067695462
 20
-140.9837889995918
  0
LINE
  5
112
330
70
100
AcDbEntity
  8
レイヤー 1
 62
   250
420
  2299925
370
     9
100
AcDbLine
 10
139.4929347477342
 20
-149.5586050350802
 30
0.0
 11
145.2249837171195
 21
-151.2129769823775
 31
0.0
  0
LINE
  5
113
330
70
100
AcDbEntity
  8
レイヤー 1
 62
   250
420
  2299925
370
     9
100
AcDbLine
 10
145.5869791302693
 20
-151.3042798534781
 30
0.0
 11
158.2157253756674
 21
-154.9230962114731
 31
0.0
  0
LINE
  5
114
330
70
100
AcDbEntity
  8
レイヤー 1
 62
   250
420
  2299925
370
     9
100
AcDbLine
 10
158.5199274966011
 20
-155.0113224250199
 30
0.0
 11
165.1368748410897
 21
-156.998744860041
 31
0.0
  0
LWPOLYLINE
  5
115
330
70
100
AcDbEntity
  8
レイヤー 1
 62
   250
420
  2299925
370
     9
100
AcDbPolyline
 90
        5
 70
     0
 43
0.0
 10
165.5785888046859
 20
-157.1190107296684
 10
168.9422101026913
 20
-158.1403079314837
 10
167.642300682725
 20
-164.7088767704208
 10
165.0884963355376
 20
-166.3078803932094
 10
163.6505434373463
 20
-165.8707427121595
  0
LINE
  5
116
330
70
100
AcDbEntity
  8
レイヤー 1
 62
   250
420
  2299925
370
     9
100
AcDbLine
 10
163.2364130026673
 20
-165.7442028571186
 30
0.0
 11
156.7483695260284
 21
-163.5815216982392
 31
0.0
  0
LINE
  5
117
330
70
100
AcDbEntity
  8
レイヤー 1
 62
   250
420
  2299925
370
     9
100
AcDbLine
 10
156.3457427145349
 20
-163.4434782200142
 30
0.0
 11
143.7967841634985
 21
-159.4222652971828
 31
0.0
  0
LINE
  5
118
330
70
100
AcDbEntity
  8
レイヤー 1
 62
   250
420
  2299925
370
     9
100
AcDbLine
 10
143.4302006381627
 20
-159.3103194456101
 30
0.0
 11
137.7110603437732
 21
-157.5208950098541
 31
0.0
  0
LWPOLYLINE
  5
119
330
70
100
AcDbEntity
  8
レイヤー 1
 62
   250
420
  2299925
370
     9
100
AcDbPolyline
 90
        5
 70
     0
 43
0.0
 10
137.3877717047818
 20
-157.3925724244259
 10
136.3984601108263
 20
-157.0819745984168
 10
135.133061560418
 20
-154.6547101062702
 10
136.3294383717134
 20
-148.6613224266087
 10
139.1615329382143
 20
-149.4486682275112
  0
LWPOLYLINE
  5
11A
330
70
100
AcDbEntity
  8
レイヤー 1
 62
   250
420
  2299925
370
     9
100
AcDbPolyline
 90
        4
 70
     0
 43
0.0
 10
153.9886920520248
 20
-83.29579713486458
 10
137.3475090236346
 20
-157.5421195258377
 10
137.6753622844222
 20
-157.6801630040596
 10
154.343943368409
 20
-83.31277374644406
  0
LWPOLYLINE
  5
11B
330
70
100
AcDbEntity
  8
レイヤー 1
 62
   250
420
  2299925
370
     9
100
AcDbPolyline
 90
        4
 70
     0
 43
0.0
 10
160.0064620564165
 20
-83.58337198463202
 10
143.4041666308137
 20
-159.543749960114
 10
143.7320198916074
 20
-159.6127716992275
 10
160.4704745546332
 20
-83.60554603321967
  0
LWPOLYLINE
  5
11C
330
70
100
AcDbEntity
  8
レイヤー 1
 62
   250
420
  2299925
370
     9
100
AcDbPolyline
 90
        4
 70
     1
 43
0.0
 10
173.2560687972704
 20
-84.03396737029218
 10
156.3457427145349
 20
-163.7368206112367
 10
156.6390851057722
 20
-163.8230977851278
 10
173.7392209710616
 20
-84.03396737029218
  0
LWPOLYLINE
  5
11D
330
70
100
AcDbEntity
  8
レイヤー 1
 62
   250
420
  2299925
370
     9
100
AcDbPolyline
 90
        4
 70
     1
 43
0.0
 10
180.3825633607049
 20
-84.39633150063558
 10
163.2364130026673
 20
-166.0490488715272
 10
163.6505434373463
 20
-166.1353260454189
 10
180.7966937953795
 20
-84.39633150063558
  0
SPLINE
  5
11E
330
70
100
AcDbEntity
  8
レイヤー 1
 62
   250
420
  2299925
370
     9
100
AcDbSpline
210
0.0
220
0.0
230
1.0
 70
     8
 71
     3
 72
     8
 73
     4
 74
     0
 42
0.0000000001
 43
0.0000000001
 40
0.0
 40
0.0
 40
0.0
 40
0.0
 40
1.0
 40
1.0
 40
1.0
 40
1.0
 10
124.8185148404527
 20
-78.36028715715727
 30
0.0
 10
124.8185148404527
 20
-78.36028715715727
 30
0.0
 10
125.590813246599
 20
-77.56828334936542
 30
0.0
 10
127.8685306373338
 20
-77.82711487103987
 30
0.0
  0
SPLINE
  5
11F
330
70
100
AcDbEntity
  8
レイヤー 1
 62
   250
420
  2299925
370
     9
100
AcDbSpline
210
0.0
220
0.0
230
1.0
 70
     8
 71
     3
 72
     8
 73
     4
 74
     0
 42
0.0000000001
 43
0.0000000001
 40
0.0
 40
0.0
 40
0.0
 40
0.0
 40
1.0
 40
1.0
 40
1.0
 40
1.0
 10
123.9578878300488
 20
-78.32509423108117
 30
0.0
 10
123.9578878300488
 20
-78.32509423108117
 30
0.0
 10
124.6855195951369
 20
-76.58224035723279
 30
0.0
 10
128.0658349622967
 20
-77.10722071239068
 30
0.0
  0
SPLINE
  5
120
330
70
100
AcDbEntity
  8
レイヤー 1
 62
   250
420
  2299925
370
     9
100
AcDbSpline
210
0.0
220
0.0
230
1.0
 70
     8
 71
     3
 72
    32
 73
    28
 74
     0
 42
0.0000000001
 43
0.0000000001
 40
0.0
 40
0.0
 40
0.0
 40
0.0
 40
1.0
 40
1.0
 40
1.0
 40
2.0
 40
2.0
 40
2.0
 40
3.0
 40
3.0
 40
3.0
 40
4.0
 40
4.0
 40
4.0
 40
5.0
 40
5.0
 40
5.0
 40
6.0
 40
6.0
 40
6.0
 40
7.0
 40
7.0
 40
7.0
 40
8.0
 40
8.0
 40
8.0
 40
9.0
 40
9.0
 40
9.0
 40
9.0
 10
129.6343296777354
 20
-72.3002717210544
 30
0.0
 10
129.6343296777354
 20
-72.3002717210544
 30
0.0
 10
129.7723731559618
 20
-73.96542117715978
 30
0.0
 10
129.7723731559618
 20
-73.96542117715978
 30
0.0
 10
129.7723731559618
 20
-73.96542117715978
 30
0.0
 10
128.8405796779338
 20
-77.19218748070099
 30
0.0
 10
128.8405796779338
 20
-77.19218748070099
 30
0.0
 10
128.8405796779338
 20
-77.19218748070099
 30
0.0
 10
128.7788661229633
 20
-77.30813723557456
 30
0.0
 10
128.8957970692258
 20
-77.37526426028093
 30
0.0
 10
128.8957970692258
 20
-77.37526426028093
 30
0.0
 10
179.2005660783882
 20
-79.46127715404634
 30
0.0
 10
179.2005660783882
 20
-79.46127715404634
 30
0.0
 10
179.2005660783882
 20
-79.46127715404634
 30
0.0
 10
179.899411186908
 20
-75.23369563336441
 30
0.0
 10
179.899411186908
 20
-75.23369563336441
 30
0.0
 10
179.899411186908
 20
-75.23369563336441
 30
0.0
 10
180.7449274910448
 20
-73.71521737287444
 30
0.0
 10
181.5818160777922
 20
-73.19755432952554
 30
0.0
 10
181.5818160777922
 20
-73.19755432952554
 30
0.0
 10
181.8498858937815
 20
-73.21244709686624
 30
0.0
 10
181.8498858937815
 20
-73.21244709686624
 30
0.0
 10
181.8498858937815
 20
-73.21244709686624
 30
0.0
 10
182.1426177080864
 20
-71.47201085169609
 30
0.0
 10
182.1426177080864
 20
-71.47201085169609
 30
0.0
 10
182.1426177080864
 20
-71.47201085169609
 30
0.0
 10
182.2260189761782
 20
-71.02912135905341
 30
0.0
 10
182.4474637225014
 20
-70.79329708374991
 30
0.0
  0
SPLINE
  5
121
330
70
100
AcDbEntity
  8
レイヤー 1
 62
   250
420
  2299925
370
     9
100
AcDbSpline
210
0.0
220
0.0
230
1.0
 70
     8
 71
     3
 72
     8
 73
     4
 74
     0
 42
0.0000000001
 43
0.0000000001
 40
0.0
 40
0.0
 40
0.0
 40
0.0
 40
1.0
 40
1.0
 40
1.0
 40
1.0
 10
182.8040760412531
 20
-71.52952896762378
 30
0.0
 10
182.8040760412531
 20
-71.52952896762378
 30
0.0
 10
182.4072010413503
 20
-72.47570197463416
 30
0.0
 10
182.6890398093977
 20
-73.18605070634039
 30
0.0
  0
SPLINE
  5
122
330
70
100
AcDbEntity
  8
レイヤー 1
 62
   250
420
  2299925
370
     9
100
AcDbSpline
210
0.0
220
0.0
230
1.0
 70
     8
 71
     3
 72
    17
 73
    13
 74
     0
 42
0.0000000001
 43
0.0000000001
 40
0.0
 40
0.0
 40
0.0
 40
0.0
 40
1.0
 40
1.0
 40
1.0
 40
2.0
 40
2.0
 40
2.0
 40
3.0
 40
3.0
 40
3.0
 40
4.0
 40
4.0
 40
4.0
 40
4.0
 10
182.8439521163834
 20
-71.221212278788
 30
0.0
 10
182.8439521163834
 20
-71.221212278788
 30
0.0
 10
182.5879392487187
 20
-71.221212278788
 30
0.0
 10
182.5879392487187
 20
-71.221212278788
 30
0.0
 10
182.5879392487187
 20
-71.221212278788
 30
0.0
 10
182.2634057515345
 20
-71.50652172125283
 30
0.0
 10
182.2116394471998
 20
-72.3088994384435
 30
0.0
 10
182.2116394471998
 20
-72.3088994384435
 30
0.0
 10
182.1771285776434
 20
-72.66263585139874
 30
0.0
 10
182.2720334689239
 20
-73.11127715563417
 30
0.0
 10
182.2720334689239
 20
-73.11127715563417
 30
0.0
 10
182.3290419806102
 20
-73.28047689791005
 30
0.0
 10
182.6413325616385
 20
-73.46765012453021
 30
0.0
  0
SPLINE
  5
123
330
70
100
AcDbEntity
  8
レイヤー 1
 62
   250
420
  2299925
370
     9
100
AcDbSpline
210
0.0
220
0.0
230
1.0
 70
     8
 71
     3
 72
     8
 73
     4
 74
     0
 42
0.0000000001
 43
0.0000000001
 40
0.0
 40
0.0
 40
0.0
 40
0.0
 40
1.0
 40
1.0
 40
1.0
 40
1.0
 10
183.7243658960954
 20
-71.55253621399506
 30
0.0
 10
183.7243658960954
 20
-71.55253621399506
 30
0.0
 10
183.0916666208892
 20
-72.46419835144836
 30
0.0
 10
183.7473731424664
 20
-73.16304345996911
 30
0.0
  0
SPLINE
  5
124
330
70
100
AcDbEntity
  8
レイヤー 1
 62
   250
420
  2299925
370
     9
100
AcDbSpline
210
0.0
220
0.0
230
1.0
 70
    11
 71
     3
 72
    17
 73
    13
 74
     0
 42
0.0000000001
 43
0.0000000001
 40
0.0
 40
0.0
 40
0.0
 40
0.0
 40
1.0
 40
1.0
 40
1.0
 40
2.0
 40
2.0
 40
2.0
 40
3.0
 40
3.0
 40
3.0
 40
4.0
 40
4.0
 40
4.0
 40
4.0
 10
183.9458106424187
 20
-72.33909644930553
 30
0.0
 10
183.9458106424187
 20
-72.54637206747857
 30
0.0
 10
183.8679072096267
 20
-72.71440215573338
 30
0.0
 10
183.8250225989693
 20
-72.71440215573338
 30
0.0
 10
183.7821379883126
 20
-72.71440215573338
 30
0.0
 10
183.6869791207443
 20
-72.55170681983215
 30
0.0
 10
183.6869791207443
 20
-72.3444312016591
 30
0.0
 10
183.6869791207443
 20
-72.13715558348575
 30
0.0
 10
183.7821379883126
 20
-71.96379074287735
 30
0.0
 10
183.8250225989693
 20
-71.96379074287735
 30
0.0
 10
183.8679072096267
 20
-71.96379074287735
 30
0.0
 10
183.9458106424187
 20
-72.13182083113216
 30
0.0
 10
183.9458106424187
 20
-72.33909644930553
 30
0.0
  0
SPLINE
  5
125
330
70
100
AcDbEntity
  8
レイヤー 1
 62
   250
420
  2299925
370
     9
100
AcDbSpline
210
0.0
220
0.0
230
1.0
 70
    11
 71
     3
 72
    14
 73
    10
 74
     0
 42
0.0000000001
 43
0.0000000001
 40
0.0
 40
0.0
 40
0.0
 40
0.0
 40
1.0
 40
1.0
 40
1.0
 40
2.0
 40
2.0
 40
2.0
 40
3.0
 40
3.0
 40
3.0
 40
3.0
 10
179.7009736869563
 20
-79.91854617567151
 30
0.0
 10
179.7009736869563
 20
-79.91854617567151
 30
0.0
 10
180.0719655346895
 20
-79.89266302350387
 30
0.0
 10
180.5551177084819
 20
-80.60876356680315
 30
0.0
 10
180.5551177084819
 20
-80.60876356680315
 30
0.0
 10
180.1280456977188
 20
-80.60876356680315
 30
0.0
 10
180.1280456977188
 20
-80.60876356680315
 30
0.0
 10
180.1280456977188
 20
-80.60876356680315
 30
0.0
 10
179.7009736869563
 20
-79.91854617567151
 30
0.0
 10
179.7009736869563
 20
-79.91854617567151
 30
0.0
  0
LWPOLYLINE
  5
126
330
70
100
AcDbEntity
  8
レイヤー 1
 62
   250
420
  2299925
370
     9
100
AcDbPolyline
 90
        3
 70
     1
 43
0.0
 10
181.7112318386279
 20
-76.74354617646558
 10
181.443772599564
 20
-77.13179345897692
 10
181.7112318386279
 20
-77.65808421971494
  0
LWPOLYLINE
  5
127
330
70
100
AcDbEntity
  8
レイヤー 1
 62
   250
420
  2299925
370
     9
100
AcDbPolyline
 90
        3
 70
     1
 43
0.0
 10
181.6594655342926
 20
-75.9152853071076
 10
181.9614356429129
 20
-75.49252715503917
 10
181.9614356429129
 20
-76.3466711765648
  0
LWPOLYLINE
  5
128
330
70
100
AcDbEntity
  8
レイヤー 1
 62
   250
420
  2299925
370
     9
100
AcDbPolyline
 90
        3
 70
     1
 43
0.0
 10
181.8924139037994
 20
-74.58661682917892
 10
182.1685008602521
 20
-74.20699726405636
 10
182.1685008602521
 20
-75.12728711889812
  0
LINE
  5
129
330
70
100
AcDbEntity
  8
レイヤー 1
 62
   250
420
  2299925
370
     9
100
AcDbLine
 10
181.8498858937815
 20
-73.21244709686624
 30
0.0
 11
182.578308720381
 21
-73.83965810788298
 31
0.0
  0
LINE
  5
12A
330
70
100
AcDbEntity
  8
レイヤー 1
 62
   250
420
  2299925
370
     9
100
AcDbLine
 10
181.8104505886031
 20
-73.42187498164389
 30
0.0
 11
180.6413948823736
 21
-80.33267661035147
 31
0.0
  0
LINE
  5
12B
330
70
100
AcDbEntity
  8
レイヤー 1
 62
   250
420
  2299925
370
     9
100
AcDbLine
 10
180.1280456977188
 20
-79.84952443655898
 30
0.0
 11
181.2259227354884
 21
-73.83965810788298
 31
0.0
  0
SPLINE
  5
12C
330
70
100
AcDbEntity
  8
レイヤー 1
 62
   250
420
  2299925
370
     9
100
AcDbSpline
210
0.0
220
0.0
230
1.0
 70
     8
 71
     3
 72
    11
 73
     7
 74
     0
 42
0.0000000001
 43
0.0000000001
 40
0.0
 40
0.0
 40
0.0
 40
0.0
 40
1.0
 40
1.0
 40
1.0
 40
2.0
 40
2.0
 40
2.0
 40
2.0
 10
181.5818160777922
 20
-73.19755432952554
 30
0.0
 10
181.5818160777922
 20
-73.19755432952554
 30
0.0
 10
181.8498858937815
 20
-71.221212278788
 30
0.0
 10
181.8498858937815
 20
-71.221212278788
 30
0.0
 10
181.8498858937815
 20
-71.221212278788
 30
0.0
 10
181.9585597371162
 20
-70.68113675769089
 30
0.0
 10
182.4474637225014
 20
-70.79329708374991
 30
0.0
  0
SPLINE
  5
12D
330
70
100
AcDbEntity
  8
レイヤー 1
 62
   250
420
  2299925
370
     9
100
AcDbSpline
210
0.0
220
0.0
230
1.0
 70
     8
 71
     3
 72
    17
 73
    13
 74
     0
 42
0.0000000001
 43
0.0000000001
 40
0.0
 40
0.0
 40
0.0
 40
0.0
 40
1.0
 40
1.0
 40
1.0
 40
2.0
 40
2.0
 40
2.0
 40
3.0
 40
3.0
 40
3.0
 40
4.0
 40
4.0
 40
4.0
 40
4.0
 10
181.9441802081366
 20
-70.91120922140294
 30
0.0
 10
181.9441802081366
 20
-70.91120922140294
 30
0.0
 10
182.2461503167569
 20
-67.98641302648204
 30
0.0
 10
182.2461503167569
 20
-67.98641302648204
 30
0.0
 10
182.2461503167569
 20
-67.98641302648204
 30
0.0
 10
182.4474637225014
 20
-67.52051628746809
 30
0.0
 10
182.4474637225014
 20
-67.52051628746809
 30
0.0
 10
182.4474637225014
 20
-67.52051628746809
 30
0.0
 10
183.876788903304
 20
-51.16236411764468
 30
0.0
 10
183.876788903304
 20
-51.16236411764468
 30
0.0
 10
183.876788903304
 20
-51.16236411764468
 30
0.0
 10
183.6863937023458
 20
-49.81233507216642
 30
0.0
 10
182.4442951075071
 20
-49.59438084512878
 30
0.0
  0
LWPOLYLINE
  5
12E
330
70
100
AcDbEntity
  8
レイヤー 1
 62
   250
420
  2299925
370
     9
100
AcDbPolyline
 90
        4
 70
     0
 43
0.0
 10
183.8005102553699
 20
-54.16343384721868
 10
184.3513133597076
 20
-54.16343384721868
 10
184.3513133597076
 20
-54.50991846463272
 10
183.8005102553699
 20
-54.50991846463272
  0
LWPOLYLINE
  5
12F
330
70
100
AcDbEntity
  8
レイヤー 1
 62
   250
420
  2299925
370
     9
100
AcDbPolyline
 90
        4
 70
     0
 43
0.0
 10
183.6219433896183
 20
-56.22493750061238
 10
184.1873867293137
 20
-56.22493750061238
 10
184.1873867293137
 20
-56.62370922497385
 10
183.5874018951845
 20
-56.62370922497385
  0
LWPOLYLINE
  5
130
330
70
100
AcDbEntity
  8
レイヤー 1
 62
   250
420
  2299925
370
     9
100
AcDbPolyline
 90
        4
 70
     0
 43
0.0
 10
183.4469568459414
 20
-58.24510735444928
 10
184.0148323815303
 20
-58.24510735444928
 10
184.0148323815303
 20
-58.65985052881207
 10
183.4469568459414
 20
-58.65985052881207
  0
LWPOLYLINE
  5
131
330
70
100
AcDbEntity
  8
レイヤー 1
 62
   250
420
  2299925
370
     9
100
AcDbPolyline
 90
        4
 70
     0
 43
0.0
 10
183.2610365816137
 20
-60.3915039019708
 10
183.825022598968
 20
-60.3915039019708
 10
183.825022598968
 20
-60.70461955004004
 10
183.2610365816137
 20
-60.78226900654231
  0
LWPOLYLINE
  5
132
330
70
100
AcDbEntity
  8
レイヤー 1
 62
   250
420
  2299925
370
     9
100
AcDbPolyline
 90
        4
 70
     0
 43
0.0
 10
183.0869203058932
 20
-62.40162675988443
 10
183.678351403351
 20
-62.40162675988443
 10
183.678351403351
 20
-62.78389944082475
 10
183.0869203058932
 20
-62.78389944082475
  0
LWPOLYLINE
  5
133
330
70
100
AcDbEntity
  8
レイヤー 1
 62
   250
420
  2299925
370
     9
100
AcDbPolyline
 90
        4
 70
     0
 43
0.0
 10
182.9104845557203
 20
-64.74239128816101
 10
183.4367753164554
 20
-64.74239128816101
 10
183.3826358546218
 20
-65.89850541830694
 10
182.7542401423874
 20
-68.20888869446928
  0
SPLINE
  5
134
330
70
100
AcDbEntity
  8
レイヤー 1
 62
   250
420
  2299925
370
     9
100
AcDbSpline
210
0.0
220
0.0
230
1.0
 70
     9
 71
     3
 72
    29
 73
    25
 74
     0
 42
0.0000000001
 43
0.0000000001
 40
0.0
 40
0.0
 40
0.0
 40
0.0
 40
1.0
 40
1.0
 40
1.0
 40
2.0
 40
2.0
 40
2.0
 40
3.0
 40
3.0
 40
3.0
 40
4.0
 40
4.0
 40
4.0
 40
5.0
 40
5.0
 40
5.0
 40
6.0
 40
6.0
 40
6.0
 40
7.0
 40
7.0
 40
7.0
 40
8.0
 40
8.0
 40
8.0
 40
8.0
 10
132.53324272049
 20
-52.62907607379904
 30
0.0
 10
132.53324272049
 20
-52.62907607379904
 30
0.0
 10
180.0547100999132
 20
-50.43763585695565
 30
0.0
 10
180.0547100999132
 20
-50.43763585695565
 30
0.0
 10
180.0547100999132
 20
-50.43763585695565
 30
0.0
 10
181.3488677082854
 20
-50.35135868306459
 30
0.0
 10
181.3661231430637
 20
-51.5333559653775
 30
0.0
 10
181.3661231430637
 20
-51.5333559653775
 30
0.0
 10
180.1582427085824
 20
-65.65692933141166
 30
0.0
 10
180.1582427085824
 20
-65.65692933141166
 30
0.0
 10
180.1582427085824
 20
-65.65692933141166
 30
0.0
 10
179.8131340130157
 20
-66.93383150500506
 30
0.0
 10
178.6742753176486
 20
-66.95108693978359
 30
0.0
 10
178.6742753176486
 20
-66.95108693978359
 30
0.0
 10
132.6540307639365
 20
-66.77853259200084
 30
0.0
 10
132.6540307639365
 20
-66.77853259200084
 30
0.0
 10
132.6540307639365
 20
-66.77853259200084
 30
0.0
 10
131.8430253293564
 20
-66.74402172244441
 30
0.0
 10
131.7394927206868
 20
-65.91576085308611
 30
0.0
 10
131.7394927206868
 20
-65.91576085308611
 30
0.0
 10
131.7394927206868
 20
-53.57812498660515
 30
0.0
 10
131.7394927206868
 20
-53.57812498660515
 30
0.0
 10
131.7394927206868
 20
-53.57812498660515
 30
0.0
 10
131.6847564018796
 20
-52.66820380163626
 30
0.0
 10
132.53324272049
 20
-52.62907607379904
 30
0.0
  0
SPLINE
  5
135
330
70
100
AcDbEntity
  8
レイヤー 1
 62
   250
420
  2299925
370
     9
100
AcDbSpline
210
0.0
220
0.0
230
1.0
 70
     9
 71
     3
 72
    17
 73
    13
 74
     0
 42
0.0000000001
 43
0.0000000001
 40
0.0
 40
0.0
 40
0.0
 40
0.0
 40
1.0
 40
1.0
 40
1.0
 40
2.0
 40
2.0
 40
2.0
 40
3.0
 40
3.0
 40
3.0
 40
4.0
 40
4.0
 40
4.0
 40
4.0
 10
136.3466947426603
 20
-53.23301792933226
 30
0.0
 10
136.3329035947959
 20
-53.47086409185689
 30
0.0
 10
136.1535557739694
 20
-53.68165759527474
 30
0.0
 10
135.9153079370049
 20
-53.68165759527474
 30
0.0
 10
135.6770601000404
 20
-53.68165759527474
 30
0.0
 10
135.4839220675766
 20
-53.47126412806479
 30
0.0
 10
135.4839220675766
 20
-53.23301629106819
 30
0.0
 10
135.4839220675766
 20
-52.99476845407161
 30
0.0
 10
135.6773126898762
 20
-52.79081300899196
 30
0.0
 10
135.9153041923667
 20
-52.80163276200033
 30
0.0
 10
136.1699182805734
 20
-52.81320612964609
 30
0.0
 10
136.3599691262019
 20
-53.00415592987776
 30
0.0
 10
136.3466947426603
 20
-53.23301792933226
 30
0.0
  0
CIRCLE
  5
136
330
70
100
AcDbEntity
  8
レイヤー 1
 62
   250
420
  2299925
370
     9
100
AcDbCircle
 10
143.0050174031939
 20
-52.9871263454811
 30
0.0
 40
0.4615828803208376
  0
CIRCLE
  5
137
330
70
100
AcDbEntity
  8
レイヤー 1
 62
   250
420
  2299925
370
     9
100
AcDbCircle
 10
150.4573255964105
 20
-52.65927308469035
 30
0.0
 40
0.4615828803185516
  0
CIRCLE
  5
138
330
70
100
AcDbEntity
  8
レイヤー 1
 62
   250
420
  2299925
370
     9
100
AcDbCircle
 10
158.3689424422555
 20
-52.30122281301055
 30
0.0
 40
0.5047214672643201
  0
CIRCLE
  5
139
330
70
100
AcDbEntity
  8
レイヤー 1
 62
   250
420
  2299925
370
     9
100
AcDbCircle
 10
166.6817481467001
 20
-52.00788042181617
 30
0.0
 40
0.5176630433498635
  0
CIRCLE
  5
13A
330
70
100
AcDbEntity
  8
レイヤー 1
 62
   250
420
  2299925
370
     9
100
AcDbCircle
 10
175.4906476010189
 20
-51.58512226974639
 30
0.0
 40
0.5090353259596751
  0
CIRCLE
  5
13B
330
70
100
AcDbEntity
  8
レイヤー 1
 62
   250
420
  2299925
370
     9
100
AcDbCircle
 10
180.0503962411795
 20
-54.03970786696184
 30
0.0
 40
0.5478600542110512
  0
CIRCLE
  5
13C
330
70
100
AcDbEntity
  8
レイヤー 1
 62
   250
420
  2299925
370
     9
100
AcDbCircle
 10
179.2652739587744
 20
-63.4698029732957
 30
0.0
 40
0.4702105977100235
  0
CIRCLE
  5
13D
330
70
100
AcDbEntity
  8
レイヤー 1
 62
   250
420
  2299925
370
     9
100
AcDbCircle
 10
174.3949274925994
 20
-66.12282607045938
 30
0.0
 40
0.4831521737934813
  0
CIRCLE
  5
13E
330
70
100
AcDbEntity
  8
レイヤー 1
 62
   250
420
  2299925
370
     9
100
AcDbCircle
 10
165.7758378208417
 20
-66.09694291828901
 30
0.0
 40
0.4572690216247208
  0
CIRCLE
  5
13F
330
70
100
AcDbEntity
  8
レイヤー 1
 62
   250
420
  2299925
370
     9
100
AcDbCircle
 10
157.6657834750434
 20
-66.09694291828901
 30
0.0
 40
0.4572690216247208
  0
CIRCLE
  5
140
330
70
100
AcDbEntity
  8
レイヤー 1
 62
   250
420
  2299925
370
     9
100
AcDbCircle
 10
149.9698595639233
 20
-66.09694291828901
 30
0.0
 40
0.4572690216247208
  0
CIRCLE
  5
141
330
70
100
AcDbEntity
  8
レイヤー 1
 62
   250
420
  2299925
370
     9
100
AcDbCircle
 10
142.6880660874829
 20
-66.09694291828901
 30
0.0
 40
0.4572690216246807
  0
CIRCLE
  5
142
330
70
100
AcDbEntity
  8
レイヤー 1
 62
   250
420
  2299925
370
     9
100
AcDbCircle
 10
135.7772644587777
 20
-66.00203802700693
 30
0.0
 40
0.4313858694577651
  0
ELLIPSE
  5
143
330
70
100
AcDbEntity
  8
レイヤー 1
 62
   250
420
  2299925
370
     9
100
AcDbEllipse
 10
132.3520606553147
 20
-63.81922552752287
 30
0.0
 11
0.0
 21
0.4745244564030523
 31
0.0
210
0.0
220
0.0
230
1.0
 40
0.8909090909091
 41
0.0
 42
6.283185307179586
  0
CIRCLE
  5
144
330
70
100
AcDbEntity
  8
レイヤー 1
 62
   250
420
  2299925
370
     9
100
AcDbCircle
 10
132.3520606553147
 20
-55.69191574700307
 30
0.0
 40
0.4227581520966937
  0
ELLIPSE
  5
145
330
70
100
AcDbEntity
  8
レイヤー 1
 62
   250
420
  2299925
370
     9
100
AcDbEllipse
 10
137.7961503278661
 20
-55.5797554208863
 30
0.0
 11
1.000815217141299
 21
0.0
 31
0.0
210
0.0
220
0.0
230
1.0
 40
0.8620689655170561
 41
0.0
 42
6.283185307179586
  0
ELLIPSE
  5
146
330
70
100
AcDbEntity
  8
レイヤー 1
 62
   250
420
  2299925
370
     9
100
AcDbEllipse
 10
140.3670188727542
 20
-55.5797554208863
 30
0.0
 11
1.000815217141299
 21
0.0
 31
0.0
210
0.0
220
0.0
230
1.0
 40
0.8620689655170561
 41
0.0
 42
6.283185307179586
  0
ELLIPSE
  5
147
330
70
100
AcDbEntity
  8
レイヤー 1
 62
   250
420
  2299925
370
     9
100
AcDbEllipse
 10
143.1108242395808
 20
-55.5797554208863
 30
0.0
 11
0.9663043475845562
 21
0.0
 31
0.0
210
0.0
220
0.0
230
1.0
 40
0.8928571428570865
 41
0.0
 42
6.283185307179586
  0
SPLINE
  5
148
330
70
100
AcDbEntity
  8
レイヤー 1
 62
   250
420
  2299925
370
     9
100
AcDbSpline
210
0.0
220
0.0
230
1.0
 70
     9
 71
     3
 72
    17
 73
    13
 74
     0
 42
0.0000000001
 43
0.0000000001
 40
0.0
 40
0.0
 40
0.0
 40
0.0
 40
1.0
 40
1.0
 40
1.0
 40
2.0
 40
2.0
 40
2.0
 40
3.0
 40
3.0
 40
3.0
 40
4.0
 40
4.0
 40
4.0
 40
4.0
 10
146.9242753255838
 20
-55.46759509482761
 30
0.0
 10
146.9242753255838
 20
-55.95838563900728
 30
0.0
 10
146.4839206115365
 20
-56.35624998590966
 30
0.0
 10
145.940715543221
 20
-56.35624998590966
 30
0.0
 10
145.3975104749055
 20
-56.35624998590966
 30
0.0
 10
144.9571557608584
 20
-55.95838563900728
 30
0.0
 10
144.9571557608584
 20
-55.46759509482761
 30
0.0
 10
144.9571557608584
 20
-54.97680455064761
 30
0.0
 10
145.3975104749055
 20
-54.64796194285938
 30
0.0
 10
145.940715543221
 20
-54.64796194285938
 30
0.0
 10
146.4839206115365
 20
-54.64796194285938
 30
0.0
 10
146.9242753255838
 20
-54.97680455064761
 30
0.0
 10
146.9242753255838
 20
-55.46759509482761
 30
0.0
  0
ELLIPSE
  5
149
330
70
100
AcDbEntity
  8
レイヤー 1
 62
   250
420
  2299925
370
     9
100
AcDbEllipse
 10
148.9302196185461
 20
-55.41582879049298
 30
0.0
 11
1.039639945377595
 21
0.0
 31
0.0
210
0.0
220
0.0
230
1.0
 40
0.8049792531238066
 41
0.0
 42
6.283185307179586
  0
ELLIPSE
  5
14A
330
70
100
AcDbEntity
  8
レイヤー 1
 62
   250
420
  2299925
370
     9
100
AcDbEllipse
 10
151.8981544003971
 20
-55.29504074704542
 30
0.0
 11
0.9792459236990962
 21
0.0
 31
0.0
210
0.0
220
0.0
230
1.0
 40
0.8370044052599162
 41
0.0
 42
6.283185307179586
  0
ELLIPSE
  5
14B
330
70
100
AcDbEntity
  8
レイヤー 1
 62
   250
420
  2299925
370
     9
100
AcDbEllipse
 10
137.735756306142
 20
-57.68491846383906
 30
0.0
 11
0.9404211954172392
 21
0.0
 31
0.0
210
0.0
220
0.0
230
1.0
 40
0.8807339449540464
 41
0.0
 42
6.283185307179586
  0
ELLIPSE
  5
14C
330
70
100
AcDbEntity
  8
レイヤー 1
 62
   250
420
  2299925
370
     9
100
AcDbEllipse
 10
141.7519587507754
 20
-57.52961955083475
 30
0.0
 11
0.9361073367075267
 21
0.0
 31
0.0
210
0.0
220
0.0
230
1.0
 40
0.8479262672946642
 41
0.0
 42
6.283185307179586
  0
ELLIPSE
  5
14D
330
70
100
AcDbEntity
  8
レイヤー 1
 62
   250
420
  2299925
370
     9
100
AcDbEllipse
 10
137.735756306142
 20
-59.69517661551051
 30
0.0
 11
0.9404211954172392
 21
0.0
 31
0.0
210
0.0
220
0.0
230
1.0
 40
0.8532110091741124
 41
0.0
 42
6.283185307179586
  0
ELLIPSE
  5
14E
330
70
100
AcDbEntity
  8
レイヤー 1
 62
   250
420
  2299925
370
     9
100
AcDbEllipse
 10
137.7961503278661
 20
-61.81759509324075
 30
0.0
 11
1.000815217141299
 21
0.0
 31
0.0
210
0.0
220
0.0
230
1.0
 40
0.818965517241091
 41
0.0
 42
6.283185307179586
  0
ELLIPSE
  5
14F
330
70
100
AcDbEntity
  8
レイヤー 1
 62
   250
420
  2299925
370
     9
100
AcDbEllipse
 10
137.735756306142
 20
-63.80197009274466
 30
0.0
 11
0.9404211954172392
 21
0.0
 31
0.0
210
0.0
220
0.0
230
1.0
 40
0.7981651376144154
 41
0.0
 42
6.283185307179586
  0
ELLIPSE
  5
150
330
70
100
AcDbEntity
  8
レイヤー 1
 62
   250
420
  2299925
370
     9
100
AcDbEllipse
 10
140.272305218551
 20
-59.73831520245628
 30
0.0
 11
0.9921874997519532
 21
0.0
 31
0.0
210
0.0
220
0.0
230
1.0
 40
0.852173913043306
 41
0.0
 42
6.283185307179586
  0
ELLIPSE
  5
151
330
70
100
AcDbEntity
  8
レイヤー 1
 62
   250
420
  2299925
370
     9
100
AcDbEllipse
 10
143.0050174031939
 20
-59.69517661551043
 30
0.0
 11
1.000815217141058
 21
0.0
 31
0.0
210
0.0
220
0.0
230
1.0
 40
0.8448275862067612
 41
0.0
 42
6.283185307179586
  0
ELLIPSE
  5
152
330
70
100
AcDbEntity
  8
レイヤー 1
 62
   250
420
  2299925
370
     9
100
AcDbEllipse
 10
141.6786231529528
 20
-61.70543476718174
 30
0.0
 11
1.009442934529843
 21
0.0
 31
0.0
210
0.0
220
0.0
230
1.0
 40
0.811965811966013
 41
0.0
 42
6.283185307179586
  0
ELLIPSE
  5
153
330
70
100
AcDbEntity
  8
レイヤー 1
 62
   250
420
  2299925
370
     9
100
AcDbEllipse
 10
140.1947513805879
 20
-63.76745922318832
 30
0.0
 11
0.9146336617888069
 21
0.0
 31
0.0
210
0.0
220
0.0
230
1.0
 40
0.8584008168653475
 41
0.0
 42
6.283185307179586
  0
ELLIPSE
  5
154
330
70
100
AcDbEntity
  8
レイヤー 1
 62
   250
420
  2299925
370
     9
100
AcDbEllipse
 10
143.0050174031939
 20
-63.80197009274466
 30
0.0
 11
1.000815217141058
 21
0.0
 31
0.0
210
0.0
220
0.0
230
1.0
 40
0.74999999999992
 41
0.0
 42
6.283185307179586
  0
ELLIPSE
  5
155
330
70
100
AcDbEntity
  8
レイヤー 1
 62
   250
420
  2299925
370
     9
100
AcDbEllipse
 10
144.3532155436186
 20
-61.70543476718174
 30
0.0
 11
0.9576766301952902
 21
0.0
 31
0.0
210
0.0
220
0.0
230
1.0
 40
0.8558558558557901
 41
0.0
 42
6.283185307179586
  0
ELLIPSE
  5
156
330
70
100
AcDbEntity
  8
レイヤー 1
 62
   250
420
  2299925
370
     9
100
AcDbEllipse
 10
144.5019263701813
 20
-57.52961955083451
 30
0.0
 11
1.035326086697721
 21
0.0
 31
0.0
210
0.0
220
0.0
230
1.0
 40
0.8166666666669417
 41
0.0
 42
6.283185307179586
  0
ELLIPSE
  5
157
330
70
100
AcDbEntity
  8
レイヤー 1
 62
   250
420
  2299925
370
     9
100
AcDbEllipse
 10
147.4505660863224
 20
-57.38294835521964
 30
0.0
 11
1.07846467364357
 21
0.0
 31
0.0
210
0.0
220
0.0
230
1.0
 40
0.7919999999999209
 41
0.0
 42
6.283185307179586
  0
ELLIPSE
  5
158
330
70
100
AcDbEntity
  8
レイヤー 1
 62
   250
420
  2299925
370
     9
100
AcDbEllipse
 10
145.8889492388864
 20
-59.67360732203759
 30
0.0
 11
1.03532608669748
 21
0.0
 31
0.0
210
0.0
220
0.0
230
1.0
 40
0.7958333333335077
 41
0.0
 42
6.283185307179586
  0
ELLIPSE
  5
159
330
70
100
AcDbEntity
  8
レイヤー 1
 62
   250
420
  2299925
370
     9
100
AcDbEllipse
 10
148.7706068468617
 20
-59.54384153818211
 30
0.0
 11
1.052581521476013
 21
0.0
 31
0.0
210
0.0
220
0.0
230
1.0
 40
0.8077095868618426
 41
0.0
 42
6.283185307179586
  0
ELLIPSE
  5
15A
330
70
100
AcDbEntity
  8
レイヤー 1
 62
   250
420
  2299925
370
     9
100
AcDbEllipse
 10
147.2866394559285
 20
-61.70543476718174
 30
0.0
 11
0.9835597823628475
 21
0.0
 31
0.0
210
0.0
220
0.0
230
1.0
 40
0.8333333333331701
 41
0.0
 42
6.283185307179586
  0
ELLIPSE
  5
15B
330
70
100
AcDbEntity
  8
レイヤー 1
 62
   250
420
  2299925
370
     9
100
AcDbEllipse
 10
145.7767889128277
 20
-63.76745922318832
 30
0.0
 11
0.9231657606387877
 21
0.0
 31
0.0
210
0.0
220
0.0
230
1.0
 40
0.8504672897192243
 41
0.0
 42
6.283185307179586
  0
ELLIPSE
  5
15C
330
70
100
AcDbEntity
  8
レイヤー 1
 62
   250
420
  2299925
370
     9
100
AcDbEllipse
 10
148.6757019555812
 20
-63.69843748407547
 30
0.0
 11
1.043953804086827
 21
0.0
 31
0.0
210
0.0
220
0.0
230
1.0
 40
0.6859504132231241
 41
0.0
 42
6.283185307179586
  0
ELLIPSE
  5
15D
330
70
100
AcDbEntity
  8
レイヤー 1
 62
   250
420
  2299925
370
     9
100
AcDbEllipse
 10
151.4948086124703
 20
-63.76745922318832
 30
0.0
 11
1.037483016059757
 21
0.0
 31
0.0
210
0.0
220
0.0
230
1.0
 40
0.75675675674563
 41
0.0
 42
6.283185307179586
  0
ELLIPSE
  5
15E
330
70
100
AcDbEntity
  8
レイヤー 1
 62
   250
420
  2299925
370
     9
100
AcDbEllipse
 10
151.6522644548371
 20
-61.70543476718174
 30
0.0
 11
1.035326086697801
 21
0.0
 31
0.0
210
0.0
220
0.0
230
1.0
 40
0.7916666666664601
 41
0.0
 42
6.283185307179586
  0
ELLIPSE
  5
15F
330
70
100
AcDbEntity
  8
レイヤー 1
 62
   250
420
  2299925
370
     9
100
AcDbEllipse
 10
151.8248188026199
 20
-59.48811139817141
 30
0.0
 11
1.052581521476013
 21
0.0
 31
0.0
210
0.0
220
0.0
230
1.0
 40
0.8606557377049117
 41
0.0
 42
6.283185307179586
  0
ELLIPSE
  5
160
330
70
100
AcDbEntity
  8
レイヤー 1
 62
   250
420
  2299925
370
     9
100
AcDbEllipse
 10
151.8248188026199
 20
-57.38294835521964
 30
0.0
 11
1.052581521476013
 21
0.0
 31
0.0
210
0.0
220
0.0
230
1.0
 40
0.8114754098360705
 41
0.0
 42
6.283185307179586
  0
ELLIPSE
  5
161
330
70
100
AcDbEntity
  8
レイヤー 1
 62
   250
420
  2299925
370
     9
100
AcDbEllipse
 10
156.8634057578817
 20
-54.93267661670081
 30
0.0
 11
1.104347825811127
 21
0.0
 31
0.0
210
0.0
220
0.0
230
1.0
 40
0.7890624999997651
 41
0.0
 42
6.283185307179586
  0
ELLIPSE
  5
162
330
70
100
AcDbEntity
  8
レイヤー 1
 62
   250
420
  2299925
370
     9
100
AcDbEllipse
 10
156.6822236927105
 20
-57.25353259438168
 30
0.0
 11
1.181997282314361
 21
0.0
 31
0.0
210
0.0
220
0.0
230
1.0
 40
0.700729927006535
 41
0.0
 42
6.283185307179586
  0
ELLIPSE
  5
163
330
70
100
AcDbEntity
  8
レイヤー 1
 62
   250
420
  2299925
370
     9
100
AcDbEllipse
 10
156.6908514100987
 20
-59.38457878950087
 30
0.0
 11
1.104347825810806
 21
0.0
 31
0.0
210
0.0
220
0.0
230
1.0
 40
0.8203125000000625
 41
0.0
 42
6.283185307179586
  0
ELLIPSE
  5
164
330
70
100
AcDbEntity
  8
レイヤー 1
 62
   250
420
  2299925
370
     9
100
AcDbEllipse
 10
156.6908514100987
 20
-61.60190215851184
 30
0.0
 11
1.104347825810806
 21
0.0
 31
0.0
210
0.0
220
0.0
230
1.0
 40
0.7656250000001067
 41
0.0
 42
6.283185307179586
  0
ELLIPSE
  5
165
330
70
100
AcDbEntity
  8
レイヤー 1
 62
   250
420
  2299925
370
     9
100
AcDbEllipse
 10
156.6908514100987
 20
-63.76745922318832
 30
0.0
 11
1.104347825810806
 21
0.0
 31
0.0
210
0.0
220
0.0
230
1.0
 40
0.7109374999997153
 41
0.0
 42
6.283185307179586
  0
ELLIPSE
  5
166
330
70
100
AcDbEntity
  8
レイヤー 1
 62
   250
420
  2299925
370
     9
100
AcDbEllipse
 10
159.9650701592466
 20
-54.85502716019887
 30
0.0
 11
1.091406249760516
 21
0.0
 31
0.0
210
0.0
220
0.0
230
1.0
 40
0.7905138339679131
 41
0.0
 42
6.283185307179586
  0
ELLIPSE
  5
167
330
70
100
AcDbEntity
  8
レイヤー 1
 62
   250
420
  2299925
370
     9
100
AcDbEllipse
 10
161.4188405393513
 20
-56.97744563792911
 30
0.0
 11
1.104347825811127
 21
0.0
 31
0.0
210
0.0
220
0.0
230
1.0
 40
0.7812499999998048
 41
0.0
 42
6.283185307179586
  0
ELLIPSE
  5
168
330
70
100
AcDbEntity
  8
レイヤー 1
 62
   250
420
  2299925
370
     9
100
AcDbEllipse
 10
159.6156476050192
 20
-59.32418476777705
 30
0.0
 11
1.078464673643169
 21
0.0
 31
0.0
210
0.0
220
0.0
230
1.0
 40
0.7840000000002523
 41
0.0
 42
6.283185307179586
  0
ELLIPSE
  5
169
330
70
100
AcDbEntity
  8
レイヤー 1
 62
   250
420
  2299925
370
     9
100
AcDbEllipse
 10
161.0715749144214
 20
-61.50699726723135
 30
0.0
 11
1.106504755174847
 21
0.0
 31
0.0
210
0.0
220
0.0
230
1.0
 40
0.8499025341001768
 41
0.0
 42
6.283185307179586
  0
ELLIPSE
  5
16A
330
70
100
AcDbEntity
  8
レイヤー 1
 62
   250
420
  2299925
370
     9
100
AcDbEllipse
 10
159.6156476050192
 20
-63.69843748407483
 30
0.0
 11
1.078464673643169
 21
0.0
 31
0.0
210
0.0
220
0.0
230
1.0
 40
0.792000000000141
 41
0.0
 42
6.283185307179586
  0
ELLIPSE
  5
16B
330
70
100
AcDbEntity
  8
レイヤー 1
 62
   250
420
  2299925
370
     9
100
AcDbEllipse
 10
163.256544343239
 20
-54.76874998630726
 30
0.0
 11
1.078464673643008
 21
0.0
 31
0.0
210
0.0
220
0.0
230
1.0
 40
0.7840000000002945
 41
0.0
 42
6.283185307179586
  0
ELLIPSE
  5
16C
330
70
100
AcDbEntity
  8
レイヤー 1
 62
   250
420
  2299925
370
     9
100
AcDbEllipse
 10
166.3366394511641
 20
-54.61345107330271
 30
0.0
 11
1.156114130145921
 21
0.0
 31
0.0
210
0.0
220
0.0
230
1.0
 40
0.7761194029850137
 41
0.0
 42
6.283185307179586
  0
ELLIPSE
  5
16D
330
70
100
AcDbEntity
  8
レイヤー 1
 62
   250
420
  2299925
370
     9
100
AcDbEllipse
 10
169.7014492329313
 20
-54.61345107330271
 30
0.0
 11
1.207880434480554
 21
0.0
 31
0.0
210
0.0
220
0.0
230
1.0
 40
0.7428571428572435
 41
0.0
 42
6.283185307179586
  0
ELLIPSE
  5
16E
330
70
100
AcDbEntity
  8
レイヤー 1
 62
   250
420
  2299925
370
     9
100
AcDbEllipse
 10
173.0317481451423
 20
-54.53580161680037
 30
0.0
 11
1.225135869258926
 21
0.0
 31
0.0
210
0.0
220
0.0
230
1.0
 40
0.7957746478873969
 41
0.0
 42
6.283185307179586
  0
ELLIPSE
  5
16F
330
70
100
AcDbEntity
  8
レイヤー 1
 62
   250
420
  2299925
370
     9
100
AcDbEllipse
 10
172.8678215147487
 20
-56.75312498581107
 30
0.0
 11
1.268274456204614
 21
0.0
 31
0.0
210
0.0
220
0.0
230
1.0
 40
0.7482993197280891
 41
0.0
 42
6.283185307179586
  0
ELLIPSE
  5
170
330
70
100
AcDbEntity
  8
レイヤー 1
 62
   250
420
  2299925
370
     9
100
AcDbEllipse
 10
172.6176177104633
 20
-59.04809781132382
 30
0.0
 11
1.242391304037137
 21
0.0
 31
0.0
210
0.0
220
0.0
230
1.0
 40
0.7777777777776129
 41
0.0
 42
6.283185307179586
  0
ELLIPSE
  5
171
330
70
100
AcDbEntity
  8
レイヤー 1
 62
   250
420
  2299925
370
     9
100
AcDbEllipse
 10
172.4364356452911
 20
-61.29993204989185
 30
0.0
 11
1.251019021425922
 21
0.0
 31
0.0
210
0.0
220
0.0
230
1.0
 40
0.8068965517246198
 41
0.0
 42
6.283185307179586
  0
ELLIPSE
  5
172
330
70
100
AcDbEntity
  8
レイヤー 1
 62
   250
420
  2299925
370
     9
100
AcDbEllipse
 10
172.3329030366216
 20
-63.60353259279427
 30
0.0
 11
1.147486412756495
 21
0.0
 31
0.0
210
0.0
220
0.0
230
1.0
 40
0.8270676691729153
 41
0.0
 42
6.283185307179586
  0
ELLIPSE
  5
173
330
70
100
AcDbEntity
  8
レイヤー 1
 62
   250
420
  2299925
370
     9
100
AcDbEllipse
 10
169.1579030374153
 20
-63.64667117974004
 30
0.0
 11
1.302785325761518
 21
0.0
 31
0.0
210
0.0
220
0.0
230
1.0
 40
0.6953642384103486
 41
0.0
 42
6.283185307179586
  0
ELLIPSE
  5
174
330
70
100
AcDbEntity
  8
レイヤー 1
 62
   250
420
  2299925
370
     9
100
AcDbEllipse
 10
165.7672101034801
 20
-63.69843748407483
 30
0.0
 11
1.104347825810806
 21
0.0
 31
0.0
210
0.0
220
0.0
230
1.0
 40
0.7734374999999966
 41
0.0
 42
6.283185307179586
  0
ELLIPSE
  5
175
330
70
100
AcDbEntity
  8
レイヤー 1
 62
   250
420
  2299925
370
     9
100
AcDbEllipse
 10
167.5358921682557
 20
-61.35169835422712
 30
0.0
 11
1.199252717091609
 21
0.0
 31
0.0
210
0.0
220
0.0
230
1.0
 40
0.7985611510789297
 41
0.0
 42
6.283185307179586
  0
ELLIPSE
  5
176
330
70
100
AcDbEntity
  8
レイヤー 1
 62
   250
420
  2299925
370
     9
100
AcDbEllipse
 10
169.3563405373657
 20
-59.04809781132399
 30
0.0
 11
1.104347825811127
 21
0.0
 31
0.0
210
0.0
220
0.0
230
1.0
 40
0.8749999999994008
 41
0.0
 42
6.283185307179586
  0
ELLIPSE
  5
177
330
70
100
AcDbEntity
  8
レイヤー 1
 62
   250
420
  2299925
370
     9
100
AcDbEllipse
 10
167.7774682551515
 20
-56.82214672492424
 30
0.0
 11
1.251019021426403
 21
0.0
 31
0.0
210
0.0
220
0.0
230
1.0
 40
0.8137931034484138
 41
0.0
 42
6.283185307179586
  0
ELLIPSE
  5
178
330
70
100
AcDbEntity
  8
レイヤー 1
 62
   250
420
  2299925
370
     9
100
AcDbEllipse
 10
164.5118772233594
 20
-56.97744563792911
 30
0.0
 11
1.255332880120475
 21
0.0
 31
0.0
210
0.0
220
0.0
230
1.0
 40
0.6872852233679461
 41
0.0
 42
6.283185307179586
  0
ELLIPSE
  5
179
330
70
100
AcDbEntity
  8
レイヤー 1
 62
   250
420
  2299925
370
     9
100
AcDbEllipse
 10
166.0519247772901
 20
-59.08260868088145
 30
0.0
 11
1.14748641272457
 21
0.0
 31
0.0
210
0.0
220
0.0
230
1.0
 40
0.7368421052835107
 41
0.0
 42
6.283185307179586
  0
ELLIPSE
  5
17A
330
70
100
AcDbEntity
  8
レイヤー 1
 62
   250
420
  2299925
370
     9
100
AcDbEllipse
 10
162.7475090172788
 20
-59.28104618083144
 30
0.0
 11
1.207880434480554
 21
0.0
 31
0.0
210
0.0
220
0.0
230
1.0
 40
0.7357142857142876
 41
0.0
 42
6.283185307179586
  0
ELLIPSE
  5
17B
330
70
100
AcDbEntity
  8
レイヤー 1
 62
   250
420
  2299925
370
     9
100
AcDbEllipse
 10
164.1624546690991
 20
-61.50699726723135
 30
0.0
 11
1.207880434481036
 21
0.0
 31
0.0
210
0.0
220
0.0
230
1.0
 40
0.7785714285711145
 41
0.0
 42
6.283185307179586
  0
ELLIPSE
  5
17C
330
70
100
AcDbEntity
  8
レイヤー 1
 62
   250
420
  2299925
370
     9
100
AcDbEllipse
 10
162.5663269521067
 20
-63.69843748407483
 30
0.0
 11
1.026698369308375
 21
0.0
 31
0.0
210
0.0
220
0.0
230
1.0
 40
0.8319327731093283
 41
0.0
 42
6.283185307179586
  0
SPLINE
  5
17D
330
70
100
AcDbEntity
  8
レイヤー 1
 62
   250
420
  2299925
370
     9
100
AcDbSpline
210
0.0
220
0.0
230
1.0
 70
     9
 71
     3
 72
    56
 73
    52
 74
     0
 42
0.0000000001
 43
0.0000000001
 40
0.0
 40
0.0
 40
0.0
 40
0.0
 40
1.0
 40
1.0
 40
1.0
 40
2.0
 40
2.0
 40
2.0
 40
3.0
 40
3.0
 40
3.0
 40
4.0
 40
4.0
 40
4.0
 40
5.0
 40
5.0
 40
5.0
 40
6.0
 40
6.0
 40
6.0
 40
7.0
 40
7.0
 40
7.0
 40
8.0
 40
8.0
 40
8.0
 40
9.0
 40
9.0
 40
9.0
 40
10.0
 40
10.0
 40
10.0
 40
11.0
 40
11.0
 40
11.0
 40
12.0
 40
12.0
 40
12.0
 40
13.0
 40
13.0
 40
13.0
 40
14.0
 40
14.0
 40
14.0
 40
15.0
 40
15.0
 40
15.0
 40
16.0
 40
16.0
 40
16.0
 40
17.0
 40
17.0
 40
17.0
 40
17.0
 10
133.8619111984129
 20
-54.71698368197158
 30
0.0
 10
133.8619111984129
 20
-54.71698368197158
 30
0.0
 10
177.8115035787284
 20
-53.14673911714602
 30
0.0
 10
177.8115035787284
 20
-53.14673911714602
 30
0.0
 10
177.8115035787284
 20
-53.14673911714602
 30
0.0
 10
178.4672101003036
 20
-53.20713313894772
 30
0.0
 10
178.4499546655254
 20
-54.03970786696159
 30
0.0
 10
178.4499546655254
 20
-54.03970786696159
 30
0.0
 10
178.3291666220773
 20
-55.35543476876796
 30
0.0
 10
178.3291666220773
 20
-55.35543476876796
 30
0.0
 10
178.3291666220773
 20
-55.35543476876796
 30
0.0
 10
179.0021285784307
 20
-56.11467389901438
 30
0.0
 10
179.0021285784307
 20
-56.11467389901438
 30
0.0
 10
179.0021285784307
 20
-56.11467389901438
 30
0.0
 10
178.60525357853
 20
-61.42934781072747
 30
0.0
 10
178.60525357853
 20
-61.42934781072747
 30
0.0
 10
178.60525357853
 20
-61.42934781072747
 30
0.0
 10
177.4491394483847
 20
-61.73994563673719
 30
0.0
 10
177.4146285788282
 20
-63.84510867968923
 30
0.0
 10
177.4146285788282
 20
-63.84510867968923
 30
0.0
 10
177.5871829266117
 20
-64.32826085348235
 30
0.0
 10
176.7071557529184
 20
-64.74239128816101
 30
0.0
 10
176.7071557529184
 20
-64.74239128816101
 30
0.0
 10
174.6365035795228
 20
-64.82866846205208
 30
0.0
 10
174.6365035795228
 20
-64.82866846205208
 30
0.0
 10
174.6365035795228
 20
-64.82866846205208
 30
0.0
 10
174.6192481447446
 20
-64.55258150560037
 30
0.0
 10
174.6192481447446
 20
-64.55258150560037
 30
0.0
 10
174.6192481447446
 20
-64.55258150560037
 30
0.0
 10
133.8619111984129
 20
-64.75964672293859
 30
0.0
 10
133.8619111984129
 20
-64.75964672293859
 30
0.0
 10
133.8619111984129
 20
-64.75964672293859
 30
0.0
 10
133.4822916332906
 20
-64.65611411426867
 30
0.0
 10
133.3097372855079
 20
-64.13845107091977
 30
0.0
 10
133.3097372855079
 20
-64.13845107091977
 30
0.0
 10
133.3097372855079
 20
-62.91331520166101
 30
0.0
 10
133.3097372855079
 20
-62.91331520166101
 30
0.0
 10
133.3097372855079
 20
-62.91331520166101
 30
0.0
 10
132.6367753291544
 20
-62.17133150619408
 30
0.0
 10
132.6367753291544
 20
-62.17133150619408
 30
0.0
 10
132.6367753291544
 20
-62.17133150619408
 30
0.0
 10
132.6367753291544
 20
-57.52961955083443
 30
0.0
 10
132.6367753291544
 20
-57.52961955083443
 30
0.0
 10
132.6367753291544
 20
-57.52961955083443
 30
0.0
 10
133.1889492420597
 20
-57.01195650748777
 30
0.0
 10
133.2924818507293
 20
-56.73586955103319
 30
0.0
 10
133.2924818507293
 20
-56.73586955103319
 30
0.0
 10
133.2752264159508
 20
-55.41582879049298
 30
0.0
 10
133.2752264159508
 20
-55.41582879049298
 30
0.0
 10
133.2752264159508
 20
-55.41582879049298
 30
0.0
 10
133.2062046768377
 20
-54.9930706384252
 30
0.0
 10
133.8619111984129
 20
-54.71698368197158
 30
0.0
  0
SPLINE
  5
17E
330
70
100
AcDbEntity
  8
レイヤー 1
 62
   250
420
  2299925
370
     9
100
AcDbSpline
210
0.0
220
0.0
230
1.0
 70
     8
 71
     3
 72
    26
 73
    22
 74
     0
 42
0.0000000001
 43
0.0000000001
 40
0.0
 40
0.0
 40
0.0
 40
0.0
 40
1.0
 40
1.0
 40
1.0
 40
2.0
 40
2.0
 40
2.0
 40
3.0
 40
3.0
 40
3.0
 40
4.0
 40
4.0
 40
4.0
 40
5.0
 40
5.0
 40
5.0
 40
6.0
 40
6.0
 40
6.0
 40
7.0
 40
7.0
 40
7.0
 40
7.0
 10
179.7354845564531
 20
-54.53580161680037
 30
0.0
 10
179.7354845564531
 20
-54.53580161680037
 30
0.0
 10
179.3990035783354
 20
-54.69972824719144
 30
0.0
 10
179.3990035783354
 20
-54.69972824719144
 30
0.0
 10
179.3990035783354
 20
-54.69972824719144
 30
0.0
 10
179.3990035783354
 20
-54.9758152036441
 30
0.0
 10
179.3990035783354
 20
-54.9758152036441
 30
0.0
 10
179.3990035783354
 20
-54.9758152036441
 30
0.0
 10
180.1927535781376
 20
-55.49347824699782
 30
0.0
 10
180.1582427085805
 20
-55.80407607300465
 30
0.0
 10
180.1582427085805
 20
-55.80407607300465
 30
0.0
 10
179.7354845564531
 20
-61.50699726723135
 30
0.0
 10
179.7354845564531
 20
-61.50699726723135
 30
0.0
 10
179.7354845564531
 20
-61.50699726723135
 30
0.0
 10
179.588813360897
 20
-62.27221099904944
 30
0.0
 10
178.7260416219819
 20
-62.59276310035459
 30
0.0
 10
178.7260416219819
 20
-62.59276310035459
 30
0.0
 10
178.7260416219819
 20
-62.84429346254945
 30
0.0
 10
178.7260416219819
 20
-62.84429346254945
 30
0.0
 10
178.7260416219819
 20
-62.84429346254945
 30
0.0
 10
179.1056611871045
 20
-62.99959237555399
 30
0.0
 10
179.1056611871045
 20
-62.99959237555399
 30
0.0
  0
SPLINE
  5
17F
330
70
100
AcDbEntity
  8
レイヤー 1
 62
   250
420
  2299925
370
     9
100
AcDbSpline
210
0.0
220
0.0
230
1.0
 70
     8
 71
     3
 72
    44
 73
    40
 74
     0
 42
0.0000000001
 43
0.0000000001
 40
0.0
 40
0.0
 40
0.0
 40
0.0
 40
1.0
 40
1.0
 40
1.0
 40
2.0
 40
2.0
 40
2.0
 40
3.0
 40
3.0
 40
3.0
 40
4.0
 40
4.0
 40
4.0
 40
5.0
 40
5.0
 40
5.0
 40
6.0
 40
6.0
 40
6.0
 40
7.0
 40
7.0
 40
7.0
 40
8.0
 40
8.0
 40
8.0
 40
9.0
 40
9.0
 40
9.0
 40
10.0
 40
10.0
 40
10.0
 40
11.0
 40
11.0
 40
11.0
 40
12.0
 40
12.0
 40
12.0
 40
13.0
 40
13.0
 40
13.0
 40
13.0
 10
178.9075551140866
 20
-63.77171336819253
 30
0.0
 10
178.9075551140866
 20
-63.77171336819253
 30
0.0
 10
178.5189764046427
 20
-63.9400135710374
 30
0.0
 10
178.5189764046427
 20
-63.9400135710374
 30
0.0
 10
178.5189764046427
 20
-63.9400135710374
 30
0.0
 10
178.3119111873023
 20
-65.31182063584262
 30
0.0
 10
177.0004981441525
 20
-65.34633150539905
 30
0.0
 10
177.0004981441525
 20
-65.34633150539905
 30
0.0
 10
133.9654438070853
 20
-65.39809780973465
 30
0.0
 10
133.9654438070853
 20
-65.39809780973465
 30
0.0
 10
133.9654438070853
 20
-65.39809780973465
 30
0.0
 10
133.0854166333924
 20
-64.89769020116395
 30
0.0
 10
132.9646285899443
 20
-64.10394020136239
 30
0.0
 10
132.9646285899443
 20
-64.10394020136239
 30
0.0
 10
132.9646285899443
 20
-62.98233694077642
 30
0.0
 10
132.9646285899443
 20
-62.98233694077642
 30
0.0
 10
132.9646285899443
 20
-62.98233694077642
 30
0.0
 10
132.3261775031469
 20
-62.48192933220284
 30
0.0
 10
132.3520606553146
 20
-62.03328802796711
 30
0.0
 10
132.3520606553146
 20
-62.03328802796711
 30
0.0
 10
132.3512944113907
 20
-57.3398097682709
 30
0.0
 10
132.3512944113907
 20
-57.3398097682709
 30
0.0
 10
132.3512944113907
 20
-57.3398097682709
 30
0.0
 10
132.5729435602208
 20
-56.75328270429957
 30
0.0
 10
132.9301177203875
 20
-56.5460597684687
 30
0.0
 10
132.9301177203875
 20
-56.5460597684687
 30
0.0
 10
132.9301177203875
 20
-55.26915759487786
 30
0.0
 10
132.9301177203875
 20
-55.26915759487786
 30
0.0
 10
132.9301177203875
 20
-55.26915759487786
 30
0.0
 10
133.0509057638312
 20
-54.19932063862203
 30
0.0
 10
133.9826992418613
 20
-54.02676629083831
 30
0.0
 10
133.9826992418613
 20
-54.02676629083831
 30
0.0
 10
177.8115035787322
 20
-52.19769020433863
 30
0.0
 10
177.8115035787322
 20
-52.19769020433863
 30
0.0
 10
177.8115035787322
 20
-52.19769020433863
 30
0.0
 10
179.1919383609962
 20
-52.0596467261184
 30
0.0
 10
179.3817481435572
 20
-53.49184781271377
 30
0.0
 10
179.3817481435572
 20
-53.49184781271377
 30
0.0
 10
179.7354845564531
 20
-53.59250763772105
 30
0.0
 10
179.7354845564531
 20
-53.59250763772105
 30
0.0
  0
SPLINE
  5
180
330
70
100
AcDbEntity
  8
レイヤー 1
 62
   250
420
  2299925
370
     9
100
AcDbSpline
210
0.0
220
0.0
230
1.0
 70
     8
 71
     3
 72
    14
 73
    10
 74
     0
 42
0.0000000001
 43
0.0000000001
 40
0.0
 40
0.0
 40
0.0
 40
0.0
 40
1.0
 40
1.0
 40
1.0
 40
2.0
 40
2.0
 40
2.0
 40
3.0
 40
3.0
 40
3.0
 40
3.0
 10
129.3927535908366
 20
-72.26576085150021
 30
0.0
 10
129.3927535908366
 20
-72.26576085150021
 30
0.0
 10
129.9679347501139
 20
-71.61580614152414
 30
0.0
 10
129.921920257371
 20
-70.68976447508257
 30
0.0
 10
129.921920257371
 20
-70.68976447508257
 30
0.0
 10
129.979438373298
 20
-72.36929346016371
 30
0.0
 10
129.979438373298
 20
-72.36929346016371
 30
0.0
 10
129.979438373298
 20
-72.36929346016371
 30
0.0
 10
181.2259227354884
 20
-73.42187498164389
 30
0.0
 10
181.2259227354884
 20
-73.42187498164389
 30
0.0
  0
LWPOLYLINE
  5
181
330
70
100
AcDbEntity
  8
レイヤー 1
 62
   250
420
  2299925
370
     9
100
AcDbPolyline
 90
        7
 70
     0
 43
0.0
 10
155.931612279854
 20
-72.94379793572838
 10
155.931612279854
 20
-73.26657606863453
 10
155.707291627736
 20
-73.42187498164389
 10
155.707291627736
 20
-74.76779889434628
 10
155.4484601060615
 20
-76.09646737227496
 10
155.4484601060615
 20
-77.1835597633074
 10
155.6451958112936
 20
-78.46955792116117
  0
LWPOLYLINE
  5
182
330
70
100
AcDbEntity
  8
レイヤー 1
 62
   250
420
  2299925
370
     9
100
AcDbPolyline
 90
        8
 70
     0
 43
0.0
 10
157.9504981489144
 20
-72.97323367740367
 10
157.9504981489144
 20
-74.23288041621917
 10
157.7951992359098
 20
-74.80230976390271
 10
157.9504981489144
 20
-75.33722824202982
 10
157.7951992359098
 20
-76.83845106774157
 10
157.4846014099001
 20
-77.20081519808561
 10
157.4846014099001
 20
-77.80475541532621
 10
157.1194212235025
 20
-78.545627330309
  0
SPLINE
  5
183
330
70
100
AcDbEntity
  8
レイヤー 1
 62
   250
420
  2299925
370
     9
100
AcDbSpline
210
0.0
220
0.0
230
1.0
 70
     8
 71
     3
 72
    14
 73
    10
 74
     0
 42
0.0000000001
 43
0.0000000001
 40
0.0
 40
0.0
 40
0.0
 40
0.0
 40
1.0
 40
1.0
 40
1.0
 40
2.0
 40
2.0
 40
2.0
 40
3.0
 40
3.0
 40
3.0
 40
3.0
 10
110.3567253282787
 20
-125.001698271818
 30
0.0
 10
110.3567253282787
 20
-125.001698271818
 30
0.0
 10
108.0305253353108
 20
-129.7608695327792
 30
0.0
 10
108.0305253353108
 20
-129.7608695327792
 30
0.0
 10
108.0305253353108
 20
-129.7608695327792
 30
0.0
 10
107.8004528716004
 20
-130.0829709819718
 30
0.0
 10
107.9499999730122
 20
-130.761684749918
 30
0.0
 10
107.9499999730122
 20
-130.761684749918
 30
0.0
 10
108.6689073039763
 20
-132.0859876627124
 30
0.0
 10
108.6689073039763
 20
-132.0859876627124
 30
0.0
  0
LWPOLYLINE
  5
184
330
70
100
AcDbEntity
  8
レイヤー 1
 62
   250
420
  2299925
370
     9
100
AcDbPolyline
 90
        4
 70
     0
 43
0.0
 10
131.0955278115055
 20
-72.39221747404664
 10
130.957246344072
 20
-72.94447461944415
 10
131.5094202569773
 20
-74.90009056098436
 10
130.8660440828503
 20
-77.45696547380943
  0
LINE
  5
185
330
70
100
AcDbEntity
  8
レイヤー 1
 62
   250
420
  2299925
370
     9
100
AcDbLine
 10
130.957246344072
 20
-73.42187498164389
 30
0.0
 11
129.9205565861
 21
-77.4177584732017
 31
0.0
  0
LWPOLYLINE
  5
186
330
70
100
AcDbEntity
  8
レイヤー 1
 62
   250
420
  2299925
370
     9
100
AcDbPolyline
 90
        3
 70
     1
 43
0.0
 10
129.9205565861
 20
-73.31259056138124
 10
130.2555253297545
 20
-72.9674818658151
 10
130.3015398224967
 20
-73.86476447428657
  0
LWPOLYLINE
  5
187
330
70
100
AcDbEntity
  8
レイヤー 1
 62
   250
420
  2299925
370
     9
100
AcDbPolyline
 90
        3
 70
     1
 43
0.0
 10
129.7378622864057
 20
-74.60099635816044
 10
129.9205565861
 20
-73.92228259021426
 10
130.0254528660438
 20
-74.85407606824215
  0
LWPOLYLINE
  5
188
330
70
100
AcDbEntity
  8
レイヤー 1
 62
   250
420
  2299925
370
     9
100
AcDbPolyline
 90
        3
 70
     1
 43
0.0
 10
129.4847825763239
 20
-75.75135867671362
 10
129.657336924107
 20
-75.12728711889812
 10
129.7378622864057
 20
-75.86639490856869
  0
LINE
  5
189
330
70
100
AcDbEntity
  8
レイヤー 1
 62
   250
420
  2299925
370
     9
100
AcDbLine
 10
129.243206489428
 20
-71.14990940250153
 30
0.0
 11
129.680344170478
 21
-71.14990940250153
 31
0.0
  0
ENDSEC
  0
SECTION
  2
OBJECTS
  0
DICTIONARY
  5
C
330
0
100
AcDbDictionary
281
     1
  3
ACAD_COLOR
350
63
  3
ACAD_DETAILVIEWSTYLE
350
6A
  3
ACAD_GROUP
350
D
  3
ACAD_LAYOUT
350
62
  3
ACAD_MATERIAL
350
10
  3
ACAD_MLEADERSTYLE
350
66
  3
ACAD_MLINESTYLE
350
5F
  3
ACAD_PLOTSETTINGS
350
61
  3
ACAD_PLOTSTYLENAME
350
E
  3
ACAD_SCALELIST
350
42
  3
ACAD_SECTIONVIEWSTYLE
350
68
  3
ACAD_TABLESTYLE
350
64
  3
ACAD_VISUALSTYLE
350
29
  3
ACDB_RECOMPOSE_DATA
350
192
  3
AcDbVariableDictionary
350
18A
  0
DICTIONARY
  5
63
102
{ACAD_REACTORS
330
C
102
}
330
C
100
AcDbDictionary
281
     1
  0
DICTIONARY
  5
6A
102
{ACAD_REACTORS
330
C
102
}
330
C
100
AcDbDictionary
281
     1
  3
Imperial24
350
6B
  0
DICTIONARY
  5
D
102
{ACAD_REACTORS
330
C
102
}
330
C
100
AcDbDictionary
281
     1
  0
DICTIONARY
  5
62
102
{ACAD_REACTORS
330
C
102
}
330
C
100
AcDbDictionary
281
     1
  3
Layout1
350
6F
  3
Layout2
350
77
  3
Model
350
73
  0
DICTIONARY
  5
10
102
{ACAD_REACTORS
330
C
102
}
330
C
100
AcDbDictionary
281
     1
  3
ByBlock
350
19
  3
ByLayer
350
11
  3
Global
350
21
  0
DICTIONARY
  5
66
102
{ACAD_REACTORS
330
C
102
}
330
C
100
AcDbDictionary
281
     1
  3
Standard
350
67
  0
DICTIONARY
  5
5F
102
{ACAD_REACTORS
330
C
102
}
330
C
100
AcDbDictionary
281
     1
  3
Standard
350
60
  0
DICTIONARY
  5
61
102
{ACAD_REACTORS
330
C
102
}
330
C
100
AcDbDictionary
281
     1
  0
ACDBDICTIONARYWDFLT
  5
E
102
{ACAD_REACTORS
330
C
102
}
330
C
100
AcDbDictionary
281
     1
  3
Normal
350
F
100
AcDbDictionaryWithDefault
340
F
  0
DICTIONARY
  5
42
102
{ACAD_REACTORS
330
C
102
}
330
C
100
AcDbDictionary
281
     1
  3
A0
350
43
  3
A1
350
44
  3
A2
350
45
  3
A3
350
46
  3
A4
350
47
  3
A5
350
48
  3
A6
350
49
  3
A7
350
4A
  3
A8
350
4B
  3
A9
350
4C
  3
B0
350
4D
  3
B1
350
4E
  3
B2
350
4F
  3
B3
350
50
  3
B4
350
51
  3
B5
350
52
  3
B6
350
53
  0
DICTIONARY
  5
68
102
{ACAD_REACTORS
330
C
102
}
330
C
100
AcDbDictionary
281
     1
  3
Imperial24
350
69
  0
DICTIONARY
  5
64
102
{ACAD_REACTORS
330
C
102
}
330
C
100
AcDbDictionary
281
     1
  3
Standard
350
65
  0
DICTIONARY
  5
29
102
{ACAD_REACTORS
330
C
102
}
330
C
100
AcDbDictionary
281
     1
  3
2dWireframe
350
2F
  3
Basic
350
2E
  3
Brighten
350
35
  3
ColorChange
350
39
  3
Conceptual
350
32
  3
Dim
350
34
  3
EdgeColorOff
350
41
  3
Facepattern
350
38
  3
Flat
350
2A
  3
FlatWithEdges
350
2B
  3
Gouraud
350
2C
  3
GouraudWithEdges
350
2D
  3
Hidden
350
31
  3
JitterOff
350
3F
  3
Linepattern
350
37
  3
OverhangOff
350
40
  3
Realistic
350
33
  3
Shaded
350
3E
  3
Shaded with edges
350
3D
  3
Shades of Gray
350
3A
  3
Sketchy
350
3B
  3
Thicken
350
36
  3
Wireframe
350
30
  3
X-Ray
350
3C
  0
XRECORD
  5
192
102
{ACAD_REACTORS
330
C
102
}
330
C
100
AcDbXrecord
280
     1
 90
        1
330
65
  0
DICTIONARY
  5
18A
102
{ACAD_REACTORS
330
C
102
}
330
C
100
AcDbDictionary
281
     1
  3
CANNOSCALE
350
18F
  3
CMLEADERSTYLE
350
18C
  3
CTABLESTYLE
350
18B
  3
CVIEWDETAILSTYLE
350
18D
  3
CVIEWSECTIONSTYLE
350
18E
  0
ACDBDETAILVIEWSTYLE
  5
6B
102
{ACAD_REACTORS
330
6A
102
}
330
6A
100
AcDbModelDocViewStyle
 70
     0
  3
Imperial24
290
     1
300
Imperial24
 90
        0
100
AcDbDetailViewStyle
 70
     0
 71
     0
 90
        3
 71
     1
340
55
 62
   256
 40
0.24
340
0
 62
   256
 40
0.24
300

 40
0.36
280
     3
 71
     2
340
5D
 90
       25
 62
   256
 71
     3
340
55
 62
   256
 40
0.24
 90
        1
 40
0.75
 90
        1
300
%<\AcVar ViewType \f "%tc1">% %<\AcVar ViewDetailId>%\PSCALE %<\AcVar ViewScale \f "%sn">%
 71
     4
340
5D
 90
       25
 62
   256
340
5D
 90
       25
 62
   256
280
     0
  0
LAYOUT
  5
6F
102
{ACAD_REACTORS
330
62
102
}
330
62
100
AcDbPlotSettings
  1

  2

  4

  6

 40
0.0
 41
0.0
 42
0.0
 43
0.0
 44
0.0
 45
0.0
 46
0.0
 47
0.0
 48
0.0
 49
0.0
140
0.0
141
0.0
142
1.0
143
1.0
 70
   688
 72
     0
 73
     0
 74
     5
  7

 75
    16
147
1.0
 76
     0
 77
     2
 78
   300
148
0.0
149
0.0
100
AcDbLayout
  1
Layout1
 70
     1
 71
     1
 10
0.0
 20
0.0
 11
12.0
 21
9.0
 12
0.0
 22
0.0
 32
0.0
 14
0.0
 24
0.0
 34
0.0
 15
0.0
 25
0.0
 35
0.0
146
0.0
 13
0.0
 23
0.0
 33
0.0
 16
1.0
 26
0.0
 36
0.0
 17
0.0
 27
1.0
 37
0.0
 76
     0
330
6C
  0
LAYOUT
  5
77
102
{ACAD_REACTORS
330
62
102
}
330
62
100
AcDbPlotSettings
  1

  2

  4

  6

 40
0.0
 41
0.0
 42
0.0
 43
0.0
 44
0.0
 45
0.0
 46
0.0
 47
0.0
 48
0.0
 49
0.0
140
0.0
141
0.0
142
1.0
143
1.0
 70
   688
 72
     0
 73
     0
 74
     5
  7

 75
    16
147
1.0
 76
     0
 77
     2
 78
   300
148
0.0
149
0.0
100
AcDbLayout
  1
Layout2
 70
     1
 71
     2
 10
0.0
 20
0.0
 11
12.0
 21
9.0
 12
0.0
 22
0.0
 32
0.0
 14
0.0
 24
0.0
 34
0.0
 15
0.0
 25
0.0
 35
0.0
146
0.0
 13
0.0
 23
0.0
 33
0.0
 16
1.0
 26
0.0
 36
0.0
 17
0.0
 27
1.0
 37
0.0
 76
     0
330
74
  0
LAYOUT
  5
73
102
{ACAD_REACTORS
330
62
102
}
330
62
100
AcDbPlotSettings
  1

  2

  4

  6

 40
0.0
 41
0.0
 42
0.0
 43
0.0
 44
0.0
 45
0.0
 46
0.0
 47
0.0
 48
0.0
 49
0.0
140
0.0
141
0.0
142
1.0
143
1.0
 70
  1712
 72
     0
 73
     0
 74
     0
  7

 75
     0
147
1.0
 76
     0
 77
     2
 78
   300
148
0.0
149
0.0
100
AcDbLayout
  1
Model
 70
     1
 71
     0
 10
0.0
 20
0.0
 11
12.0
 21
9.0
 12
0.0
 22
0.0
 32
0.0
 14
0.0
 24
0.0
 34
0.0
 15
0.0
 25
0.0
 35
0.0
146
0.0
 13
0.0
 23
0.0
 33
0.0
 16
1.0
 26
0.0
 36
0.0
 17
0.0
 27
1.0
 37
0.0
 76
     0
330
70
  0
MATERIAL
  5
19
102
{ACAD_XDICTIONARY
360
1A
102
}
102
{ACAD_REACTORS
330
10
102
}
330
10
100
AcDbMaterial
  1
ByBlock
 72
     0
 43
0.0208333333333333
 43
0.0
 43
0.0
 43
0.0
 43
0.0
 43
0.0208333333333333
 43
0.0
 43
0.0
 43
0.0
 43
0.0
 43
1.0
 43
0.0
 43
0.0
 43
0.0
 43
0.0
 43
1.0
 77
     0
 47
0.0208333333333333
 47
0.0
 47
0.0
 47
0.0
 47
0.0
 47
0.0208333333333333
 47
0.0
 47
0.0
 47
0.0
 47
0.0
 47
1.0
 47
0.0
 47
0.0
 47
0.0
 47
0.0
 47
1.0
171
     0
 49
0.0208333333333333
 49
0.0
 49
0.0
 49
0.0
 49
0.0
 49
0.0208333333333333
 49
0.0
 49
0.0
 49
0.0
 49
0.0
 49
1.0
 49
0.0
 49
0.0
 49
0.0
 49
0.0
 49
1.0
175
     0
142
0.0208333333333333
142
0.0
142
0.0
142
0.0
142
0.0
142
0.0208333333333333
142
0.0
142
0.0
142
0.0
142
0.0
142
1.0
142
0.0
142
0.0
142
0.0
142
0.0
142
1.0
179
     0
144
0.0208333333333333
144
0.0
144
0.0
144
0.0
144
0.0
144
0.0208333333333333
144
0.0
144
0.0
144
0.0
144
0.0
144
1.0
144
0.0
144
0.0
144
0.0
144
0.0
144
1.0
147
0.0208333333333333
147
0.0
147
0.0
147
0.0
147
0.0
147
0.0208333333333333
147
0.0
147
0.0
147
0.0
147
0.0
147
1.0
147
0.0
147
0.0
147
0.0
147
0.0
147
1.0
  0
MATERIAL
  5
11
102
{ACAD_XDICTIONARY
360
12
102
}
102
{ACAD_REACTORS
330
10
102
}
330
10
100
AcDbMaterial
  1
ByLayer
 72
     0
 43
0.0208333333333333
 43
0.0
 43
0.0
 43
0.0
 43
0.0
 43
0.0208333333333333
 43
0.0
 43
0.0
 43
0.0
 43
0.0
 43
1.0
 43
0.0
 43
0.0
 43
0.0
 43
0.0
 43
1.0
 77
     0
 47
0.0208333333333333
 47
0.0
 47
0.0
 47
0.0
 47
0.0
 47
0.0208333333333333
 47
0.0
 47
0.0
 47
0.0
 47
0.0
 47
1.0
 47
0.0
 47
0.0
 47
0.0
 47
0.0
 47
1.0
171
     0
 49
0.0208333333333333
 49
0.0
 49
0.0
 49
0.0
 49
0.0
 49
0.0208333333333333
 49
0.0
 49
0.0
 49
0.0
 49
0.0
 49
1.0
 49
0.0
 49
0.0
 49
0.0
 49
0.0
 49
1.0
175
     0
142
0.0208333333333333
142
0.0
142
0.0
142
0.0
142
0.0
142
0.0208333333333333
142
0.0
142
0.0
142
0.0
142
0.0
142
1.0
142
0.0
142
0.0
142
0.0
142
0.0
142
1.0
179
     0
144
0.0208333333333333
144
0.0
144
0.0
144
0.0
144
0.0
144
0.0208333333333333
144
0.0
144
0.0
144
0.0
144
0.0
144
1.0
144
0.0
144
0.0
144
0.0
144
0.0
144
1.0
147
0.0208333333333333
147
0.0
147
0.0
147
0.0
147
0.0
147
0.0208333333333333
147
0.0
147
0.0
147
0.0
147
0.0
147
1.0
147
0.0
147
0.0
147
0.0
147
0.0
147
1.0
  0
MATERIAL
  5
21
102
{ACAD_XDICTIONARY
360
22
102
}
102
{ACAD_REACTORS
330
10
102
}
330
10
100
AcDbMaterial
  1
Global
 72
     0
 43
0.0208333333333333
 43
0.0
 43
0.0
 43
0.0
 43
0.0
 43
0.0208333333333333
 43
0.0
 43
0.0
 43
0.0
 43
0.0
 43
1.0
 43
0.0
 43
0.0
 43
0.0
 43
0.0
 43
1.0
 77
     0
 47
0.0208333333333333
 47
0.0
 47
0.0
 47
0.0
 47
0.0
 47
0.0208333333333333
 47
0.0
 47
0.0
 47
0.0
 47
0.0
 47
1.0
 47
0.0
 47
0.0
 47
0.0
 47
0.0
 47
1.0
171
     0
 49
0.0208333333333333
 49
0.0
 49
0.0
 49
0.0
 49
0.0
 49
0.0208333333333333
 49
0.0
 49
0.0
 49
0.0
 49
0.0
 49
1.0
 49
0.0
 49
0.0
 49
0.0
 49
0.0
 49
1.0
175
     0
142
0.0208333333333333
142
0.0
142
0.0
142
0.0
142
0.0
142
0.0208333333333333
142
0.0
142
0.0
142
0.0
142
0.0
142
1.0
142
0.0
142
0.0
142
0.0
142
0.0
142
1.0
179
     0
144
0.0208333333333333
144
0.0
144
0.0
144
0.0
144
0.0
144
0.0208333333333333
144
0.0
144
0.0
144
0.0
144
0.0
144
1.0
144
0.0
144
0.0
144
0.0
144
0.0
144
1.0
147
0.0208333333333333
147
0.0
147
0.0
147
0.0
147
0.0
147
0.0208333333333333
147
0.0
147
0.0
147
0.0
147
0.0
147
1.0
147
0.0
147
0.0
147
0.0
147
0.0
147
1.0
  0
MLEADERSTYLE
  5
67
102
{ACAD_REACTORS
330
66
102
}
330
66
100
AcDbMLeaderStyle
179
     2
170
     2
171
     1
172
     0
 90
        2
 40
0.0
 41
0.0
173
     1
 91
-1056964608
340
5B
 92
       -2
290
     1
 42
0.09
291
     1
 43
0.36
  3
Standard
 44
0.18
300

342
55
174
     1
178
     6
175
     1
176
     0
 93
-1056964608
 45
0.18
292
     0
297
     0
 46
0.18
 94
-1056964608
 47
1.0
 49
1.0
140
1.0
293
     1
141
0.0
294
     1
177
     0
142
1.0
295
     1
296
     0
143
0.125
271
     0
272
     9
273
     9
298
     1
  0
MLINESTYLE
  5
60
102
{ACAD_REACTORS
330
5F
102
}
330
5F
100
AcDbMlineStyle
  2
STANDARD
 70
     0
  3

 62
   256
 51
90.0
 52
90.0
 71
     2
 49
0.5
 62
   256
  6
BYLAYER
 49
-0.5
 62
   256
  6
BYLAYER
  0
ACDBPLACEHOLDER
  5
F
102
{ACAD_REACTORS
330
E
102
}
330
E
  0
SCALE
  5
43
102
{ACAD_REACTORS
330
42
102
}
330
42
100
AcDbScale
 70
     0
300
1:1
140
1.0
141
1.0
290
     1
  0
SCALE
  5
44
102
{ACAD_REACTORS
330
42
102
}
330
42
100
AcDbScale
 70
     0
300
1/128" = 1'-0"
140
0.0078125
141
12.0
290
     0
  0
SCALE
  5
45
102
{ACAD_REACTORS
330
42
102
}
330
42
100
AcDbScale
 70
     0
300
1/64" = 1'-0"
140
0.015625
141
12.0
290
     0
  0
SCALE
  5
46
102
{ACAD_REACTORS
330
42
102
}
330
42
100
AcDbScale
 70
     0
300
1/32" = 1'-0"
140
0.03125
141
12.0
290
     0
  0
SCALE
  5
47
102
{ACAD_REACTORS
330
42
102
}
330
42
100
AcDbScale
 70
     0
300
1/16" = 1'-0"
140
0.0625
141
12.0
290
     0
  0
SCALE
  5
48
102
{ACAD_REACTORS
330
42
102
}
330
42
100
AcDbScale
 70
     0
300
3/32" = 1'-0"
140
0.09375
141
12.0
290
     0
  0
SCALE
  5
49
102
{ACAD_REACTORS
330
42
102
}
330
42
100
AcDbScale
 70
     0
300
1/8" = 1'-0"
140
0.125
141
12.0
290
     0
  0
SCALE
  5
4A
102
{ACAD_REACTORS
330
42
102
}
330
42
100
AcDbScale
 70
     0
300
3/16" = 1'-0"
140
0.1875
141
12.0
290
     0
  0
SCALE
  5
4B
102
{ACAD_REACTORS
330
42
102
}
330
42
100
AcDbScale
 70
     0
300
1/4" = 1'-0"
140
0.25
141
12.0
290
     0
  0
SCALE
  5
4C
102
{ACAD_REACTORS
330
42
102
}
330
42
100
AcDbScale
 70
     0
300
3/8" = 1'-0"
140
0.375
141
12.0
290
     0
  0
SCALE
  5
4D
102
{ACAD_REACTORS
330
42
102
}
330
42
100
AcDbScale
 70
     0
300
1/2" = 1'-0"
140
0.5
141
12.0
290
     0
  0
SCALE
  5
4E
102
{ACAD_REACTORS
330
42
102
}
330
42
100
AcDbScale
 70
     0
300
3/4" = 1'-0"
140
0.75
141
12.0
290
     0
  0
SCALE
  5
4F
102
{ACAD_REACTORS
330
42
102
}
330
42
100
AcDbScale
 70
     0
300
1" = 1'-0"
140
1.0
141
12.0
290
     0
  0
SCALE
  5
50
102
{ACAD_REACTORS
330
42
102
}
330
42
100
AcDbScale
 70
     0
300
1-1/2" = 1'-0"
140
1.5
141
12.0
290
     0
  0
SCALE
  5
51
102
{ACAD_REACTORS
330
42
102
}
330
42
100
AcDbScale
 70
     0
300
3" = 1'-0"
140
3.0
141
12.0
290
     0
  0
SCALE
  5
52
102
{ACAD_REACTORS
330
42
102
}
330
42
100
AcDbScale
 70
     0
300
6" = 1'-0"
140
6.0
141
12.0
290
     0
  0
SCALE
  5
53
102
{ACAD_REACTORS
330
42
102
}
330
42
100
AcDbScale
 70
     0
300
1'-0" = 1'-0"
140
12.0
141
12.0
290
     0
  0
ACDBSECTIONVIEWSTYLE
  5
69
102
{ACAD_REACTORS
330
68
102
}
330
68
100
AcDbModelDocViewStyle
 70
     0
  3
Imperial24
290
     1
300
Imperial24
 90
        0
100
AcDbSectionViewStyle
 70
     0
 71
     0
 90
       78
 71
     1
340
55
 62
   256
 40
0.24
340
0
340
0
 62
   256
 40
0.24
300
I, O, Q, S, X, Z
 40
0.48
 90
        3
 40
0.18
 90
        1
 71
     2
340
5D
 90
       25
 62
   256
340
5D
 90
       50
 62
   256
 40
0.24
 40
0.0
 40
0.24
 71
     3
340
55
 62
   256
 40
0.24
 90
        1
 40
0.75
 90
        1
300
%<\AcVar ViewType \f "%tc1">% %<\AcVar ViewSectionStartId>%-%<\AcVar ViewSectionEndId>%\PSCALE %<\AcVar ViewScale \f "%sn">%
 71
     4
 62
   256
 62
   257
300
ANSI31
 40
1.0
 90
        0
290
     0
290
     0
 90
        6
 40
0.0
 40
1.570796326794896
 40
0.2617993877991494
 40
1.308996938995747
 40
-0.2617993877991494
 40
1.832595714594046
  0
TABLESTYLE
  5
65
102
{ACAD_XDICTIONARY
360
190
102
}
102
{ACAD_REACTORS
330
64
102
}
330
64
100
AcDbTableStyle
280
     0
  3
Standard
 70
     0
 71
     0
 40
0.06
 41
0.06
280
     0
281
     0
  7
Standard
140
0.18
170
     2
 62
     0
 63
     7
283
     0
 90
      512
 91
        0
  1

274
    -2
284
     1
 64
     0
275
    -2
285
     1
 65
     0
276
    -2
286
     1
 66
     0
277
    -2
287
     1
 67
     0
278
    -2
288
     1
 68
     0
279
    -2
289
     1
 69
     0
  7
Standard
140
0.25
170
     5
 62
     0
 63
     7
283
     0
 90
      512
 91
        0
  1

274
    -2
284
     1
 64
     0
275
    -2
285
     1
 65
     0
276
    -2
286
     1
 66
     0
277
    -2
287
     1
 67
     0
278
    -2
288
     1
 68
     0
279
    -2
289
     1
 69
     0
  7
Standard
140
0.18
170
     5
 62
     0
 63
     7
283
     0
 90
      512
 91
        0
  1

274
    -2
284
     1
 64
     0
275
    -2
285
     1
 65
     0
276
    -2
286
     1
 66
     0
277
    -2
287
     1
 67
     0
278
    -2
288
     1
 68
     0
279
    -2
289
     1
 69
     0
  0
VISUALSTYLE
  5
2F
102
{ACAD_REACTORS
330
29
102
}
330
29
100
AcDbVisualStyle
  2
2dWireframe
 70
     4
177
     3
291
     0
 70
    58
 90
        0
176
     1
 90
        2
176
     1
 90
        0
176
     1
 90
        0
176
     1
 40
0.6
176
     1
 40
30.0
176
     1
 62
     7
420
 16777215
176
     1
 90
        1
176
     1
 90
        4
176
     1
 62
     7
176
     1
 62
   257
176
     1
 90
        1
176
     1
 90
        1
176
     1
 40
1.0
176
     1
 90
        0
176
     1
 62
   257
176
     1
 40
1.0
176
     1
 90
        1
176
     1
 90
        6
176
     1
 90
        2
176
     1
 62
     7
176
     1
 90
        5
176
     1
 90
        0
176
     1
 90
        0
176
     1
290
     0
176
     1
 90
        1
176
     1
 40
0.0
176
     1
 90
        0
176
     1
290
     1
176
     1
290
     1
176
     1
290
     0
176
     1
290
     0
176
     1
290
     0
176
     1
290
     0
176
     1
290
     0
176
     1
290
     0
176
     1
290
     0
176
     1
 90
       50
176
     1
 40
0.0
176
     1
 40
1.0
176
     1
 90
        0
176
     1
 62
    18
420
        0
176
     1
 90
       50
176
     1
 90
        3
176
     1
 62
     5
420
      255
176
     1
290
     0
176
     1
 90
       50
176
     1
 90
       50
176
     1
 90
       50
176
     1
290
     0
176
     1
 90
       50
176
     1
 62
   256
176
     0
 40
1.0
176
     0
 90
        2
176
     1
  1
strokes_ogs.tif
176
     1
290
     0
176
     1
 40
1.0
176
     1
 40
1.0
176
     1
  0
VISUALSTYLE
  5
2E
102
{ACAD_REACTORS
330
29
102
}
330
29
100
AcDbVisualStyle
  2
Basic
 70
     7
177
     3
291
     1
 70
    58
 90
        1
176
     1
 90
        0
176
     1
 90
        1
176
     1
 90
        0
176
     1
 40
0.6
176
     1
 40
30.0
176
     1
 62
     7
420
 16777215
176
     1
 90
        0
176
     1
 90
        4
176
     1
 62
     7
176
     1
 62
   257
176
     1
 90
        1
176
     1
 90
        1
176
     1
 40
1.0
176
     1
 90
        8
176
     1
 62
     7
176
     1
 40
1.0
176
     1
 90
        1
176
     1
 90
        6
176
     1
 90
        2
176
     1
 62
     7
176
     1
 90
        5
176
     1
 90
        0
176
     1
 90
        0
176
     1
290
     0
176
     1
 90
        1
176
     1
 40
0.0
176
     1
 90
        0
176
     1
290
     0
176
     1
290
     1
176
     1
290
     1
176
     1
290
     0
176
     1
290
     0
176
     1
290
     0
176
     1
290
     0
176
     1
290
     0
176
     1
290
     0
176
     1
 90
       50
176
     1
 40
0.0
176
     1
 40
1.0
176
     1
 90
        0
176
     1
 62
    18
420
        0
176
     1
 90
       50
176
     1
 90
        3
176
     1
 62
     5
420
      255
176
     1
290
     0
176
     1
 90
       50
176
     1
 90
       50
176
     1
 90
       50
176
     1
290
     0
176
     1
 90
       50
176
     1
 62
   256
176
     0
 40
1.0
176
     0
 90
        2
176
     1
  1
strokes_ogs.tif
176
     1
290
     0
176
     1
 40
1.0
176
     1
 40
1.0
176
     1
  0
VISUALSTYLE
  5
35
102
{ACAD_REACTORS
330
29
102
}
330
29
100
AcDbVisualStyle
  2
Brighten
 70
    12
177
     3
291
     1
 70
    58
 90
        2
176
     1
 90
        2
176
     1
 90
        0
176
     1
 90
        0
176
     1
 40
0.6
176
     1
 40
30.0
176
     1
 62
     7
420
 16777215
176
     1
 90
        1
176
     1
 90
        4
176
     1
 62
     7
176
     1
 62
   257
176
     1
 90
        1
176
     1
 90
        1
176
     1
 40
1.0
176
     1
 90
        8
176
     1
 62
     7
176
     1
 40
1.0
176
     1
 90
        1
176
     1
 90
        6
176
     1
 90
        2
176
     1
 62
     7
176
     1
 90
        5
176
     1
 90
        0
176
     1
 90
        0
176
     1
290
     0
176
     1
 90
        1
176
     1
 40
50.0
176
     1
 90
        0
176
     1
290
     0
176
     1
290
     1
176
     1
290
     1
176
     1
290
     0
176
     1
290
     0
176
     1
290
     0
176
     1
290
     0
176
     1
290
     0
176
     1
290
     0
176
     1
 90
       50
176
     1
 40
0.0
176
     1
 40
1.0
176
     1
 90
        0
176
     1
 62
    18
420
        0
176
     1
 90
       50
176
     1
 90
        3
176
     1
 62
     5
420
      255
176
     1
290
     0
176
     1
 90
       50
176
     1
 90
       50
176
     1
 90
       50
176
     1
290
     0
176
     1
 90
       50
176
     1
 62
   256
176
     0
 40
1.0
176
     0
 90
        2
176
     1
  1
strokes_ogs.tif
176
     1
290
     0
176
     1
 40
1.0
176
     1
 40
1.0
176
     1
  0
VISUALSTYLE
  5
39
102
{ACAD_REACTORS
330
29
102
}
330
29
100
AcDbVisualStyle
  2
ColorChange
 70
    16
177
     3
291
     1
 70
    58
 90
        2
176
     1
 90
        2
176
     1
 90
        3
176
     1
 90
        0
176
     1
 40
0.6
176
     1
 40
30.0
176
     1
 62
     8
420
  8421504
176
     1
 90
        1
176
     1
 90
        4
176
     1
 62
     7
176
     1
 62
   257
176
     1
 90
        1
176
     1
 90
        1
176
     1
 40
1.0
176
     1
 90
        8
176
     1
 62
     8
420
  8421504
176
     1
 40
1.0
176
     1
 90
        1
176
     1
 90
        6
176
     1
 90
        2
176
     1
 62
     7
176
     1
 90
        5
176
     1
 90
        0
176
     1
 90
        0
176
     1
290
     0
176
     1
 90
        1
176
     1
 40
0.0
176
     1
 90
        0
176
     1
290
     0
176
     1
290
     1
176
     1
290
     1
176
     1
290
     0
176
     1
290
     0
176
     1
290
     0
176
     1
290
     0
176
     1
290
     0
176
     1
290
     0
176
     1
 90
       50
176
     1
 40
0.0
176
     1
 40
1.0
176
     1
 90
        0
176
     1
 62
    18
420
        0
176
     1
 90
       50
176
     1
 90
        3
176
     1
 62
     5
420
      255
176
     1
290
     0
176
     1
 90
       50
176
     1
 90
       50
176
     1
 90
       50
176
     1
290
     0
176
     1
 90
       50
176
     1
 62
   256
176
     0
 40
1.0
176
     0
 90
        2
176
     1
  1
strokes_ogs.tif
176
     1
290
     0
176
     1
 40
1.0
176
     1
 40
1.0
176
     1
  0
VISUALSTYLE
  5
32
102
{ACAD_REACTORS
330
29
102
}
330
29
100
AcDbVisualStyle
  2
Conceptual
 70
     9
177
     3
291
     0
 70
    58
 90
        3
176
     1
 90
        2
176
     1
 90
        0
176
     1
 90
        0
176
     1
 40
0.6
176
     1
 40
30.0
176
     1
 62
     7
420
 16777215
176
     1
 90
        2
176
     1
 90
        2
176
     1
 62
     7
176
     1
 62
   257
176
     1
 90
        1
176
     1
 90
        1
176
     1
 40
179.0
176
     1
 90
        8
176
     1
 62
     7
176
     1
 40
1.0
176
     1
 90
        1
176
     1
 90
        6
176
     1
 90
        2
176
     1
 62
     7
176
     1
 90
        3
176
     1
 90
        0
176
     1
 90
        0
176
     1
290
     0
176
     1
 90
        1
176
     1
 40
0.0
176
     1
 90
        0
176
     1
290
     0
176
     1
290
     1
176
     1
290
     1
176
     1
290
     0
176
     1
290
     0
176
     1
290
     0
176
     1
290
     0
176
     1
290
     0
176
     1
290
     0
176
     1
 90
       50
176
     1
 40
0.0
176
     1
 40
1.0
176
     1
 90
        0
176
     1
 62
    18
420
        0
176
     1
 90
       50
176
     1
 90
        3
176
     1
 62
     5
420
      255
176
     1
290
     0
176
     1
 90
       50
176
     1
 90
       50
176
     1
 90
       50
176
     1
290
     0
176
     1
 90
       50
176
     1
 62
   256
176
     0
 40
1.0
176
     0
 90
        2
176
     1
  1
strokes_ogs.tif
176
     1
290
     0
176
     1
 40
1.0
176
     1
 40
1.0
176
     1
  0
VISUALSTYLE
  5
34
102
{ACAD_REACTORS
330
29
102
}
330
29
100
AcDbVisualStyle
  2
Dim
 70
    11
177
     3
291
     1
 70
    58
 90
        2
176
     1
 90
        2
176
     1
 90
        0
176
     1
 90
        0
176
     1
 40
0.6
176
     1
 40
30.0
176
     1
 62
     7
420
 16777215
176
     1
 90
        1
176
     1
 90
        4
176
     1
 62
     7
176
     1
 62
   257
176
     1
 90
        1
176
     1
 90
        1
176
     1
 40
1.0
176
     1
 90
        8
176
     1
 62
     7
176
     1
 40
1.0
176
     1
 90
        1
176
     1
 90
        6
176
     1
 90
        2
176
     1
 62
     7
176
     1
 90
        5
176
     1
 90
        0
176
     1
 90
        0
176
     1
290
     0
176
     1
 90
        1
176
     1
 40
-50.0
176
     1
 90
        0
176
     1
290
     0
176
     1
290
     1
176
     1
290
     1
176
     1
290
     0
176
     1
290
     0
176
     1
290
     0
176
     1
290
     0
176
     1
290
     0
176
     1
290
     0
176
     1
 90
       50
176
     1
 40
0.0
176
     1
 40
1.0
176
     1
 90
        0
176
     1
 62
    18
420
        0
176
     1
 90
       50
176
     1
 90
        3
176
     1
 62
     5
420
      255
176
     1
290
     0
176
     1
 90
       50
176
     1
 90
       50
176
     1
 90
       50
176
     1
290
     0
176
     1
 90
       50
176
     1
 62
   256
176
     0
 40
1.0
176
     0
 90
        2
176
     1
  1
strokes_ogs.tif
176
     1
290
     0
176
     1
 40
1.0
176
     1
 40
1.0
176
     1
  0
VISUALSTYLE
  5
41
102
{ACAD_REACTORS
330
29
102
}
330
29
100
AcDbVisualStyle
  2
EdgeColorOff
 70
    22
177
     3
291
     1
 70
    58
 90
        2
176
     0
 90
        2
176
     0
 90
        0
176
     0
 90
        0
176
     0
 40
0.6
176
     0
 40
30.0
176
     0
 62
     7
420
 16777215
176
     0
 90
        1
176
     0
 90
        4
176
     0
 62
     7
176
     0
 62
   257
176
     0
 90
        1
176
     0
 90
        1
176
     0
 40
1.0
176
     0
 90
        8
176
     2
 62
     7
176
     0
 40
1.0
176
     0
 90
        1
176
     0
 90
        6
176
     0
 90
        2
176
     0
 62
     7
176
     0
 90
        5
176
     0
 90
        0
176
     0
 90
        0
176
     0
290
     0
176
     0
 90
        1
176
     0
 40
0.0
176
     0
 90
        0
176
     0
290
     0
176
     0
290
     1
176
     0
290
     1
176
     0
290
     0
176
     0
290
     0
176
     0
290
     0
176
     0
290
     0
176
     0
290
     0
176
     0
290
     0
176
     0
 90
       50
176
     0
 40
0.0
176
     0
 40
1.0
176
     0
 90
        0
176
     0
 62
    18
420
        0
176
     0
 90
       50
176
     0
 90
        3
176
     0
 62
     5
420
      255
176
     0
290
     0
176
     0
 90
       50
176
     0
 90
       50
176
     0
 90
       50
176
     0
290
     0
176
     0
 90
       50
176
     0
 62
   256
176
     0
 40
1.0
176
     0
 90
        2
176
     0
  1
strokes_ogs.tif
176
     0
290
     0
176
     0
 40
1.0
176
     0
 40
1.0
176
     0
  0
VISUALSTYLE
  5
38
102
{ACAD_REACTORS
330
29
102
}
330
29
100
AcDbVisualStyle
  2
Facepattern
 70
    15
177
     3
291
     1
 70
    58
 90
        2
176
     1
 90
        2
176
     1
 90
        0
176
     1
 90
        0
176
     1
 40
0.6
176
     1
 40
30.0
176
     1
 62
     7
420
 16777215
176
     1
 90
        1
176
     1
 90
        4
176
     1
 62
     7
176
     1
 62
   257
176
     1
 90
        1
176
     1
 90
        1
176
     1
 40
1.0
176
     1
 90
        8
176
     1
 62
     7
176
     1
 40
1.0
176
     1
 90
        1
176
     1
 90
        6
176
     1
 90
        2
176
     1
 62
     7
176
     1
 90
        5
176
     1
 90
        0
176
     1
 90
        0
176
     1
290
     0
176
     1
 90
        1
176
     1
 40
0.0
176
     1
 90
        0
176
     1
290
     0
176
     1
290
     1
176
     1
290
     1
176
     1
290
     0
176
     1
290
     0
176
     1
290
     0
176
     1
290
     0
176
     1
290
     0
176
     1
290
     0
176
     1
 90
       50
176
     1
 40
0.0
176
     1
 40
1.0
176
     1
 90
        0
176
     1
 62
    18
420
        0
176
     1
 90
       50
176
     1
 90
        3
176
     1
 62
     5
420
      255
176
     1
290
     0
176
     1
 90
       50
176
     1
 90
       50
176
     1
 90
       50
176
     1
290
     0
176
     1
 90
       50
176
     1
 62
   256
176
     0
 40
1.0
176
     0
 90
        2
176
     1
  1
strokes_ogs.tif
176
     1
290
     0
176
     1
 40
1.0
176
     1
 40
1.0
176
     1
  0
VISUALSTYLE
  5
2A
102
{ACAD_REACTORS
330
29
102
}
330
29
100
AcDbVisualStyle
  2
Flat
 70
     0
177
     3
291
     1
 70
    58
 90
        2
176
     1
 90
        1
176
     1
 90
        1
176
     1
 90
        2
176
     1
 40
0.6
176
     1
 40
30.0
176
     1
 62
     7
420
 16777215
176
     1
 90
        0
176
     1
 90
        0
176
     1
 62
     7
176
     1
 62
   257
176
     1
 90
        1
176
     1
 90
        1
176
     1
 40
1.0
176
     1
 90
        8
176
     1
 62
     7
176
     1
 40
1.0
176
     1
 90
        1
176
     1
 90
        6
176
     1
 90
        2
176
     1
 62
     7
176
     1
 90
        5
176
     1
 90
        0
176
     1
 90
        0
176
     1
290
     0
176
     1
 90
       13
176
     1
 40
0.0
176
     1
 90
        0
176
     1
290
     0
176
     1
290
     1
176
     1
290
     1
176
     1
290
     0
176
     1
290
     0
176
     1
290
     0
176
     1
290
     0
176
     1
290
     0
176
     1
290
     0
176
     1
 90
       50
176
     1
 40
0.0
176
     1
 40
1.0
176
     1
 90
        0
176
     1
 62
    18
420
        0
176
     1
 90
       50
176
     1
 90
        3
176
     1
 62
     5
420
      255
176
     1
290
     0
176
     1
 90
       50
176
     1
 90
       50
176
     1
 90
       50
176
     1
290
     0
176
     1
 90
       50
176
     1
 62
   256
176
     0
 40
1.0
176
     0
 90
        2
176
     1
  1
strokes_ogs.tif
176
     1
290
     0
176
     1
 40
1.0
176
     1
 40
1.0
176
     1
  0
VISUALSTYLE
  5
2B
102
{ACAD_REACTORS
330
29
102
}
330
29
100
AcDbVisualStyle
  2
FlatWithEdges
 70
     1
177
     3
291
     1
 70
    58
 90
        2
176
     1
 90
        1
176
     1
 90
        1
176
     1
 90
        2
176
     1
 40
0.6
176
     1
 40
30.0
176
     1
 62
     7
420
 16777215
176
     1
 90
        1
176
     1
 90
        0
176
     1
 62
     7
176
     1
 62
   257
176
     1
 90
        1
176
     1
 90
        1
176
     1
 40
1.0
176
     1
 90
        0
176
     1
 62
   257
176
     1
 40
1.0
176
     1
 90
        1
176
     1
 90
        6
176
     1
 90
        2
176
     1
 62
     7
176
     1
 90
        5
176
     1
 90
        0
176
     1
 90
        0
176
     1
290
     0
176
     1
 90
       13
176
     1
 40
0.0
176
     1
 90
        0
176
     1
290
     0
176
     1
290
     1
176
     1
290
     1
176
     1
290
     0
176
     1
290
     0
176
     1
290
     0
176
     1
290
     0
176
     1
290
     0
176
     1
290
     0
176
     1
 90
       50
176
     1
 40
0.0
176
     1
 40
1.0
176
     1
 90
        0
176
     1
 62
    18
420
        0
176
     1
 90
       50
176
     1
 90
        3
176
     1
 62
     5
420
      255
176
     1
290
     0
176
     1
 90
       50
176
     1
 90
       50
176
     1
 90
       50
176
     1
290
     0
176
     1
 90
       50
176
     1
 62
   256
176
     0
 40
1.0
176
     0
 90
        2
176
     1
  1
strokes_ogs.tif
176
     1
290
     0
176
     1
 40
1.0
176
     1
 40
1.0
176
     1
  0
VISUALSTYLE
  5
2C
102
{ACAD_REACTORS
330
29
102
}
330
29
100
AcDbVisualStyle
  2
Gouraud
 70
     2
177
     3
291
     1
 70
    58
 90
        2
176
     1
 90
        2
176
     1
 90
        1
176
     1
 90
        2
176
     1
 40
0.6
176
     1
 40
30.0
176
     1
 62
     7
420
 16777215
176
     1
 90
        0
176
     1
 90
        0
176
     1
 62
     7
176
     1
 62
   257
176
     1
 90
        1
176
     1
 90
        1
176
     1
 40
1.0
176
     1
 90
        0
176
     1
 62
     7
176
     1
 40
1.0
176
     1
 90
        1
176
     1
 90
        6
176
     1
 90
        2
176
     1
 62
     7
176
     1
 90
        5
176
     1
 90
        0
176
     1
 90
        0
176
     1
290
     0
176
     1
 90
       13
176
     1
 40
0.0
176
     1
 90
        0
176
     1
290
     0
176
     1
290
     1
176
     1
290
     1
176
     1
290
     0
176
     1
290
     0
176
     1
290
     0
176
     1
290
     0
176
     1
290
     0
176
     1
290
     0
176
     1
 90
       50
176
     1
 40
0.0
176
     1
 40
1.0
176
     1
 90
        0
176
     1
 62
    18
420
        0
176
     1
 90
       50
176
     1
 90
        3
176
     1
 62
     5
420
      255
176
     1
290
     0
176
     1
 90
       50
176
     1
 90
       50
176
     1
 90
       50
176
     1
290
     0
176
     1
 90
       50
176
     1
 62
   256
176
     0
 40
1.0
176
     0
 90
        2
176
     1
  1
strokes_ogs.tif
176
     1
290
     0
176
     1
 40
1.0
176
     1
 40
1.0
176
     1
  0
VISUALSTYLE
  5
2D
102
{ACAD_REACTORS
330
29
102
}
330
29
100
AcDbVisualStyle
  2
GouraudWithEdges
 70
     3
177
     3
291
     1
 70
    58
 90
        2
176
     1
 90
        2
176
     1
 90
        1
176
     1
 90
        2
176
     1
 40
0.6
176
     1
 40
30.0
176
     1
 62
     7
420
 16777215
176
     1
 90
        1
176
     1
 90
        0
176
     1
 62
     7
176
     1
 62
   257
176
     1
 90
        1
176
     1
 90
        1
176
     1
 40
1.0
176
     1
 90
        0
176
     1
 62
   257
176
     1
 40
1.0
176
     1
 90
        1
176
     1
 90
        6
176
     1
 90
        2
176
     1
 62
     7
176
     1
 90
        5
176
     1
 90
        0
176
     1
 90
        0
176
     1
290
     0
176
     1
 90
       13
176
     1
 40
0.0
176
     1
 90
        0
176
     1
290
     0
176
     1
290
     1
176
     1
290
     1
176
     1
290
     0
176
     1
290
     0
176
     1
290
     0
176
     1
290
     0
176
     1
290
     0
176
     1
290
     0
176
     1
 90
       50
176
     1
 40
0.0
176
     1
 40
1.0
176
     1
 90
        0
176
     1
 62
    18
420
        0
176
     1
 90
       50
176
     1
 90
        3
176
     1
 62
     5
420
      255
176
     1
290
     0
176
     1
 90
       50
176
     1
 90
       50
176
     1
 90
       50
176
     1
290
     0
176
     1
 90
       50
176
     1
 62
   256
176
     0
 40
1.0
176
     0
 90
        2
176
     1
  1
strokes_ogs.tif
176
     1
290
     0
176
     1
 40
1.0
176
     1
 40
1.0
176
     1
  0
VISUALSTYLE
  5
31
102
{ACAD_REACTORS
330
29
102
}
330
29
100
AcDbVisualStyle
  2
Hidden
 70
     6
177
     3
291
     0
 70
    58
 90
        1
176
     1
 90
        2
176
     1
 90
        2
176
     1
 90
        0
176
     1
 40
0.6
176
     1
 40
30.0
176
     1
 62
     7
420
 16777215
176
     1
 90
        2
176
     1
 90
        2
176
     1
 62
     7
176
     1
 62
   257
176
     1
 90
        2
176
     1
 90
        1
176
     1
 40
40.0
176
     1
 90
        0
176
     1
 62
   257
176
     1
 40
1.0
176
     1
 90
        1
176
     1
 90
        6
176
     1
 90
        2
176
     1
 62
     7
176
     1
 90
        3
176
     1
 90
        0
176
     1
 90
        0
176
     1
290
     0
176
     1
 90
        1
176
     1
 40
0.0
176
     1
 90
        0
176
     1
290
     0
176
     1
290
     1
176
     1
290
     1
176
     1
290
     0
176
     1
290
     0
176
     1
290
     0
176
     1
290
     0
176
     1
290
     0
176
     1
290
     0
176
     1
 90
       50
176
     1
 40
0.0
176
     1
 40
1.0
176
     1
 90
        0
176
     1
 62
    18
420
        0
176
     1
 90
       50
176
     1
 90
        3
176
     1
 62
     5
420
      255
176
     1
290
     0
176
     1
 90
       50
176
     1
 90
       50
176
     1
 90
       50
176
     1
290
     0
176
     1
 90
       50
176
     1
 62
   256
176
     0
 40
1.0
176
     0
 90
        2
176
     1
  1
strokes_ogs.tif
176
     1
290
     0
176
     1
 40
1.0
176
     1
 40
1.0
176
     1
  0
VISUALSTYLE
  5
3F
102
{ACAD_REACTORS
330
29
102
}
330
29
100
AcDbVisualStyle
  2
JitterOff
 70
    20
177
     3
291
     1
 70
    58
 90
        2
176
     0
 90
        2
176
     0
 90
        0
176
     0
 90
        0
176
     0
 40
0.6
176
     0
 40
30.0
176
     0
 62
     7
420
 16777215
176
     0
 90
        1
176
     0
 90
        4
176
     0
 62
     7
176
     0
 62
   257
176
     0
 90
        1
176
     0
 90
        1
176
     0
 40
1.0
176
     0
 90
       10
176
     2
 62
     7
176
     0
 40
1.0
176
     0
 90
        1
176
     0
 90
        6
176
     0
 90
        2
176
     0
 62
     7
176
     0
 90
        5
176
     0
 90
        0
176
     0
 90
        0
176
     0
290
     0
176
     0
 90
        1
176
     0
 40
0.0
176
     0
 90
        0
176
     0
290
     0
176
     0
290
     1
176
     0
290
     1
176
     0
290
     0
176
     0
290
     0
176
     0
290
     0
176
     0
290
     0
176
     0
290
     0
176
     0
290
     0
176
     0
 90
       50
176
     0
 40
0.0
176
     0
 40
1.0
176
     0
 90
        0
176
     0
 62
    18
420
        0
176
     0
 90
       50
176
     0
 90
        3
176
     0
 62
     5
420
      255
176
     0
290
     0
176
     0
 90
       50
176
     0
 90
       50
176
     0
 90
       50
176
     0
290
     0
176
     0
 90
       50
176
     0
 62
   256
176
     0
 40
1.0
176
     0
 90
        2
176
     0
  1
strokes_ogs.tif
176
     0
290
     0
176
     0
 40
1.0
176
     0
 40
1.0
176
     0
  0
VISUALSTYLE
  5
37
102
{ACAD_REACTORS
330
29
102
}
330
29
100
AcDbVisualStyle
  2
Linepattern
 70
    14
177
     3
291
     1
 70
    58
 90
        2
176
     1
 90
        2
176
     1
 90
        0
176
     1
 90
        0
176
     1
 40
0.6
176
     1
 40
30.0
176
     1
 62
     7
420
 16777215
176
     1
 90
        1
176
     1
 90
        4
176
     1
 62
     7
176
     1
 62
   257
176
     1
 90
        7
176
     1
 90
        7
176
     1
 40
1.0
176
     1
 90
        8
176
     1
 62
     7
176
     1
 40
1.0
176
     1
 90
        1
176
     1
 90
        6
176
     1
 90
        2
176
     1
 62
     7
176
     1
 90
        5
176
     1
 90
        0
176
     1
 90
        0
176
     1
290
     0
176
     1
 90
        1
176
     1
 40
0.0
176
     1
 90
        0
176
     1
290
     0
176
     1
290
     1
176
     1
290
     1
176
     1
290
     0
176
     1
290
     0
176
     1
290
     0
176
     1
290
     0
176
     1
290
     0
176
     1
290
     0
176
     1
 90
       50
176
     1
 40
0.0
176
     1
 40
1.0
176
     1
 90
        0
176
     1
 62
    18
420
        0
176
     1
 90
       50
176
     1
 90
        3
176
     1
 62
     5
420
      255
176
     1
290
     0
176
     1
 90
       50
176
     1
 90
       50
176
     1
 90
       50
176
     1
290
     0
176
     1
 90
       50
176
     1
 62
   256
176
     0
 40
1.0
176
     0
 90
        2
176
     1
  1
strokes_ogs.tif
176
     1
290
     0
176
     1
 40
1.0
176
     1
 40
1.0
176
     1
  0
VISUALSTYLE
  5
40
102
{ACAD_REACTORS
330
29
102
}
330
29
100
AcDbVisualStyle
  2
OverhangOff
 70
    21
177
     3
291
     1
 70
    58
 90
        2
176
     0
 90
        2
176
     0
 90
        0
176
     0
 90
        0
176
     0
 40
0.6
176
     0
 40
30.0
176
     0
 62
     7
420
 16777215
176
     0
 90
        1
176
     0
 90
        4
176
     0
 62
     7
176
     0
 62
   257
176
     0
 90
        1
176
     0
 90
        1
176
     0
 40
1.0
176
     0
 90
        9
176
     2
 62
     7
176
     0
 40
1.0
176
     0
 90
        1
176
     0
 90
        6
176
     0
 90
        2
176
     0
 62
     7
176
     0
 90
        5
176
     0
 90
        0
176
     0
 90
        0
176
     0
290
     0
176
     0
 90
        1
176
     0
 40
0.0
176
     0
 90
        0
176
     0
290
     0
176
     0
290
     1
176
     0
290
     1
176
     0
290
     0
176
     0
290
     0
176
     0
290
     0
176
     0
290
     0
176
     0
290
     0
176
     0
290
     0
176
     0
 90
       50
176
     0
 40
0.0
176
     0
 40
1.0
176
     0
 90
        0
176
     0
 62
    18
420
        0
176
     0
 90
       50
176
     0
 90
        3
176
     0
 62
     5
420
      255
176
     0
290
     0
176
     0
 90
       50
176
     0
 90
       50
176
     0
 90
       50
176
     0
290
     0
176
     0
 90
       50
176
     0
 62
   256
176
     0
 40
1.0
176
     0
 90
        2
176
     0
  1
strokes_ogs.tif
176
     0
290
     0
176
     0
 40
1.0
176
     0
 40
1.0
176
     0
  0
VISUALSTYLE
  5
33
102
{ACAD_REACTORS
330
29
102
}
330
29
100
AcDbVisualStyle
  2
Realistic
 70
     8
177
     3
291
     0
 70
    58
 90
        2
176
     1
 90
        3
176
     1
 90
        0
176
     1
 90
        2
176
     1
 40
0.6
176
     1
 40
30.0
176
     1
 62
     7
420
 16777215
176
     1
 90
        0
176
     1
 90
        0
176
     1
 62
     7
176
     1
 62
   257
176
     1
 90
        1
176
     1
 90
        1
176
     1
 40
1.0
176
     1
 90
        8
176
     1
 62
   257
176
     1
 40
1.0
176
     1
 90
        1
176
     1
 90
        6
176
     1
 90
        2
176
     1
 62
     7
176
     1
 90
        3
176
     1
 90
        0
176
     1
 90
        0
176
     1
290
     0
176
     1
 90
       13
176
     1
 40
0.0
176
     1
 90
        0
176
     1
290
     0
176
     1
290
     1
176
     1
290
     1
176
     1
290
     0
176
     1
290
     0
176
     1
290
     0
176
     1
290
     0
176
     1
290
     0
176
     1
290
     0
176
     1
 90
       50
176
     1
 40
0.0
176
     1
 40
1.0
176
     1
 90
        0
176
     1
 62
    18
420
        0
176
     1
 90
       50
176
     1
 90
        3
176
     1
 62
     5
420
      255
176
     1
290
     0
176
     1
 90
       50
176
     1
 90
       50
176
     1
 90
       50
176
     1
290
     0
176
     1
 90
       50
176
     1
 62
   256
176
     0
 40
1.0
176
     0
 90
        2
176
     1
  1
strokes_ogs.tif
176
     1
290
     0
176
     1
 40
1.0
176
     1
 40
1.0
176
     1
  0
VISUALSTYLE
  5
3E
102
{ACAD_REACTORS
330
29
102
}
330
29
100
AcDbVisualStyle
  2
Shaded
 70
    27
177
     3
291
     0
 70
    58
 90
        2
176
     1
 90
        2
176
     1
 90
        1
176
     1
 90
        2
176
     1
 40
0.6
176
     1
 40
30.0
176
     1
 62
     7
420
 16777215
176
     1
 90
        0
176
     1
 90
        4
176
     1
 62
     7
176
     1
 62
   257
176
     1
 90
        1
176
     1
 90
        1
176
     1
 40
1.0
176
     1
 90
        8
176
     1
 62
   257
176
     1
 40
1.0
176
     1
 90
        1
176
     1
 90
        6
176
     1
 90
        2
176
     1
 62
     8
420
  7895160
176
     1
 90
        3
176
     1
 90
        0
176
     1
 90
        0
176
     1
290
     0
176
     1
 90
        5
176
     1
 40
0.0
176
     1
 90
        0
176
     1
290
     0
176
     1
290
     1
176
     1
290
     1
176
     1
290
     0
176
     1
290
     0
176
     1
290
     0
176
     1
290
     0
176
     1
290
     0
176
     1
290
     0
176
     1
 90
       50
176
     1
 40
0.0
176
     1
 40
1.0
176
     1
 90
        0
176
     1
 62
    18
420
        0
176
     1
 90
       50
176
     1
 90
        3
176
     1
 62
     5
420
      255
176
     1
290
     0
176
     1
 90
       50
176
     1
 90
       50
176
     1
 90
       50
176
     1
290
     0
176
     1
 90
       50
176
     1
 62
   256
176
     0
 40
1.0
176
     0
 90
        2
176
     1
  1
strokes_ogs.tif
176
     1
290
     0
176
     1
 40
1.0
176
     1
 40
1.0
176
     1
  0
VISUALSTYLE
  5
3D
102
{ACAD_REACTORS
330
29
102
}
330
29
100
AcDbVisualStyle
  2
Shaded with edges
 70
    26
177
     3
291
     0
 70
    58
 90
        2
176
     1
 90
        2
176
     1
 90
        1
176
     1
 90
        2
176
     1
 40
0.6
176
     1
 40
30.0
176
     1
 62
     7
420
 16777215
176
     1
 90
        1
176
     1
 90
        2
176
     1
 62
     7
176
     1
 62
   257
176
     1
 90
        2
176
     1
 90
        1
176
     1
 40
1.0
176
     1
 90
        8
176
     1
 62
   257
176
     1
 40
1.0
176
     1
 90
        1
176
     1
 90
        6
176
     1
 90
        2
176
     1
 62
     7
176
     1
 90
        3
176
     1
 90
        0
176
     1
 90
        0
176
     1
290
     0
176
     1
 90
        5
176
     1
 40
0.0
176
     1
 90
        0
176
     1
290
     0
176
     1
290
     1
176
     1
290
     1
176
     1
290
     0
176
     1
290
     0
176
     1
290
     0
176
     1
290
     0
176
     1
290
     0
176
     1
290
     0
176
     1
 90
       50
176
     1
 40
0.0
176
     1
 40
1.0
176
     1
 90
        0
176
     1
 62
    18
420
        0
176
     1
 90
       50
176
     1
 90
        3
176
     1
 62
     5
420
      255
176
     1
290
     0
176
     1
 90
       50
176
     1
 90
       50
176
     1
 90
       50
176
     1
290
     0
176
     1
 90
       50
176
     1
 62
   256
176
     0
 40
1.0
176
     0
 90
        2
176
     1
  1
strokes_ogs.tif
176
     1
290
     0
176
     1
 40
1.0
176
     1
 40
1.0
176
     1
  0
VISUALSTYLE
  5
3A
102
{ACAD_REACTORS
330
29
102
}
330
29
100
AcDbVisualStyle
  2
Shades of Gray
 70
    23
177
     3
291
     0
 70
    58
 90
        2
176
     1
 90
        2
176
     1
 90
        3
176
     1
 90
        0
176
     1
 40
0.6
176
     1
 40
30.0
176
     1
 62
     7
420
 16777215
176
     1
 90
        2
176
     1
 90
        2
176
     1
 62
     7
176
     1
 62
     7
176
     1
 90
        1
176
     1
 90
        1
176
     1
 40
40.0
176
     1
 90
        8
176
     1
 62
     7
176
     1
 40
1.0
176
     1
 90
        1
176
     1
 90
        6
176
     1
 90
        2
176
     1
 62
     7
176
     1
 90
        3
176
     1
 90
        0
176
     1
 90
        0
176
     1
290
     0
176
     1
 90
        1
176
     1
 40
0.0
176
     1
 90
        0
176
     1
290
     0
176
     1
290
     1
176
     1
290
     1
176
     1
290
     0
176
     1
290
     0
176
     1
290
     0
176
     1
290
     0
176
     1
290
     0
176
     1
290
     0
176
     1
 90
       50
176
     1
 40
0.0
176
     1
 40
1.0
176
     1
 90
        0
176
     1
 62
    18
420
        0
176
     1
 90
       50
176
     1
 90
        3
176
     1
 62
     5
420
      255
176
     1
290
     0
176
     1
 90
       50
176
     1
 90
       50
176
     1
 90
       50
176
     1
290
     0
176
     1
 90
       50
176
     1
 62
   256
176
     0
 40
1.0
176
     0
 90
        2
176
     1
  1
strokes_ogs.tif
176
     1
290
     0
176
     1
 40
1.0
176
     1
 40
1.0
176
     1
  0
VISUALSTYLE
  5
3B
102
{ACAD_REACTORS
330
29
102
}
330
29
100
AcDbVisualStyle
  2
Sketchy
 70
    24
177
     3
291
     0
 70
    58
 90
        1
176
     1
 90
        2
176
     1
 90
        2
176
     1
 90
        0
176
     1
 40
0.6
176
     1
 40
30.0
176
     1
 62
     7
420
 16777215
176
     1
 90
        2
176
     1
 90
        2
176
     1
 62
     7
176
     1
 62
     7
176
     1
 90
        1
176
     1
 90
        1
176
     1
 40
40.0
176
     1
 90
       11
176
     1
 62
     7
176
     1
 40
1.0
176
     1
 90
        1
176
     1
 90
        6
176
     1
 90
        2
176
     1
 62
     7
176
     1
 90
        6
176
     1
 90
        0
176
     1
 90
        0
176
     1
290
     0
176
     1
 90
        1
176
     1
 40
0.0
176
     1
 90
        0
176
     1
290
     0
176
     1
290
     1
176
     1
290
     1
176
     1
290
     0
176
     1
290
     0
176
     1
290
     0
176
     1
290
     0
176
     1
290
     0
176
     1
290
     0
176
     1
 90
       50
176
     1
 40
0.0
176
     1
 40
1.0
176
     1
 90
        0
176
     1
 62
    18
420
        0
176
     1
 90
       50
176
     1
 90
        3
176
     1
 62
     5
420
      255
176
     1
290
     0
176
     1
 90
       50
176
     1
 90
       50
176
     1
 90
       50
176
     1
290
     0
176
     1
 90
       50
176
     1
 62
   256
176
     0
 40
1.0
176
     0
 90
        2
176
     1
  1
strokes_ogs.tif
176
     1
290
     0
176
     1
 40
1.0
176
     1
 40
1.0
176
     1
  0
VISUALSTYLE
  5
36
102
{ACAD_REACTORS
330
29
102
}
330
29
100
AcDbVisualStyle
  2
Thicken
 70
    13
177
     3
291
     1
 70
    58
 90
        2
176
     1
 90
        2
176
     1
 90
        0
176
     1
 90
        0
176
     1
 40
0.6
176
     1
 40
30.0
176
     1
 62
     7
420
 16777215
176
     1
 90
        1
176
     1
 90
        4
176
     1
 62
     7
176
     1
 62
   257
176
     1
 90
        1
176
     1
 90
        1
176
     1
 40
1.0
176
     1
 90
       12
176
     1
 62
     7
176
     1
 40
1.0
176
     1
 90
        1
176
     1
 90
        6
176
     1
 90
        2
176
     1
 62
     7
176
     1
 90
        5
176
     1
 90
        0
176
     1
 90
        0
176
     1
290
     0
176
     1
 90
        1
176
     1
 40
0.0
176
     1
 90
        0
176
     1
290
     0
176
     1
290
     1
176
     1
290
     1
176
     1
290
     0
176
     1
290
     0
176
     1
290
     0
176
     1
290
     0
176
     1
290
     0
176
     1
290
     0
176
     1
 90
       50
176
     1
 40
0.0
176
     1
 40
1.0
176
     1
 90
        0
176
     1
 62
    18
420
        0
176
     1
 90
       50
176
     1
 90
        3
176
     1
 62
     5
420
      255
176
     1
290
     0
176
     1
 90
       50
176
     1
 90
       50
176
     1
 90
       50
176
     1
290
     0
176
     1
 90
       50
176
     1
 62
   256
176
     0
 40
1.0
176
     0
 90
        2
176
     1
  1
strokes_ogs.tif
176
     1
290
     0
176
     1
 40
1.0
176
     1
 40
1.0
176
     1
  0
VISUALSTYLE
  5
30
102
{ACAD_REACTORS
330
29
102
}
330
29
100
AcDbVisualStyle
  2
Wireframe
 70
     5
177
     3
291
     0
 70
    58
 90
        0
176
     1
 90
        2
176
     1
 90
        0
176
     1
 90
        0
176
     1
 40
0.6
176
     1
 40
30.0
176
     1
 62
     7
420
 16777215
176
     1
 90
        1
176
     1
 90
        4
176
     1
 62
     7
176
     1
 62
   257
176
     1
 90
        1
176
     1
 90
        1
176
     1
 40
1.0
176
     1
 90
        0
176
     1
 62
   257
176
     1
 40
1.0
176
     1
 90
        1
176
     1
 90
        6
176
     1
 90
        2
176
     1
 62
     7
176
     1
 90
        3
176
     1
 90
        0
176
     1
 90
        0
176
     1
290
     0
176
     1
 90
        1
176
     1
 40
0.0
176
     1
 90
        0
176
     1
290
     0
176
     1
290
     1
176
     1
290
     1
176
     1
290
     0
176
     1
290
     0
176
     1
290
     0
176
     1
290
     0
176
     1
290
     0
176
     1
290
     0
176
     1
 90
       50
176
     1
 40
0.0
176
     1
 40
1.0
176
     1
 90
        0
176
     1
 62
    18
420
        0
176
     1
 90
       50
176
     1
 90
        3
176
     1
 62
     5
420
      255
176
     1
290
     0
176
     1
 90
       50
176
     1
 90
       50
176
     1
 90
       50
176
     1
290
     0
176
     1
 90
       50
176
     1
 62
   256
176
     0
 40
1.0
176
     0
 90
        2
176
     1
  1
strokes_ogs.tif
176
     1
290
     0
176
     1
 40
1.0
176
     1
 40
1.0
176
     1
  0
VISUALSTYLE
  5
3C
102
{ACAD_REACTORS
330
29
102
}
330
29
100
AcDbVisualStyle
  2
X-Ray
 70
    25
177
     3
291
     0
 70
    58
 90
        2
176
     1
 90
        2
176
     1
 90
        1
176
     1
 90
        1
176
     1
 40
0.5
176
     1
 40
30.0
176
     1
 62
     7
420
 16777215
176
     1
 90
        1
176
     1
 90
        0
176
     1
 62
     7
176
     1
 62
   257
176
     1
 90
        1
176
     1
 90
        1
176
     1
 40
1.0
176
     1
 90
        8
176
     1
 62
     7
176
     1
 40
1.0
176
     1
 90
        1
176
     1
 90
        6
176
     1
 90
        2
176
     1
 62
     7
176
     1
 90
        3
176
     1
 90
        0
176
     1
 90
        0
176
     1
290
     0
176
     1
 90
       13
176
     1
 40
0.0
176
     1
 90
        0
176
     1
290
     0
176
     1
290
     1
176
     1
290
     1
176
     1
290
     0
176
     1
290
     0
176
     1
290
     0
176
     1
290
     0
176
     1
290
     0
176
     1
290
     0
176
     1
 90
       50
176
     1
 40
0.0
176
     1
 40
1.0
176
     1
 90
        0
176
     1
 62
    18
420
        0
176
     1
 90
       50
176
     1
 90
        3
176
     1
 62
     5
420
      255
176
     1
290
     0
176
     1
 90
       50
176
     1
 90
       50
176
     1
 90
       50
176
     1
290
     0
176
     1
 90
       50
176
     1
 62
   256
176
     0
 40
1.0
176
     0
 90
        2
176
     1
  1
strokes_ogs.tif
176
     1
290
     0
176
     1
 40
1.0
176
     1
 40
1.0
176
     1
  0
DICTIONARYVAR
  5
18F
102
{ACAD_REACTORS
330
18A
102
}
330
18A
100
DictionaryVariables
280
     0
  1
1:1
  0
DICTIONARYVAR
  5
18C
102
{ACAD_REACTORS
330
18A
102
}
330
18A
100
DictionaryVariables
280
     0
  1
STANDARD
  0
DICTIONARYVAR
  5
18B
102
{ACAD_REACTORS
330
18A
102
}
330
18A
100
DictionaryVariables
280
     0
  1
STANDARD
  0
DICTIONARYVAR
  5
18D
102
{ACAD_REACTORS
330
18A
102
}
330
18A
100
DictionaryVariables
280
     0
  1
Imperial24
  0
DICTIONARYVAR
  5
18E
102
{ACAD_REACTORS
330
18A
102
}
330
18A
100
DictionaryVariables
280
     0
  1
Imperial24
  0
DICTIONARY
  5
1A
330
19
100
AcDbDictionary
280
     1
281
     1
  3
BUMPTILE
360
1C
  3
DIFFUSETILE
360
1B
  3
OPACITYTILE
360
1F
  3
REFLECTIONTILE
360
1E
  3
REFRACTIONTILE
360
20
  3
SPECULARTILE
360
1D
  0
DICTIONARY
  5
12
330
11
100
AcDbDictionary
280
     1
281
     1
  3
BUMPTILE
360
14
  3
DIFFUSETILE
360
13
  3
OPACITYTILE
360
17
  3
REFLECTIONTILE
360
16
  3
REFRACTIONTILE
360
18
  3
SPECULARTILE
360
15
  0
DICTIONARY
  5
22
330
21
100
AcDbDictionary
280
     1
281
     1
  3
BUMPTILE
360
24
  3
DIFFUSETILE
360
23
  3
OPACITYTILE
360
27
  3
REFLECTIONTILE
360
26
  3
REFRACTIONTILE
360
28
  3
SPECULARTILE
360
25
  0
DICTIONARY
  5
190
330
65
100
AcDbDictionary
280
     1
281
     1
  3
ACAD_ROUNDTRIP_2008_TABLESTYLE_CELLSTYLEMAP
360
191
  0
XRECORD
  5
1C
102
{ACAD_REACTORS
330
1A
102
}
330
1A
100
AcDbXrecord
280
     1
270
     1
271
     1
  0
XRECORD
  5
1B
102
{ACAD_REACTORS
330
1A
102
}
330
1A
100
AcDbXrecord
280
     1
270
     1
271
     1
  0
XRECORD
  5
1F
102
{ACAD_REACTORS
330
1A
102
}
330
1A
100
AcDbXrecord
280
     1
270
     1
271
     1
  0
XRECORD
  5
1E
102
{ACAD_REACTORS
330
1A
102
}
330
1A
100
AcDbXrecord
280
     1
270
     1
271
     1
  0
XRECORD
  5
20
102
{ACAD_REACTORS
330
1A
102
}
330
1A
100
AcDbXrecord
280
     1
270
     1
271
     1
  0
XRECORD
  5
1D
102
{ACAD_REACTORS
330
1A
102
}
330
1A
100
AcDbXrecord
280
     1
270
     1
271
     1
  0
XRECORD
  5
14
102
{ACAD_REACTORS
330
12
102
}
330
12
100
AcDbXrecord
280
     1
270
     1
271
     1
  0
XRECORD
  5
13
102
{ACAD_REACTORS
330
12
102
}
330
12
100
AcDbXrecord
280
     1
270
     1
271
     1
  0
XRECORD
  5
17
102
{ACAD_REACTORS
330
12
102
}
330
12
100
AcDbXrecord
280
     1
270
     1
271
     1
  0
XRECORD
  5
16
102
{ACAD_REACTORS
330
12
102
}
330
12
100
AcDbXrecord
280
     1
270
     1
271
     1
  0
XRECORD
  5
18
102
{ACAD_REACTORS
330
12
102
}
330
12
100
AcDbXrecord
280
     1
270
     1
271
     1
  0
XRECORD
  5
15
102
{ACAD_REACTORS
330
12
102
}
330
12
100
AcDbXrecord
280
     1
270
     1
271
     1
  0
XRECORD
  5
24
102
{ACAD_REACTORS
330
22
102
}
330
22
100
AcDbXrecord
280
     1
270
     1
271
     1
  0
XRECORD
  5
23
102
{ACAD_REACTORS
330
22
102
}
330
22
100
AcDbXrecord
280
     1
270
     1
271
     1
  0
XRECORD
  5
27
102
{ACAD_REACTORS
330
22
102
}
330
22
100
AcDbXrecord
280
     1
270
     1
271
     1
  0
XRECORD
  5
26
102
{ACAD_REACTORS
330
22
102
}
330
22
100
AcDbXrecord
280
     1
270
     1
271
     1
  0
XRECORD
  5
28
102
{ACAD_REACTORS
330
22
102
}
330
22
100
AcDbXrecord
280
     1
270
     1
271
     1
  0
XRECORD
  5
25
102
{ACAD_REACTORS
330
22
102
}
330
22
100
AcDbXrecord
280
     1
270
     1
271
     1
  0
CELLSTYLEMAP
  5
191
102
{ACAD_REACTORS
330
190
102
}
330
190
100
AcDbCellStyleMap
 90
        3
300
CELLSTYLE
  1
TABLEFORMAT_BEGIN
 90
        5
170
     1
 91
        0
 92
    32768
 62
   257
 93
        1
300
CONTENTFORMAT
  1
CONTENTFORMAT_BEGIN
 90
        0
 91
        0
 92
      512
 93
        0
300

 40
0.0
140
1.0
 94
        5
 62
     0
340
55
144
0.25
309
CONTENTFORMAT_END
171
     0
 94
        0
309
TABLEFORMAT_END
  1
CELLSTYLE_BEGIN
 90
        1
 91
        1
300
_TITLE
309
CELLSTYLE_END
300
CELLSTYLE
  1
TABLEFORMAT_BEGIN
 90
        5
170
     1
 91
        0
 92
        0
 62
   257
 93
        1
300
CONTENTFORMAT
  1
CONTENTFORMAT_BEGIN
 90
        0
 91
        0
 92
      512
 93
        0
300

 40
0.0
140
1.0
 94
        5
 62
     0
340
55
144
0.18
309
CONTENTFORMAT_END
171
     0
 94
        0
309
TABLEFORMAT_END
  1
CELLSTYLE_BEGIN
 90
        2
 91
        1
300
_HEADER
309
CELLSTYLE_END
300
CELLSTYLE
  1
TABLEFORMAT_BEGIN
 90
        5
170
     1
 91
        0
 92
        0
 62
   257
 93
        1
300
CONTENTFORMAT
  1
CONTENTFORMAT_BEGIN
 90
        0
 91
        0
 92
      512
 93
        0
300

 40
0.0
140
1.0
 94
        2
 62
     0
340
55
144
0.18
309
CONTENTFORMAT_END
171
     0
 94
        0
309
TABLEFORMAT_END
  1
CELLSTYLE_BEGIN
 90
        3
 91
        2
300
_DATA
309
CELLSTYLE_END
  0
ENDSEC
  0
EOF
