  0
SECTION
  2
HEADER
  9
$ACADVER
  1
AC1009
  9
$INSBASE
 10
0
 20
0
 30
0
  9
$EXTMIN
 10
0
 20
0
  9
$EXTMAX
 10
420
 20
297
  9
$LIMMIN
 10
0
 20
0
  9
$LIMMAX
 10
420
 20
297
  9
$LTSCALE
 40
1
  0
ENDSEC
  0
SECTION
  2
TABLES
  0
TABLE
  2
LTYPE
 70
     9
  0
LTYPE
  2
CONTINUOUS
 70
    64
  3
実線
 72
    65
 73
     0
 40
0.0
  0
LTYPE
  2
DASHED1
 70
    64
  3
--  --  --  --  --  --  --  --  
 72
    65
 73
     2
 40
2.5
 49
1.25
 49
-1.25
  0
LTYPE
  2
DASHED2
 70
    64
  3
----    ----    ----    ----    
 72
    65
 73
     2
 40
5.0
 49
2.5
 49
-2.5
  0
LTYPE
  2
DASHED3
 70
    64
  3
------  ------  ------  ------  
 72
    65
 73
     2
 40
5.0
 49
3.75
 49
-1.25
  0
LTYPE
  2
CENTER1
 70
    64
  3
----- - ----- - ----- - ----- - 
 72
    65
 73
     4
 40
10.0
 49
6.25
 49
-1.25
 49
1.25
 49
-1.25
  0
LTYPE
  2
CENTER2
 70
    64
  3
----------  --  ----------  --  
 72
    65
 73
     4
 40
20.0
 49
12.5
 49
-2.5
 49
2.5
 49
-2.5
  0
LTYPE
  2
PHANTOM1
 70
    64
  3
--- - - --- - - --- - - --- - - 
 72
    65
 73
     6
 40
10.0
 49
3.25
 49
-1.25
 49
1.25
 49
-1.25
 49
1.25
 49
-1.25
  0
LTYPE
  2
PHANTOM2
 70
    64
  3
--------  -  -  --------  -  -  
 72
    65
 73
     6
 40
20.0
 49
10.0
 49
-2.5
 49
1.25
 49
-2.5
 49
1.25
 49
-2.5
  0
LTYPE
  2
DOT
 70
    64
  3
-   -   -   -   -   -   -   -   
 72
    65
 73
     2
 40
2.5
 49
0.625
 49
-1.875
  0
LTYPE
  2
DUMMY
 70
    64
  3
ダミー
 72
    65
 73
     0
 40
0.0
  0
LTYPE
  2
RAND1
 70
    64
  3
ランダム線1
 72
    65
 73
     4
 40
10.0
 49
1.0
 49
-2.0
 49
3.0
 49
-4.0
  0
LTYPE
  2
RAND2
 70
    64
  3
ランダム線2
 72
    65
 73
     4
 40
14.0
 49
2.0
 49
-3.0
 49
4.0
 49
-5.0
  0
LTYPE
  2
RAND3
 70
    64
  3
ランダム線3
 72
    65
 73
     4
 40
18.0
 49
3.0
 49
-4.0
 49
5.0
 49
-6.0
  0
LTYPE
  2
RAND4
 70
    64
  3
ランダム線4
 72
    65
 73
     4
 40
22.0
 49
4.0
 49
-5.0
 49
6.0
 49
-7.0
  0
LTYPE
  2
RAND5
 70
    64
  3
ランダム線5
 72
    65
 73
     4
 40
26.0
 49
5.0
 49
-6.0
 49
7.0
 49
-8.0
  0
LTYPE
  2
LONG1
 70
    64
  3
----------  --  ----------  --  
 72
    65
 73
     4
 40
40.0
 49
32.5
 49
-2.5
 49
2.5
 49
-2.5
  0
LTYPE
  2
LONG2
 70
    64
  3
--------  -  -  --------  -  -  
 72
    65
 73
     6
 40
40.0
 49
30.0
 49
-2.5
 49
1.25
 49
-2.5
 49
1.25
 49
-2.5
  0
LTYPE
  2
LONG3
 70
    64
  3
+++++++++++++++..+++++++++++++++
 72
    65
 73
     2
 40
40.0
 49
37.5
 49
-2.5
  0
LTYPE
  2
LONG4
 70
    64
  3
+++++++++++++++..+++++++++++++++
 72
    65
 73
     2
 40
80.0
 49
75.0
 49
-5.0
  0
LTYPE
  2
LONG5
 70
    64
  3
----------  --  ----------  --  
 72
    65
 73
     4
 40
60.0
 49
37.5
 49
-7.5
 49
7.5
 49
-7.5
  0
LTYPE
  2
dashed
 70
   64
  3
-------   -------------   ------
 72
   65
 73
    2
 40
7.5
 49
6
 49
-1.5
  0
LTYPE
  2
dashed_spaced
 70
   64
  3
----        --------        ----
 72
   65
 73
    2
 40
12
 49
6
 49
-6
  0
LTYPE
  2
long_dashed_dotted
 70
   64
  3
------------- --- --------------
 72
   65
 73
    4
 40
15.25
 49
12
 49
-1.5
 49
0.25
 49
-1.5
  0
LTYPE
  2
long_dashed_double-dotted
 70
   64
  3
----------- --- --- ------------
 72
   65
 73
    6
 40
17
 49
12
 49
-1.5
 49
0.25
 49
-1.5
 49
0.25
 49
-1.5
  0
LTYPE
  2
long_dashed_triplicate-dotted
 70
   64
  3
--------- --- --- --- ----------
 72
   65
 73
    8
 40
18.75
 49
12
 49
-1.5
 49
0.25
 49
-1.5
 49
0.25
 49
-1.5
 49
0.25
 49
-1.5
  0
LTYPE
  2
dotted
 70
   64
  3
   -       -       -       -    
 72
   65
 73
    2
 40
1.75
 49
0.25
 49
-1.5
  0
LTYPE
  2
chain
 70
   64
  3
-------------- -- --------------
 72
   65
 73
    4
 40
18.5
 49
12
 49
-1.5
 49
3.5
 49
-1.5
  0
LTYPE
  2
chain_double_dash
 70
   64
  3
------------ -- -- -------------
 72
   65
 73
    6
 40
23.5
 49
12
 49
-1.5
 49
3.5
 49
-1.5
 49
3.5
 49
-1.5
  0
LTYPE
  2
dashed_dotted
 70
   64
  3
-----------     -     ----------
 72
   65
 73
    4
 40
9.25
 49
6
 49
-1.5
 49
0.25
 49
-1.5
  0
LTYPE
  2
double-dashed_dotted
 70
   64
  3
------   -----------   -   -----
 72
   65
 73
    6
 40
16.75
 49
6
 49
-1.5
 49
6
 49
-1.5
 49
0.25
 49
-1.5
  0
LTYPE
  2
dashed_double-dotted
 70
   64
  3
---------    -    -    ---------
 72
   65
 73
    6
 40
11
 49
6
 49
-1.5
 49
0.25
 49
-1.5
 49
0.25
 49
-1.5
  0
LTYPE
  2
double-dashed_double-dotted
 70
   64
  3
-----   ---------   -   -   ----
 72
   65
 73
    8
 40
18.5
 49
6
 49
-1.5
 49
6
 49
-1.5
 49
0.25
 49
-1.5
 49
0.25
 49
-1.5
  0
LTYPE
  2
dashed_triplicate-dotted
 70
   64
  3
-------    -    -    -    ------
 72
   65
 73
    8
 40
12.75
 49
6
 49
-1.5
 49
0.25
 49
-1.5
 49
0.25
 49
-1.5
 49
0.25
 49
-1.5
  0
LTYPE
  2
double-dashed_triplicate-dotted
 70
   64
  3
-----  ---------  -  -  -  -----
 72
   65
 73
   10
 40
20.25
 49
6
 49
-1.5
 49
6
 49
-1.5
 49
0.25
 49
-1.5
 49
0.25
 49
-1.5
 49
0.25
 49
-1.5
  0
LTYPE
  2
undefined
 70
   64
  3
--------------------------------
 72
   65
 73
    0
 40
0
  0
LTYPE
  2
_
 70
   64
  3
                                
 72
   65
 73
    0
 40
0
  0
LTYPE
  2
__18
 70
   64
  3
                                
 72
   65
 73
    0
 40
0
  0
LTYPE
  2
__19
 70
   64
  3
                                
 72
   65
 73
    0
 40
0
  0
LTYPE
  2
__20
 70
   64
  3
                                
 72
   65
 73
    0
 40
0
  0
LTYPE
  2
__21
 70
   64
  3
                                
 72
   65
 73
    0
 40
0
  0
LTYPE
  2
__22
 70
   64
  3
                                
 72
   65
 73
    0
 40
0
  0
LTYPE
  2
__23
 70
   64
  3
                                
 72
   65
 73
    0
 40
0
  0
LTYPE
  2
__24
 70
   64
  3
                                
 72
   65
 73
    0
 40
0
  0
LTYPE
  2
__25
 70
   64
  3
                                
 72
   65
 73
    0
 40
0
  0
LTYPE
  2
__26
 70
   64
  3
                                
 72
   65
 73
    0
 40
0
  0
LTYPE
  2
__27
 70
   64
  3
                                
 72
   65
 73
    0
 40
0
  0
LTYPE
  2
__28
 70
   64
  3
                                
 72
   65
 73
    0
 40
0
  0
LTYPE
  2
__29
 70
   64
  3
                                
 72
   65
 73
    0
 40
0
  0
LTYPE
  2
__30
 70
   64
  3
                                
 72
   65
 73
    0
 40
0
  0
LTYPE
  2
__31
 70
   64
  3
                                
 72
   65
 73
    0
 40
0
  0
LTYPE
  2
__32
 70
   64
  3
                                
 72
   65
 73
    0
 40
0
  0
ENDTAB
  0
TABLE
  2
STYLE
  5
3
100
AcDbSymbolTable
 70
     1
  0
STYLE
  5
10
100
AcDbSymbolTableRecord
100
AcDbTextStyleTableRecord
  2
STANDARD
 70
     0
 40
0.0
 41
1.0
 50
0.0
 71
     0
 42
0.2
  3
txt
  4
bigfont.shx
  0
STYLE
  5
26
100
AcDbSymbolTableRecord
100
AcDbTextStyleTableRecord
  2
TATEGAKI
 70
    68
 40
0.0
 41
1.0
 50
0.0
 71
     0
 42
1.0
  3
txt
  4
bigfont.shx
  0
ENDTAB
  0
TABLE
  2
LAYER
 70
    2
  0
LAYER
  2
_0-0_
 70
   64
 62
    7
  6
CONTINUOUS
  0
LAYER
  2
ADD_LINE
 70
   64
 62
    7
  6
CONTINUOUS
  0
ENDTAB
  0
ENDSEC
  0
SECTION
  2
BLOCKS
  0
BLOCK
  2
-000-1
 70
   64
 10
0
 20
0
 30
0
  0
LINE
  8
_0-0_
  6
CONTINUOUS
 62
    7
 10
33.066757970699101
 20
-15.217179070445749
 11
2.2746224152018648
 21
-0.1344347772969323
  0
LINE
  8
_0-0_
  6
CONTINUOUS
 62
    7
 10
-5.8764920790713084
 20
-6.1908461725567054
 11
-5.158707150476058
 21
-6.379295953113564
  0
LINE
  8
_0-0_
  6
CONTINUOUS
 62
    7
 10
-6.551206972016697
 20
-5.8659834463237495
 11
-5.8764920790713084
 21
-6.1908461725567054
  0
LINE
  8
_0-0_
  6
CONTINUOUS
 62
    7
 10
-7.5257951507155632
 20
-5.8409940058442906
 11
-6.551206972016697
 21
-5.8659834463237495
  0
LINE
  8
_0-0_
  6
CONTINUOUS
 62
    7
 10
-8.3504466865376905
 20
-6.1658567320772502
 11
-7.5257951507155632
 21
-5.8409940058442906
  0
LINE
  8
_0-0_
  6
CONTINUOUS
 62
    7
 10
-9.3250348652365567
 20
-6.6156666607074985
 11
-8.3504466865376905
 21
-6.1658567320772502
  0
LINE
  8
_0-0_
  6
CONTINUOUS
 62
    7
 10
-10.874380174962976
 20
-7.6652231608447465
 11
-9.3250348652365567
 21
-6.6156666607074985
  0
LINE
  8
_0-0_
  6
CONTINUOUS
 62
    7
 10
-13.598229187223932
 20
-9.2395579110506194
 11
-10.874380174962976
 21
-7.6652231608447465
  0
LINE
  8
_0-0_
  6
CONTINUOUS
 62
    7
 10
-13.673197508662309
 20
-9.7393467206397855
 11
-13.598229187223932
 21
-9.2395579110506194
  0
LINE
  8
_0-0_
  6
CONTINUOUS
 62
    7
 10
-13.723176389621226
 20
-10.339093292146785
 11
-13.673197508662309
 21
-9.7393467206397855
  0
LINE
  8
_0-0_
  6
CONTINUOUS
 62
    7
 10
-13.673197508662309
 20
-10.813892661256494
 11
-13.723176389621226
 21
-10.339093292146785
  0
LINE
  8
_0-0_
  6
CONTINUOUS
 62
    7
 10
-13.523260865785556
 20
-11.088776506530534
 11
-13.673197508662309
 21
-10.813892661256494
  0
LINE
  8
_0-0_
  6
CONTINUOUS
 62
    7
 10
-12.948503734758017
 20
-11.263702589886741
 11
-13.523260865785556
 21
-11.088776506530534
  0
LINE
  8
_0-0_
  6
CONTINUOUS
 62
    7
 10
14.73979631648179
 20
-22.184088079410021
 11
-12.948503734758017
 21
-11.263702589886741
  0
LINE
  8
_0-0_
  6
CONTINUOUS
 62
    7
 10
15.139627364153117
 20
-22.234066960368938
 11
14.73979631648179
 21
-22.184088079410021
  0
LINE
  8
_0-0_
  6
CONTINUOUS
 62
    7
 10
15.589437292783376
 20
-22.084130317492193
 11
15.139627364153117
 21
-22.234066960368938
  0
LINE
  8
_0-0_
  6
CONTINUOUS
 62
    7
 10
15.964278899975245
 20
-21.984172555574357
 11
15.589437292783376
 21
-22.084130317492193
  0
LINE
  8
_0-0_
  6
CONTINUOUS
 62
    7
 10
-12.898524853799099
 20
-10.189156649270037
 11
-8.125541722222561
 21
-7.2404026726939552
  0
LINE
  8
_0-0_
  6
CONTINUOUS
 62
    7
 10
-12.998482615716934
 20
-10.514019375502993
 11
-12.898524853799099
 21
-10.189156649270037
  0
LINE
  8
_0-0_
  6
CONTINUOUS
 62
    7
 10
-12.798567091881264
 20
-10.763913780297576
 11
-12.998482615716934
 21
-10.514019375502993
  0
LINE
  8
_0-0_
  6
CONTINUOUS
 62
    7
 10
-11.374168984552139
 20
-11.438628673242951
 11
-12.798567091881264
 21
-10.763913780297576
  0
LINE
  8
_0-0_
  6
CONTINUOUS
 62
    7
 10
20.512357067236653
 20
-19.510217948107982
 11
20.387409864839359
 21
-19.960027876738234
  0
LINE
  8
_0-0_
  6
CONTINUOUS
 62
    7
 10
20.112526019565326
 20
-19.160365781395566
 11
20.512357067236653
 21
-19.510217948107982
  0
LINE
  8
_0-0_
  6
CONTINUOUS
 62
    7
 10
-6.676154174413977
 20
-8.0400647680366202
 11
20.112526019565326
 21
-19.160365781395566
  0
LINE
  8
_0-0_
  6
CONTINUOUS
 62
    7
 10
-7.1009746625647772
 20
-7.8651386846804137
 11
-6.676154174413977
 21
-8.0400647680366202
  0
LINE
  8
_0-0_
  6
CONTINUOUS
 62
    7
 10
-7.550784591195022
 20
-7.9151175656393296
 11
-7.1009746625647772
 21
-7.8651386846804137
  0
LINE
  8
_0-0_
  6
CONTINUOUS
 62
    7
 10
-7.9256261983869045
 20
-8.065054208516079
 11
-7.550784591195022
 21
-7.9151175656393296
  0
LINE
  8
_0-0_
  6
CONTINUOUS
 62
    7
 10
-11.249221782154844
 20
-10.164167208790579
 11
-7.9256261983869045
 21
-8.065054208516079
  0
LINE
  8
_0-0_
  6
CONTINUOUS
 62
    7
 10
-11.524105627428892
 20
-10.539008815982452
 11
-11.249221782154844
 21
-10.164167208790579
  0
LINE
  8
_0-0_
  6
CONTINUOUS
 62
    7
 10
-11.374168984552139
 20
-11.438628673242951
 11
-11.524105627428892
 21
-10.539008815982452
  0
LINE
  8
_0-0_
  6
CONTINUOUS
 62
    7
 10
20.387409864839359
 20
-19.960027876738234
 11
20.262462662442079
 21
-20.134953960094439
  0
LINE
  8
_0-0_
  6
CONTINUOUS
 62
    7
 10
20.387409864839359
 20
-19.735122912423112
 11
20.387409864839359
 21
-19.960027876738234
  0
LINE
  8
_0-0_
  6
CONTINUOUS
 62
    7
 10
-6.4262597696194028
 20
-8.9146951848176617
 11
20.387409864839359
 21
-19.735122912423112
  0
LINE
  8
_0-0_
  6
CONTINUOUS
 62
    7
 10
-6.82609081729073
 20
-8.789747982420371
 11
-6.4262597696194028
 21
-8.9146951848176617
  0
LINE
  8
_0-0_
  6
CONTINUOUS
 62
    7
 10
-7.3008901864004336
 20
-8.7647585419409122
 11
-6.82609081729073
 21
-8.789747982420371
  0
LINE
  8
_0-0_
  6
CONTINUOUS
 62
    7
 10
-7.6007634721539397
 20
-8.8647163038587458
 11
-7.3008901864004336
 21
-8.7647585419409122
  0
LINE
  8
_0-0_
  6
CONTINUOUS
 62
    7
 10
-11.174253460716468
 20
-11.088776506530534
 11
-7.6007634721539397
 21
-8.8647163038587458
  0
LINE
  8
_0-0_
  6
CONTINUOUS
 62
    7
 10
-11.324190103593221
 20
-11.31368147084566
 11
-11.174253460716468
 21
-11.088776506530534
  0
LINE
  8
_0-0_
  6
CONTINUOUS
 62
    7
 10
-11.374168984552139
 20
-11.438628673242951
 11
-11.324190103593221
 21
-11.31368147084566
  0
LINE
  8
_0-0_
  6
CONTINUOUS
 62
    7
 10
-11.149264020237023
 20
-11.613554756599161
 11
-11.374168984552139
 21
-11.438628673242951
  0
LINE
  8
_0-0_
  6
CONTINUOUS
 62
    7
 10
14.989690721276364
 20
-21.859225353177063
 11
-11.149264020237023
 21
-11.613554756599161
  0
LINE
  8
_0-0_
  6
CONTINUOUS
 62
    7
 10
15.414511209427165
 20
-21.859225353177063
 11
14.989690721276364
 21
-21.859225353177063
  0
LINE
  8
_0-0_
  6
CONTINUOUS
 62
    7
 10
15.939289459495786
 20
-21.734278150779776
 11
15.414511209427165
 21
-21.859225353177063
  0
LINE
  8
_0-0_
  6
CONTINUOUS
 62
    7
 10
20.912188114907995
 20
-19.960027876738234
 11
15.939289459495786
 21
-21.734278150779776
  0
LINE
  8
_0-0_
  6
CONTINUOUS
 62
    7
 10
15.864321138057409
 20
-21.93419367461544
 11
15.539458411824459
 21
-21.93419367461544
  0
LINE
  8
_0-0_
  6
CONTINUOUS
 62
    7
 10
21.761829091209567
 20
-20.134953960094439
 11
15.864321138057409
 21
-21.93419367461544
  0
LINE
  8
_0-0_
  6
CONTINUOUS
 62
    7
 10
22.211639019839826
 20
-19.985017317217693
 11
21.761829091209567
 21
-20.134953960094439
  0
LINE
  8
_0-0_
  6
CONTINUOUS
 62
    7
 10
22.286607341278202
 20
-19.710133471943653
 11
22.211639019839826
 21
-19.985017317217693
  0
LINE
  8
_0-0_
  6
CONTINUOUS
 62
    7
 10
22.061702376963073
 20
-19.360281305231236
 11
22.286607341278202
 21
-19.710133471943653
  0
LINE
  8
_0-0_
  6
CONTINUOUS
 62
    7
 10
21.312019162579322
 20
-19.01042913851882
 11
22.061702376963073
 21
-19.360281305231236
  0
LINE
  8
_0-0_
  6
CONTINUOUS
 62
    7
 10
-6.2013548053042733
 20
-7.3153709941323317
 11
21.312019162579322
 21
-19.01042913851882
  0
LINE
  8
_0-0_
  6
CONTINUOUS
 62
    7
 10
-6.6511647339345181
 20
-7.1654343512555823
 11
-6.2013548053042733
 21
-7.3153709941323317
  0
LINE
  8
_0-0_
  6
CONTINUOUS
 62
    7
 10
-7.2009324244825983
 20
-7.0404871488582899
 11
-6.6511647339345181
 21
-7.1654343512555823
  0
LINE
  8
_0-0_
  6
CONTINUOUS
 62
    7
 10
-7.8006789959896103
 20
-7.0404871488582899
 11
-7.2009324244825983
 21
-7.0404871488582899
  0
LINE
  8
_0-0_
  6
CONTINUOUS
 62
    7
 10
-8.3254572460582317
 20
-7.1904237917350375
 11
-7.8006789959896103
 21
-7.0404871488582899
  0
LINE
  8
_0-0_
  6
CONTINUOUS
 62
    7
 10
-13.348334782429358
 20
-10.114188327831661
 11
-8.3254572460582317
 21
-7.1904237917350375
  0
LINE
  8
_0-0_
  6
CONTINUOUS
 62
    7
 10
2.274622415201879
 20
-1.4093372318754129
 11
2.6635757064292029
 21
-1.4525542642340055
  0
LINE
  8
_0-0_
  6
CONTINUOUS
 62
    7
 10
1.8208435754366583
 20
-1.3661201995168204
 11
2.274622415201879
 21
-1.4093372318754129
  0
LINE
  8
_0-0_
  6
CONTINUOUS
 62
    7
 10
0.9348944120855016
 20
-1.7550734907441532
 11
1.8208435754366583
 21
-1.3661201995168204
  0
LINE
  8
_0-0_
  6
CONTINUOUS
 62
    7
 10
-4.3591920518420828
 20
-4.9747424014593022
 11
0.9348944120855016
 21
-1.7550734907441532
  0
LINE
  8
_0-0_
  6
CONTINUOUS
 62
    7
 10
-4.553668697455759
 20
-5.1692190470729695
 11
-4.3591920518420828
 21
-4.9747424014593022
  0
LINE
  8
_0-0_
  6
CONTINUOUS
 62
    7
 10
-4.6184942459936416
 20
-5.4717382735831173
 11
-4.553668697455759
 21
-5.1692190470729695
  0
LINE
  8
_0-0_
  6
CONTINUOUS
 62
    7
 10
-4.4456261165592785
 20
-5.6878234353760799
 11
-4.6184942459936416
 21
-5.4717382735831173
  0
LINE
  8
_0-0_
  6
CONTINUOUS
 62
    7
 10
-2.9546385001878228
 20
-6.3576874369342651
 11
-4.4456261165592785
 21
-5.6878234353760799
  0
LINE
  8
_0-0_
  6
CONTINUOUS
 62
    7
 10
3.7656100315733205
 20
-1.7550734907441532
 11
32.224025839706542
 21
-15.757391974928158
  0
LINE
  8
_0-0_
  6
CONTINUOUS
 62
    7
 10
3.0093119652979432
 20
-1.3877287156961167
 11
3.7656100315733205
 21
-1.7550734907441532
  0
LINE
  8
_0-0_
  6
CONTINUOUS
 62
    7
 10
2.3826649960983595
 20
-1.2364691024410428
 11
3.0093119652979432
 21
-1.3877287156961167
  0
LINE
  8
_0-0_
  6
CONTINUOUS
 62
    7
 10
1.7344095107194626
 20
-1.2364691024410428
 11
2.3826649960983595
 21
-1.2364691024410428
  0
LINE
  8
_0-0_
  6
CONTINUOUS
 62
    7
 10
0.8484603473683201
 20
-1.4741627804133017
 11
1.7344095107194626
 21
-1.2364691024410428
  0
LINE
  8
_0-0_
  6
CONTINUOUS
 62
    7
 10
-5.331575279910421
 20
-4.8450913043835246
 11
0.8484603473683201
 21
-1.4741627804133017
  0
LINE
  8
_0-0_
  6
CONTINUOUS
 62
    7
 10
-5.6989200549584602
 20
-5.27726162796945
 11
-5.331575279910421
 21
-4.8450913043835246
  0
LINE
  8
_0-0_
  6
CONTINUOUS
 62
    7
 10
-2.9978555325464207
 20
-6.1416022751413024
 11
-2.7385533383948761
 21
-6.7250322119823007
  0
LINE
  8
_0-0_
  6
CONTINUOUS
 62
    7
 10
-2.8682044354706413
 20
-5.7958660162725621
 11
-2.9978555325464207
 21
-6.1416022751413024
  0
LINE
  8
_0-0_
  6
CONTINUOUS
 62
    7
 10
-2.6737277898569793
 20
-5.536563822121007
 11
-2.8682044354706413
 21
-5.7958660162725621
  0
LINE
  8
_0-0_
  6
CONTINUOUS
 62
    7
 10
1.2806306709542419
 20
-3.0515844615019319
 11
-2.6737277898569793
 21
-5.536563822121007
  0
LINE
  8
_0-0_
  6
CONTINUOUS
 62
    7
 10
1.7992350592573594
 20
-2.7922822673503767
 11
1.2806306709542419
 21
-3.0515844615019319
  0
LINE
  8
_0-0_
  6
CONTINUOUS
 62
    7
 10
2.3178394475604627
 20
-2.7490652349917841
 11
1.7992350592573594
 21
-2.7922822673503767
  0
LINE
  8
_0-0_
  6
CONTINUOUS
 62
    7
 10
2.879660868222178
 20
-2.8787163320675599
 11
2.3178394475604627
 21
-2.7490652349917841
  0
LINE
  8
_0-0_
  6
CONTINUOUS
 62
    7
 10
29.760654995266766
 20
-15.692566426390268
 11
2.879660868222178
 21
-2.8787163320675599
  0
LINE
  8
_0-0_
  6
CONTINUOUS
 62
    7
 10
29.911914608521844
 20
-15.908651588183229
 11
29.760654995266766
 21
-15.692566426390268
  0
LINE
  8
_0-0_
  6
CONTINUOUS
 62
    7
 10
29.911914608521844
 20
-16.038302685259008
 11
29.911914608521844
 21
-15.908651588183229
  0
LINE
  8
_0-0_
  6
CONTINUOUS
 62
    7
 10
29.544569833473805
 20
-16.535298557382827
 11
29.911914608521844
 21
-16.038302685259008
  0
LINE
  8
_0-0_
  6
CONTINUOUS
 62
    7
 10
24.228874853366907
 20
-18.674541659133158
 11
24.077615240111843
 21
-18.609716110595269
  0
LINE
  8
_0-0_
  6
CONTINUOUS
 62
    7
 10
24.509785563697765
 20
-18.674541659133158
 11
24.228874853366907
 21
-18.674541659133158
  0
LINE
  8
_0-0_
  6
CONTINUOUS
 62
    7
 10
24.639436660773544
 20
-18.609716110595269
 11
24.509785563697765
 21
-18.674541659133158
  0
LINE
  8
_0-0_
  6
CONTINUOUS
 62
    7
 10
24.704262209311427
 20
-18.674541659133158
 11
24.639436660773544
 21
-18.609716110595269
  0
LINE
  8
_0-0_
  6
CONTINUOUS
 62
    7
 10
29.544569833473805
 20
-16.535298557382827
 11
24.704262209311427
 21
-18.674541659133158
  0
LINE
  8
_0-0_
  6
CONTINUOUS
 62
    7
 10
29.631003898190986
 20
-16.297604879410567
 11
29.544569833473805
 21
-16.535298557382827
  0
LINE
  8
_0-0_
  6
CONTINUOUS
 62
    7
 10
29.544569833473805
 20
-16.146345266155489
 11
29.631003898190986
 21
-16.297604879410567
  0
LINE
  8
_0-0_
  6
CONTINUOUS
 62
    7
 10
3.1821800947323204
 20
-3.7430569792394133
 11
29.544569833473805
 21
-16.146345266155489
  0
LINE
  8
_0-0_
  6
CONTINUOUS
 62
    7
 10
2.8148353196842812
 20
-3.5053633012671543
 11
3.1821800947323204
 21
-3.7430569792394133
  0
LINE
  8
_0-0_
  6
CONTINUOUS
 62
    7
 10
2.3826649960983595
 20
-3.4189292365499693
 11
2.8148353196842812
 21
-3.5053633012671543
  0
LINE
  8
_0-0_
  6
CONTINUOUS
 62
    7
 10
1.9072776401538398
 20
-3.3973207203706721
 11
2.3826649960983595
 21
-3.4189292365499693
  0
LINE
  8
_0-0_
  6
CONTINUOUS
 62
    7
 10
1.5183243489265017
 20
-3.6134058821636366
 11
1.9072776401538398
 21
-3.3973207203706721
  0
LINE
  8
_0-0_
  6
CONTINUOUS
 62
    7
 10
-2.5440766927812
 20
-6.0767767266034145
 11
1.5183243489265017
 21
-3.6134058821636366
  0
LINE
  8
_0-0_
  6
CONTINUOUS
 62
    7
 10
-2.7817703707534598
 20
-6.530555566368637
 11
-2.5440766927812
 21
-6.0767767266034145
  0
LINE
  8
_0-0_
  6
CONTINUOUS
 62
    7
 10
-2.7385533383948761
 20
-6.7250322119823007
 11
-2.7817703707534598
 21
-6.530555566368637
  0
LINE
  8
_0-0_
  6
CONTINUOUS
 62
    7
 10
23.991181175394662
 20
-18.631324626774568
 11
-2.7385533383948761
 21
-6.7250322119823007
  0
LINE
  8
_0-0_
  6
CONTINUOUS
 62
    7
 10
24.553002596056363
 20
-18.890626820926119
 11
23.991181175394662
 21
-18.631324626774568
  0
LINE
  8
_0-0_
  6
CONTINUOUS
 62
    7
 10
25.07160698435948
 20
-18.912235337105418
 11
24.553002596056363
 21
-18.890626820926119
  0
LINE
  8
_0-0_
  6
CONTINUOUS
 62
    7
 10
32.288851388244439
 20
-16.556907073562119
 11
25.07160698435948
 21
-18.912235337105418
  0
LINE
  8
_0-0_
  6
CONTINUOUS
 62
    7
 10
32.483328033858101
 20
-16.340821911769158
 11
32.288851388244439
 21
-16.556907073562119
  0
LINE
  8
_0-0_
  6
CONTINUOUS
 62
    7
 10
32.440111001499503
 20
-16.038302685259008
 11
32.483328033858101
 21
-16.340821911769158
  0
LINE
  8
_0-0_
  6
CONTINUOUS
 62
    7
 10
32.224025839706542
 20
-15.757391974928158
 11
32.440111001499503
 21
-16.038302685259008
  0
LINE
  8
_0-0_
  6
CONTINUOUS
 62
    7
 10
33.326060164850645
 20
-15.411655716059418
 11
33.066757970699101
 21
-15.217179070445749
  0
LINE
  8
_0-0_
  6
CONTINUOUS
 62
    7
 10
33.498928294285022
 20
-15.995085652900418
 11
33.326060164850645
 21
-15.411655716059418
  0
LINE
  8
_0-0_
  6
CONTINUOUS
 62
    7
 10
33.520536810464321
 20
-16.384038944127749
 11
33.498928294285022
 21
-15.995085652900418
  0
LINE
  8
_0-0_
  6
CONTINUOUS
 62
    7
 10
33.282843132492061
 20
-16.664949654458606
 11
33.520536810464321
 21
-16.384038944127749
  0
LINE
  8
_0-0_
  6
CONTINUOUS
 62
    7
 10
25.827905050634843
 20
-19.063494950360496
 11
33.282843132492061
 21
-16.664949654458606
  0
LINE
  8
_0-0_
  6
CONTINUOUS
 62
    7
 10
25.006781435821583
 20
-19.257971595974158
 11
25.827905050634843
 21
-19.063494950360496
  0
LINE
  8
_0-0_
  6
CONTINUOUS
 62
    7
 10
24.444960015159882
 20
-19.257971595974158
 11
25.006781435821583
 21
-19.257971595974158
  0
LINE
  8
_0-0_
  6
CONTINUOUS
 62
    7
 10
23.991181175394647
 20
-19.214754563615568
 11
24.444960015159882
 21
-19.257971595974158
  0
LINE
  8
_0-0_
  6
CONTINUOUS
 62
    7
 10
23.299708657657167
 20
-18.912235337105418
 11
23.991181175394647
 21
-19.214754563615568
  0
LINE
  8
_0-0_
  6
CONTINUOUS
 62
    7
 10
-4.6617112783522394
 20
-6.6385981472651192
 11
23.299708657657167
 21
-18.912235337105418
  0
LINE
  8
_0-0_
  6
CONTINUOUS
 62
    7
 10
-5.158707150476058
 20
-6.379295953113564
 11
-4.6617112783522394
 21
-6.6385981472651192
  0
LINE
  8
_0-0_
  6
CONTINUOUS
 62
    7
 10
-5.5476604417033961
 20
-6.0119511780655266
 11
-5.158707150476058
 21
-6.379295953113564
  0
LINE
  8
_0-0_
  6
CONTINUOUS
 62
    7
 10
-5.7205285711377591
 20
-5.5149553059417116
 11
-5.5476604417033961
 21
-6.0119511780655266
  0
LINE
  8
_0-0_
  6
CONTINUOUS
 62
    7
 10
-5.6340945064205776
 20
-4.7586572396663414
 11
-5.7205285711377591
 21
-5.5149553059417116
  0
LINE
  8
_0-0_
  6
CONTINUOUS
 62
    7
 10
-5.5908774740619798
 20
-4.2616613675425263
 11
-5.6340945064205776
 21
-4.7586572396663414
  0
LINE
  8
_0-0_
  6
CONTINUOUS
 62
    7
 10
1.9721031886917224
 20
-0.0912177449383397
 11
2.2746224152018648
 21
-0.1344347772969323
  0
LINE
  8
_0-0_
  6
CONTINUOUS
 62
    7
 10
0.9997199606233842
 20
-0.1776518096555248
 11
1.9721031886917224
 21
-0.0912177449383397
  0
LINE
  8
_0-0_
  6
CONTINUOUS
 62
    7
 10
-0.2103569454171996
 20
-0.7178647141379341
 11
0.9997199606233842
 21
-0.1776518096555248
  0
LINE
  8
_0-0_
  6
CONTINUOUS
 62
    7
 10
-3.6893280502839012
 20
-2.9003248482468607
 11
-0.2103569454171996
 21
-0.7178647141379341
  0
LINE
  8
_0-0_
  6
CONTINUOUS
 62
    7
 10
-5.5908774740619798
 20
-4.2616613675425263
 11
-3.6893280502839012
 21
-2.9003248482468607
  0
LINE
  8
_0-0_
  6
CONTINUOUS
 62
    7
 10
-30.394741722150297
 20
-14.938885447522168
 11
-35.039589605431061
 21
-3.2899018672307134
  0
LINE
  8
_0-0_
  6
CONTINUOUS
 62
    7
 10
-35.039589605431061
 20
-3.2899018672307134
 11
-35.113317349610128
 21
-2.6632160417087034
  0
LINE
  8
_0-0_
  6
CONTINUOUS
 62
    7
 10
-35.113317349610128
 20
-2.6632160417087034
 11
-33.749354082297515
 21
0.8388518067966375
  0
LINE
  8
_0-0_
  6
CONTINUOUS
 62
    7
 10
-33.749354082297515
 20
0.8388518067966375
 11
-33.306987617223157
 21
1.3180821439605266
  0
LINE
  8
_0-0_
  6
CONTINUOUS
 62
    7
 10
1.7505547399197958
 20
35.601483187223366
 11
2.2297850770836796
 21
35.712074803491944
  0
LINE
  8
_0-0_
  6
CONTINUOUS
 62
    7
 10
2.2297850770836796
 20
35.712074803491944
 11
2.7458792863371038
 21
35.417163826775706
  0
LINE
  8
_0-0_
  6
CONTINUOUS
 62
    7
 10
2.7458792863371038
 20
35.417163826775706
 11
47.977850340190287
 21
0.5808047021699342
  0
LINE
  8
_0-0_
  6
CONTINUOUS
 62
    7
 10
47.977850340190287
 20
0.5808047021699342
 11
48.162169700637946
 21
0.2858937254536888
  0
LINE
  8
_0-0_
  6
CONTINUOUS
 62
    7
 10
48.162169700637946
 20
0.2858937254536888
 11
49.415541351681981
 21
-3.6954044602155429
  0
LINE
  8
_0-0_
  6
CONTINUOUS
 62
    7
 10
49.415541351681981
 20
-3.6954044602155429
 11
42.927499863924709
 21
-16.155393226476654
  0
LINE
  8
_0-0_
  6
CONTINUOUS
 62
    7
 10
42.927499863924709
 20
-16.155393226476654
 11
42.558861143029404
 21
-16.597759691551012
  0
LINE
  8
_0-0_
  6
CONTINUOUS
 62
    7
 10
-30.394741722150297
 20
-14.938885447522168
 11
1.4925076352930837
 21
6.5527519806737793
  0
LINE
  8
_0-0_
  6
CONTINUOUS
 62
    7
 10
1.4925076352930837
 20
6.5527519806737793
 11
2.2297850770836654
 21
6.5527519806737757
  0
LINE
  8
_0-0_
  6
CONTINUOUS
 62
    7
 10
2.2297850770836654
 20
6.5527519806737757
 11
42.558861143029404
 21
-16.229120970655714
  0
LINE
  8
_0-0_
  6
CONTINUOUS
 62
    7
 10
1.8611463561883745
 20
6.6264797248528353
 11
1.7136908678302554
 21
30.882907559763524
  0
LINE
  8
_0-0_
  6
CONTINUOUS
 62
    7
 10
1.7136908678302554
 20
30.882907559763524
 11
2.1560573329046129
 21
35.601483187223366
  0
LINE
  8
_0-0_
  6
CONTINUOUS
 62
    7
 10
-35.002725733341549
 20
-2.736943785887763
 11
1.0501411702187262
 21
30.735452071405419
  0
LINE
  8
_0-0_
  6
CONTINUOUS
 62
    7
 10
1.0501411702187262
 20
30.735452071405419
 11
2.1560573329046129
 21
30.882907559763524
  0
LINE
  8
_0-0_
  6
CONTINUOUS
 62
    7
 10
2.1560573329046129
 20
30.882907559763524
 11
49.194358119144766
 21
-3.400493483499301
  0
LINE
  8
_0-0_
  6
CONTINUOUS
 62
    7
 10
29.861722626383415
 20
-19.286474336756157
 11
35.343169084536754
 21
-17.550115520819375
  0
LINE
  8
_0-0_
  6
CONTINUOUS
 62
    7
 10
37.176735817958019
 20
-16.745215179909131
 11
35.308432884606546
 21
-17.36380317573915
  0
LINE
  8
_0-0_
  6
CONTINUOUS
 62
    7
 10
-30.394741722150297
 20
-14.938885447522168
 11
4.9058204287038798
 21
-28.513008437126075
  0
LINE
  8
_0-0_
  6
CONTINUOUS
 62
    7
 10
42.558861143029404
 20
-16.597759691551012
 11
4.9085314002712899
 21
-28.521568535226805
  0
LINE
  8
_0-0_
  6
CONTINUOUS
 62
    7
 10
-29.854447265777448
 20
3.6332913440432195
 11
-31.274508860717642
 21
4.2937851091316821
  0
LINE
  8
_0-0_
  6
CONTINUOUS
 62
    7
 10
-31.274508860717642
 20
4.2937851091316821
 11
-31.29927737690846
 21
4.5001894107218261
  0
LINE
  8
_0-0_
  6
CONTINUOUS
 62
    7
 10
-31.29927737690846
 20
4.5001894107218261
 11
-31.24148417246322
 21
4.937766530092933
  0
LINE
  8
_0-0_
  6
CONTINUOUS
 62
    7
 10
-31.24148417246322
 20
4.937766530092933
 11
-30.97728666642784
 21
5.457905370100093
  0
LINE
  8
_0-0_
  6
CONTINUOUS
 62
    7
 10
-30.97728666642784
 20
5.457905370100093
 11
-30.704832988328842
 21
5.9780442101072566
  0
LINE
  8
_0-0_
  6
CONTINUOUS
 62
    7
 10
-30.704832988328842
 20
5.9780442101072566
 11
-30.531453374993131
 21
6.2752664043970654
  0
LINE
  8
_0-0_
  6
CONTINUOUS
 62
    7
 10
-30.531453374993131
 20
6.2752664043970654
 11
-30.366329933721016
 21
6.4238775015419698
  0
LINE
  8
_0-0_
  6
CONTINUOUS
 62
    7
 10
-30.366329933721016
 20
6.4238775015419698
 11
-30.275512041021347
 21
6.5229515663052382
  0
LINE
  8
_0-0_
  6
CONTINUOUS
 62
    7
 10
-30.275512041021347
 20
6.5229515663052382
 11
-30.126900943876446
 21
6.4981830501144202
  0
LINE
  8
_0-0_
  6
CONTINUOUS
 62
    7
 10
-30.126900943876446
 20
6.4981830501144202
 11
-30.085620083558414
 21
6.3248034367787014
  0
LINE
  8
_0-0_
  6
CONTINUOUS
 62
    7
 10
-30.085620083558414
 20
6.3248034367787014
 11
-30.102132427685628
 21
5.9863003821708638
  0
LINE
  8
_0-0_
  6
CONTINUOUS
 62
    7
 10
-30.102132427685628
 20
5.9863003821708638
 11
-30.19295032038529
 21
5.4909300583545182
  0
LINE
  8
_0-0_
  6
CONTINUOUS
 62
    7
 10
-30.19295032038529
 20
5.4909300583545182
 11
-30.46540399848428
 21
4.9955597345381726
  0
LINE
  8
_0-0_
  6
CONTINUOUS
 62
    7
 10
-30.46540399848428
 20
4.9955597345381726
 11
-30.64703978388361
 21
4.6818251961211539
  0
LINE
  8
_0-0_
  6
CONTINUOUS
 62
    7
 10
-30.64703978388361
 20
4.6818251961211539
 11
-30.861700257537361
 21
4.4754208945310099
  0
LINE
  8
_0-0_
  6
CONTINUOUS
 62
    7
 10
-30.861700257537361
 20
4.4754208945310099
 11
-31.051592215000294
 21
4.3680906577041343
  0
LINE
  8
_0-0_
  6
CONTINUOUS
 62
    7
 10
-31.051592215000294
 20
4.3680906577041343
 11
-31.274508860717642
 21
4.2937851091316821
  0
LINE
  8
_0-0_
  6
CONTINUOUS
 62
    7
 10
-30.126900943876446
 20
6.4981830501144202
 11
-28.673814660681824
 21
5.7964084247079306
  0
LINE
  8
_0-0_
  6
CONTINUOUS
 62
    7
 10
-28.673814660681824
 20
5.7964084247079306
 11
-28.64078997242741
 21
5.6065164672449974
  0
LINE
  8
_0-0_
  6
CONTINUOUS
 62
    7
 10
-28.64078997242741
 20
5.6065164672449974
 11
-28.682070832745435
 21
5.350575133273221
  0
LINE
  8
_0-0_
  6
CONTINUOUS
 62
    7
 10
-28.682070832745435
 20
5.350575133273221
 11
-28.781144897508707
 21
5.069865283110623
  0
LINE
  8
_0-0_
  6
CONTINUOUS
 62
    7
 10
-28.781144897508707
 20
5.069865283110623
 11
-28.913243650526393
 21
4.7726430888208178
  0
LINE
  8
_0-0_
  6
CONTINUOUS
 62
    7
 10
-28.913243650526393
 20
4.7726430888208178
 11
-29.05359857560769
 21
4.5497264431034603
  0
LINE
  8
_0-0_
  6
CONTINUOUS
 62
    7
 10
-29.05359857560769
 20
4.5497264431034603
 11
-29.218722016879806
 21
4.3350659694497109
  0
LINE
  8
_0-0_
  6
CONTINUOUS
 62
    7
 10
-29.218722016879806
 20
4.3350659694497109
 11
-29.466407178787986
 21
4.0295876030962967
  0
LINE
  8
_0-0_
  6
CONTINUOUS
 62
    7
 10
-29.466407178787986
 20
4.0295876030962967
 11
-29.615018275932886
 21
3.7984147853153365
  0
LINE
  8
_0-0_
  6
CONTINUOUS
 62
    7
 10
-29.615018275932886
 20
3.7984147853153365
 11
-29.854447265777448
 21
3.6332913440432195
  0
LINE
  8
_0-0_
  6
CONTINUOUS
 62
    7
 10
-28.657302316554617
 20
6.0275812424888926
 11
-28.467410359091684
 21
6.0936306189977394
  0
LINE
  8
_0-0_
  6
CONTINUOUS
 62
    7
 10
-28.467410359091684
 20
6.0936306189977394
 11
-28.318799261946776
 21
6.0936306189977394
  0
LINE
  8
_0-0_
  6
CONTINUOUS
 62
    7
 10
-28.318799261946776
 20
6.0936306189977394
 11
-28.252749885437932
 21
5.9532756939164422
  0
LINE
  8
_0-0_
  6
CONTINUOUS
 62
    7
 10
-28.252749885437932
 20
5.9532756939164422
 11
-28.285774573692361
 21
5.713846704071873
  0
LINE
  8
_0-0_
  6
CONTINUOUS
 62
    7
 10
-28.285774573692361
 20
5.713846704071873
 11
-28.508691219409709
 21
5.1359146596194698
  0
LINE
  8
_0-0_
  6
CONTINUOUS
 62
    7
 10
-28.508691219409709
 20
5.1359146596194698
 11
-28.830681929890343
 21
4.5332140989762495
  0
LINE
  8
_0-0_
  6
CONTINUOUS
 62
    7
 10
-28.830681929890343
 20
4.5332140989762495
 11
-29.218722016879806
 21
3.9800505707146625
  0
LINE
  8
_0-0_
  6
CONTINUOUS
 62
    7
 10
-29.218722016879806
 20
3.9800505707146625
 11
-29.474663350851589
 21
3.5837543116615871
  0
LINE
  8
_0-0_
  6
CONTINUOUS
 62
    7
 10
-29.474663350851589
 20
3.5837543116615871
 11
-29.714092340696151
 21
3.3195568056262017
  0
LINE
  8
_0-0_
  6
CONTINUOUS
 62
    7
 10
-29.714092340696151
 20
3.3195568056262017
 11
-29.920496642286299
 21
3.2369950849901441
  0
LINE
  8
_0-0_
  6
CONTINUOUS
 62
    7
 10
-29.920496642286299
 20
3.2369950849901441
 11
-30.011314534985967
 21
3.3690938380078359
  0
LINE
  8
_0-0_
  6
CONTINUOUS
 62
    7
 10
-30.011314534985967
 20
3.3690938380078359
 11
-30.0691077394312
 21
3.6085228278524033
  0
LINE
  8
_0-0_
  6
CONTINUOUS
 62
    7
 10
-30.0691077394312
 20
3.6085228278524033
 11
-30.019570707049564
 21
3.7075968926156735
  0
LINE
  8
_0-0_
  6
CONTINUOUS
 62
    7
 10
-29.895728126095481
 20
3.2369950849901441
 11
-29.681067652441737
 21
3.1048963319724523
  0
LINE
  8
_0-0_
  6
CONTINUOUS
 62
    7
 10
-29.681067652441737
 20
3.1048963319724523
 11
-29.524200383233218
 21
3.2039703967357207
  0
LINE
  8
_0-0_
  6
CONTINUOUS
 62
    7
 10
-29.524200383233218
 20
3.2039703967357207
 11
-29.218722016879806
 21
3.5342172792799511
  0
LINE
  8
_0-0_
  6
CONTINUOUS
 62
    7
 10
-29.218722016879806
 20
3.5342172792799511
 11
-28.962780682908029
 21
3.9057450221422103
  0
LINE
  8
_0-0_
  6
CONTINUOUS
 62
    7
 10
-28.962780682908029
 20
3.9057450221422103
 11
-28.558228251791345
 21
4.4341400342129811
  0
LINE
  8
_0-0_
  6
CONTINUOUS
 62
    7
 10
-28.558228251791345
 20
4.4341400342129811
 11
-28.368336294328412
 21
4.8799733256476898
  0
LINE
  8
_0-0_
  6
CONTINUOUS
 62
    7
 10
-28.368336294328412
 20
4.8799733256476898
 11
-28.236237541310725
 21
5.1689393478738914
  0
LINE
  8
_0-0_
  6
CONTINUOUS
 62
    7
 10
-28.236237541310725
 20
5.1689393478738914
 11
-28.112394960356635
 21
5.4496491980364894
  0
LINE
  8
_0-0_
  6
CONTINUOUS
 62
    7
 10
-28.112394960356635
 20
5.4496491980364894
 11
-28.087626444165817
 21
5.7303590481990838
  0
LINE
  8
_0-0_
  6
CONTINUOUS
 62
    7
 10
-28.087626444165817
 20
5.7303590481990838
 11
-28.079370272102214
 21
5.9119948335984134
  0
LINE
  8
_0-0_
  6
CONTINUOUS
 62
    7
 10
-28.079370272102214
 20
5.9119948335984134
 11
-28.318799261946776
 21
6.0936306189977394
  0
LINE
  8
_0-0_
  6
CONTINUOUS
 62
    7
 10
-28.908403825523589
 20
5.9199663100736188
 11
-28.657302316554617
 21
6.0275812424888926
  0
LINE
  8
_0-0_
  6
CONTINUOUS
 62
    7
 10
-33.306987617223157
 20
1.3180821439605266
 11
-30.589767361275374
 21
3.9753006907864377
  0
LINE
  8
_0-0_
  6
CONTINUOUS
 62
    7
 10
-11.246513295449883
 20
21.625274664453173
 11
-12.875023704049863
 21
22.563370956403027
  0
LINE
  8
_0-0_
  6
CONTINUOUS
 62
    7
 10
-12.875023704049863
 20
22.563370956403027
 11
-12.883045637206845
 21
22.812704063602389
  0
LINE
  8
_0-0_
  6
CONTINUOUS
 62
    7
 10
-12.883045637206845
 20
22.812704063602389
 11
-12.768192865964149
 21
23.32975405959986
  0
LINE
  8
_0-0_
  6
CONTINUOUS
 62
    7
 10
-12.768192865964149
 20
23.32975405959986
 11
-12.397962575931057
 21
23.923913929379221
  0
LINE
  8
_0-0_
  6
CONTINUOUS
 62
    7
 10
-12.397962575931057
 20
23.923913929379221
 11
-12.017862580094413
 21
24.517210311788443
  0
LINE
  8
_0-0_
  6
CONTINUOUS
 62
    7
 10
-12.017862580094413
 20
24.517210311788443
 11
-11.779513212894425
 21
24.85438648594339
  0
LINE
  8
_0-0_
  6
CONTINUOUS
 62
    7
 10
-11.779513212894425
 20
24.85438648594339
 11
-11.566576324160632
 21
25.014771443004459
  0
LINE
  8
_0-0_
  6
CONTINUOUS
 62
    7
 10
-11.566576324160632
 20
25.014771443004459
 11
-11.44764771187975
 21
25.123709551575526
  0
LINE
  8
_0-0_
  6
CONTINUOUS
 62
    7
 10
-11.44764771187975
 20
25.123709551575526
 11
-11.272583469526165
 21
25.078557661502199
  0
LINE
  8
_0-0_
  6
CONTINUOUS
 62
    7
 10
-11.272583469526165
 20
25.078557661502199
 11
-11.241368175281476
 21
24.866976402776782
  0
LINE
  8
_0-0_
  6
CONTINUOUS
 62
    7
 10
-11.241368175281476
 20
24.866976402776782
 11
-11.296510569064633
 21
24.464045439571247
  0
LINE
  8
_0-0_
  6
CONTINUOUS
 62
    7
 10
-11.296510569064633
 20
24.464045439571247
 11
-11.456886575112588
 21
23.88136145242947
  0
LINE
  8
_0-0_
  6
CONTINUOUS
 62
    7
 10
-11.456886575112588
 20
23.88136145242947
 11
-11.834396108838785
 21
23.317674187430921
  0
LINE
  8
_0-0_
  6
CONTINUOUS
 62
    7
 10
-11.834396108838785
 20
23.317674187430921
 11
-12.084342156582633
 21
22.961622089039004
  0
LINE
  8
_0-0_
  6
CONTINUOUS
 62
    7
 10
-12.084342156582633
 20
22.961622089039004
 11
-12.36254169172879
 21
22.737330115573918
  0
LINE
  8
_0-0_
  6
CONTINUOUS
 62
    7
 10
-12.36254169172879
 20
22.737330115573918
 11
-12.6007702610225
 21
22.628884149641067
  0
LINE
  8
_0-0_
  6
CONTINUOUS
 62
    7
 10
-12.6007702610225
 20
22.628884149641067
 11
-12.875023704049863
 21
22.563370956403027
  0
LINE
  8
_0-0_
  6
CONTINUOUS
 62
    7
 10
-11.272583469526165
 20
25.078557661502199
 11
-9.6089116745627017
 21
24.087658891053973
  0
LINE
  8
_0-0_
  6
CONTINUOUS
 62
    7
 10
-9.6089116745627017
 20
24.087658891053973
 11
-9.5892930608618592
 21
23.857201708091576
  0
LINE
  8
_0-0_
  6
CONTINUOUS
 62
    7
 10
-9.5892930608618592
 20
23.857201708091576
 11
-9.6654096983542068
 21
23.555558265032058
  0
LINE
  8
_0-0_
  6
CONTINUOUS
 62
    7
 10
-9.6654096983542068
 20
23.555558265032058
 11
-9.8132047385818986
 21
23.230350116152902
  0
LINE
  8
_0-0_
  6
CONTINUOUS
 62
    7
 10
-9.8132047385818986
 20
23.230350116152902
 11
-10.002205576764108
 21
22.88885650514721
  0
LINE
  8
_0-0_
  6
CONTINUOUS
 62
    7
 10
-10.002205576764108
 20
22.88885650514721
 11
-10.193304734418543
 21
22.637053733743684
  0
LINE
  8
_0-0_
  6
CONTINUOUS
 62
    7
 10
-10.193304734418543
 20
22.637053733743684
 11
-10.41314952211351
 21
22.397711130254152
  0
LINE
  8
_0-0_
  6
CONTINUOUS
 62
    7
 10
-10.41314952211351
 20
22.397711130254152
 11
-10.741189728915653
 21
22.058436636626972
  0
LINE
  8
_0-0_
  6
CONTINUOUS
 62
    7
 10
-10.741189728915653
 20
22.058436636626972
 11
-10.943022079743795
 21
21.797627646790033
  0
LINE
  8
_0-0_
  6
CONTINUOUS
 62
    7
 10
-10.943022079743795
 20
21.797627646790033
 11
-11.246513295449883
 21
21.625274664453173
  0
LINE
  8
_0-0_
  6
CONTINUOUS
 62
    7
 10
-9.5649946165914734
 20
24.362283678813267
 11
-9.3310834841484898
 21
24.421381115728334
  0
LINE
  8
_0-0_
  6
CONTINUOUS
 62
    7
 10
-9.3310834841484898
 20
24.421381115728334
 11
-9.1534287796844573
 21
24.405838343065678
  0
LINE
  8
_0-0_
  6
CONTINUOUS
 62
    7
 10
-9.1534287796844573
 20
24.405838343065678
 11
-9.0891504185485097
 21
24.231145445444039
  0
LINE
  8
_0-0_
  6
CONTINUOUS
 62
    7
 10
-9.0891504185485097
 20
24.231145445444039
 11
-9.1536703754970112
 21
23.948377926621486
  0
LINE
  8
_0-0_
  6
CONTINUOUS
 62
    7
 10
-9.1536703754970112
 20
23.948377926621486
 11
-9.4805965481033461
 21
23.280812679366488
  0
LINE
  8
_0-0_
  6
CONTINUOUS
 62
    7
 10
-9.4805965481033461
 20
23.280812679366488
 11
-9.9285496524628165
 21
22.594000163142596
  0
LINE
  8
_0-0_
  6
CONTINUOUS
 62
    7
 10
-9.9285496524628165
 20
22.594000163142596
 11
-10.450279479029842
 21
21.973313780701218
  0
LINE
  8
_0-0_
  6
CONTINUOUS
 62
    7
 10
-10.450279479029842
 20
21.973313780701218
 11
-10.797687752707159
 21
21.526336010605057
  0
LINE
  8
_0-0_
  6
CONTINUOUS
 62
    7
 10
-10.797687752707159
 20
21.526336010605057
 11
-11.111540816855022
 21
21.235546558625515
  0
LINE
  8
_0-0_
  6
CONTINUOUS
 62
    7
 10
-11.111540816855022
 20
21.235546558625515
 11
-11.366918335645405
 21
21.158436684843629
  0
LINE
  8
_0-0_
  6
CONTINUOUS
 62
    7
 10
-11.366918335645405
 20
21.158436684843629
 11
-11.461669301562178
 21
21.325850338772156
  0
LINE
  8
_0-0_
  6
CONTINUOUS
 62
    7
 10
-11.461669301562178
 20
21.325850338772156
 11
-11.505716108452798
 21
21.61811621866633
  0
LINE
  8
_0-0_
  6
CONTINUOUS
 62
    7
 10
-11.505716108452798
 20
21.61811621866633
 11
-11.436136025189693
 21
21.731371764088124
  0
LINE
  8
_0-0_
  6
CONTINUOUS
 62
    7
 10
-11.337309218234733
 20
21.155846222733182
 11
-11.094512665264613
 21
20.975480258252446
  0
LINE
  8
_0-0_
  6
CONTINUOUS
 62
    7
 10
-11.094512665264613
 20
20.975480258252446
 11
-10.896626406555267
 21
21.077510467862332
  0
LINE
  8
_0-0_
  6
CONTINUOUS
 62
    7
 10
-10.896626406555267
 20
21.077510467862332
 11
-10.49690779701778
 21
21.440349667309157
  0
LINE
  8
_0-0_
  6
CONTINUOUS
 62
    7
 10
-10.49690779701778
 20
21.440349667309157
 11
-10.152089985450896
 21
21.857718319994639
  0
LINE
  8
_0-0_
  6
CONTINUOUS
 62
    7
 10
-10.152089985450896
 20
21.857718319994639
 11
-9.6132112093871989
 21
22.447068610285058
  0
LINE
  8
_0-0_
  6
CONTINUOUS
 62
    7
 10
-9.6132112093871989
 20
22.447068610285058
 11
-9.3395796579174508
 21
22.96017251416373
  0
LINE
  8
_0-0_
  6
CONTINUOUS
 62
    7
 10
-9.3395796579174508
 20
22.96017251416373
 11
-9.1514423071053805
 21
23.291796419365863
  0
LINE
  8
_0-0_
  6
CONTINUOUS
 62
    7
 10
-9.1514423071053805
 20
23.291796419365863
 11
-8.9740381494670309
 21
23.614414106134586
  0
LINE
  8
_0-0_
  6
CONTINUOUS
 62
    7
 10
-8.9740381494670309
 20
23.614414106134586
 11
-8.9150704614713554
 21
23.947393641345069
  0
LINE
  8
_0-0_
  6
CONTINUOUS
 62
    7
 10
-8.9150704614713554
 20
23.947393641345069
 11
-8.8862040335245602
 21
24.163663681653173
  0
LINE
  8
_0-0_
  6
CONTINUOUS
 62
    7
 10
-8.8862040335245602
 20
24.163663681653173
 11
-9.1534287796844573
 21
24.405838343065678
  0
LINE
  8
_0-0_
  6
CONTINUOUS
 62
    7
 10
-9.8764249181312174
 20
24.259899094907251
 11
-9.5649946165914734
 21
24.362283678813267
  0
LINE
  8
_0-0_
  6
CONTINUOUS
 62
    7
 10
-9.8621042980212472
 20
24.245255105956087
 11
1.7505547399197958
 21
35.601483187223366
  0
LINE
  8
_0-0_
  6
CONTINUOUS
 62
    7
 10
-28.423604176620596
 20
6.0936306189977394
 11
-12.061295563778398
 21
22.094626423354462
  0
ARC
  8
_0-0_
  6
CONTINUOUS
 62
    7
 10
-3.4526966797500016
 20
20.079652294525935
 40
0.4279555762988537
 50
302.88468093301663
 51
127.05823548415856
  0
ARC
  8
_0-0_
  6
CONTINUOUS
 62
    7
 10
-6.3764651916408432
 20
17.863193267783657
 40
0.4463844709593518
 50
131.28880965446285
 51
315.17684770433505
  0
LINE
  8
_0-0_
  6
CONTINUOUS
 62
    7
 10
-3.7105940277565672
 20
20.421170863825559
 11
-6.6710141842278112
 21
18.198603444849994
  0
LINE
  8
_0-0_
  6
CONTINUOUS
 62
    7
 10
-6.0598509592730743
 20
17.548527534384206
 11
-3.2203382240250527
 21
19.720270153430427
  0
ARC
  8
_0-0_
  6
CONTINUOUS
 62
    7
 10
-5.0864182576883898
 20
16.180998528991164
 40
0.4279555762988537
 50
302.88468093301663
 51
127.05823548415856
  0
ARC
  8
_0-0_
  6
CONTINUOUS
 62
    7
 10
-8.0101867695792315
 20
13.964539502248886
 40
0.4463844709593518
 50
131.28880965446285
 51
315.17684770433505
  0
LINE
  8
_0-0_
  6
CONTINUOUS
 62
    7
 10
-5.3443156056949555
 20
16.522517098290788
 11
-8.3047357621661995
 21
14.299949679315215
  0
LINE
  8
_0-0_
  6
CONTINUOUS
 62
    7
 10
-7.6935725372114625
 20
13.649873768849428
 11
-4.8540598019634409
 21
15.821616387895649
  0
ARC
  8
_0-0_
  6
CONTINUOUS
 62
    7
 10
-2.0417553169850429
 20
16.292388636577872
 40
0.4279555762988537
 50
302.88468093301663
 51
127.05823548415856
  0
ARC
  8
_0-0_
  6
CONTINUOUS
 62
    7
 10
-4.9655238288758845
 20
14.075929609835594
 40
0.4463844709593518
 50
131.28880965446285
 51
315.17684770433505
  0
LINE
  8
_0-0_
  6
CONTINUOUS
 62
    7
 10
-2.2996526649916085
 20
16.633907205877495
 11
-5.2600728214628525
 21
14.411339786901923
  0
LINE
  8
_0-0_
  6
CONTINUOUS
 62
    7
 10
-4.6489095965081155
 20
13.761263876436136
 11
-1.8093968612600939
 21
15.933006495482356
  0
ARC
  8
_0-0_
  6
CONTINUOUS
 62
    7
 10
-6.4973596204533486
 20
12.839295301389928
 40
0.4279555762988537
 50
302.88468093301663
 51
127.05823548415856
  0
ARC
  8
_0-0_
  6
CONTINUOUS
 62
    7
 10
-9.4211281323441902
 20
10.62283627464765
 40
0.4463844709593518
 50
131.28880965446285
 51
315.17684770433505
  0
LINE
  8
_0-0_
  6
CONTINUOUS
 62
    7
 10
-6.7552569684599142
 20
13.180813870689551
 11
-9.7156771249311582
 21
10.958246451713979
  0
LINE
  8
_0-0_
  6
CONTINUOUS
 62
    7
 10
-9.1045138999764212
 20
10.308170541248192
 11
-6.2650011647283996
 21
12.479913160294412
  0
ARC
  8
_0-0_
  6
CONTINUOUS
 62
    7
 10
-3.6383468590611834
 20
12.505124978629805
 40
0.4279555762988537
 50
302.88468093301663
 51
127.05823548415856
  0
ARC
  8
_0-0_
  6
CONTINUOUS
 62
    7
 10
-6.562115370952025
 20
10.288665951887527
 40
0.4463844709593518
 50
131.28880965446285
 51
315.17684770433505
  0
LINE
  8
_0-0_
  6
CONTINUOUS
 62
    7
 10
-3.896244207067749
 20
12.846643547929428
 11
-6.856664363538993
 21
10.624076128953856
  0
LINE
  8
_0-0_
  6
CONTINUOUS
 62
    7
 10
-6.245501138584256
 20
9.9740002184880687
 11
-3.4059884033362344
 21
12.145742837534289
  0
ARC
  8
_0-0_
  6
CONTINUOUS
 62
    7
 10
-0.4822938107711358
 20
12.096694584145208
 40
0.4279555762988537
 50
302.88468093301663
 51
127.05823548415856
  0
ARC
  8
_0-0_
  6
CONTINUOUS
 62
    7
 10
-3.4060623226619775
 20
9.8802355574029299
 40
0.4463844709593518
 50
131.28880965446285
 51
315.17684770433505
  0
LINE
  8
_0-0_
  6
CONTINUOUS
 62
    7
 10
-0.7401911587777014
 20
12.438213153444831
 11
-3.7006113152489455
 21
10.215645734469259
  0
LINE
  8
_0-0_
  6
CONTINUOUS
 62
    7
 10
-3.0894480902942085
 20
9.5655698240034752
 11
-0.2499353550461869
 21
11.737312443049696
  0
ARC
  8
_0-0_
  6
CONTINUOUS
 62
    7
 10
-5.4205885804485057
 20
8.4208210337838487
 40
0.4279555762988537
 50
302.88468093301663
 51
127.05823548415856
  0
ARC
  8
_0-0_
  6
CONTINUOUS
 62
    7
 10
-8.3443570923393473
 20
6.2043620070415706
 40
0.4463844709593518
 50
131.28880965446285
 51
315.17684770433505
  0
LINE
  8
_0-0_
  6
CONTINUOUS
 62
    7
 10
-5.6784859284550713
 20
8.7623396030834719
 11
-8.6389060849263153
 21
6.5397721841079033
  0
LINE
  8
_0-0_
  6
CONTINUOUS
 62
    7
 10
-8.0277428599715783
 20
5.8896962736421159
 11
-5.1882301247235567
 21
8.0614388926883365
  0
ARC
  8
_0-0_
  6
CONTINUOUS
 62
    7
 10
-2.5615758190563405
 20
8.1609107827481964
 40
0.4279555762988537
 50
302.88468093301663
 51
127.05823548415856
  0
ARC
  8
_0-0_
  6
CONTINUOUS
 62
    7
 10
-5.4853443309471821
 20
5.9444517560059182
 40
0.4463844709593518
 50
131.28880965446285
 51
315.17684770433505
  0
LINE
  8
_0-0_
  6
CONTINUOUS
 62
    7
 10
-2.8194731670629061
 20
8.5024293520478196
 11
-5.7798933235341501
 21
6.2798619330722509
  0
LINE
  8
_0-0_
  6
CONTINUOUS
 62
    7
 10
-5.1687300985794131
 20
5.6297860226064635
 11
-2.3292173633313915
 21
7.8015286416526841
  0
ARC
  8
_0-0_
  6
CONTINUOUS
 62
    7
 10
-8.0939511625295033
 20
9.0520316434418611
 40
0.4279555762988537
 50
302.88468093301663
 51
127.05823548415856
  0
ARC
  8
_0-0_
  6
CONTINUOUS
 62
    7
 10
-11.017719674420345
 20
6.8355726166995829
 40
0.4463844709593518
 50
131.28880965446285
 51
315.17684770433505
  0
LINE
  8
_0-0_
  6
CONTINUOUS
 62
    7
 10
-8.3518485105360689
 20
9.3935502127414843
 11
-11.312268667007313
 21
7.1709827937659121
  0
LINE
  8
_0-0_
  6
CONTINUOUS
 62
    7
 10
-10.701105442052576
 20
6.5209068833001282
 11
-7.8615927068045544
 21
8.6926495023463488
  0
ARC
  8
_0-0_
  6
CONTINUOUS
 62
    7
 10
-10.767313744610487
 20
9.2748118586152763
 40
0.4279555762988537
 50
302.88468093301663
 51
127.05823548415856
  0
ARC
  8
_0-0_
  6
CONTINUOUS
 62
    7
 10
-13.691082256501328
 20
7.0583528318729982
 40
0.4463844709593518
 50
131.28880965446285
 51
315.17684770433505
  0
LINE
  8
_0-0_
  6
CONTINUOUS
 62
    7
 10
-11.025211092617052
 20
9.6163304279148996
 11
-13.985631249088296
 21
7.3937630089393274
  0
LINE
  8
_0-0_
  6
CONTINUOUS
 62
    7
 10
-13.374468024133559
 20
6.7436870984735435
 11
-10.534955288885538
 21
8.9154297175197641
  0
ARC
  8
_0-0_
  6
CONTINUOUS
 62
    7
 10
-9.3192423459832945
 20
12.765035229665454
 40
0.4279555762988537
 50
302.88468093301663
 51
127.05823548415856
  0
ARC
  8
_0-0_
  6
CONTINUOUS
 62
    7
 10
-12.243010857874136
 20
10.548576202923176
 40
0.4463844709593518
 50
131.28880965446285
 51
315.17684770433505
  0
LINE
  8
_0-0_
  6
CONTINUOUS
 62
    7
 10
-9.5771396939898601
 20
13.106553798965077
 11
-12.537559850461104
 21
10.883986379989508
  0
LINE
  8
_0-0_
  6
CONTINUOUS
 62
    7
 10
-11.926396625506367
 20
10.233910469523725
 11
-9.0868838902583455
 21
12.405653088569945
  0
ARC
  8
_0-0_
  6
CONTINUOUS
 62
    7
 10
-7.2028303018358422
 20
4.9677276985959082
 40
0.4279555762988537
 50
302.88468093301663
 51
127.05823548415856
  0
ARC
  8
_0-0_
  6
CONTINUOUS
 62
    7
 10
-10.126598813726684
 20
2.7512686718536292
 40
0.4463844709593518
 50
131.28880965446285
 51
315.17684770433505
  0
LINE
  8
_0-0_
  6
CONTINUOUS
 62
    7
 10
-7.4607276498424078
 20
5.3092462678955314
 11
-10.421147806313652
 21
3.0866788489199601
  0
LINE
  8
_0-0_
  6
CONTINUOUS
 62
    7
 10
-9.8099845813589148
 20
2.4366029384541745
 11
-6.9704718461108932
 21
4.6083455575003951
  0
ARC
  8
_0-0_
  6
CONTINUOUS
 62
    7
 10
-7.8418108718514468
 20
16.488220643718435
 40
0.4279555762988537
 50
303.2846809330166
 51
127.45823548415856
  0
ARC
  8
_0-0_
  6
CONTINUOUS
 62
    7
 10
-10.750034456160616
 20
14.251404041486666
 40
0.4463844709593518
 50
131.68880965446286
 51
315.57684770433502
  0
LINE
  8
_0-0_
  6
CONTINUOUS
 62
    7
 10
-8.1020861651104319
 20
16.827930441934839
 11
-11.046917856549083
 21
14.584749721655825
  0
LINE
  8
_0-0_
  6
CONTINUOUS
 62
    7
 10
-10.431231176066643
 20
13.938956342639369
 11
-7.606949138264735
 21
16.130469415374041
  0
ARC
  8
_0-0_
  6
CONTINUOUS
 62
    7
 10
-11.961712205942671
 20
12.867834639332951
 40
0.406557797483911
 50
303.2846809330166
 51
127.45823548415856
  0
ARC
  8
_0-0_
  6
CONTINUOUS
 62
    7
 10
-14.724524611036397
 20
10.742858867212771
 40
0.4240652474113842
 50
131.68880965446286
 51
315.57684770433502
  0
LINE
  8
_0-0_
  6
CONTINUOUS
 62
    7
 10
-12.208973734538713
 20
13.190558947638536
 11
-15.006563841405434
 21
11.059537263373471
  0
LINE
  8
_0-0_
  6
CONTINUOUS
 62
    7
 10
-14.421661494947099
 20
10.446033553307839
 11
-11.738593559035291
 21
12.527970972405779
  0
ARC
  8
_0-0_
  6
CONTINUOUS
 62
    7
 10
-9.7710400900707519
 20
5.3675673951612879
 40
0.406557797483911
 50
303.2846809330166
 51
127.45823548415856
  0
ARC
  8
_0-0_
  6
CONTINUOUS
 62
    7
 10
-12.533852495164478
 20
3.2425916230411085
 40
0.4240652474113842
 50
131.68880965446286
 51
315.57684770433502
  0
LINE
  8
_0-0_
  6
CONTINUOUS
 62
    7
 10
-10.018301618666793
 20
5.6902917034668761
 11
-12.815891725533515
 21
3.5592700192018105
  0
LINE
  8
_0-0_
  6
CONTINUOUS
 62
    7
 10
-12.230989379075179
 20
2.9457663091361761
 11
-9.5479214431633714
 21
5.0277037282341155
  0
ARC
  8
_0-0_
  6
CONTINUOUS
 62
    7
 10
-11.256241524560192
 20
1.9516040958355818
 40
0.406557797483911
 50
303.2846809330166
 51
127.45823548415856
  0
ARC
  8
_0-0_
  6
CONTINUOUS
 62
    7
 10
-14.019053929653918
 20
-0.1733716762845984
 40
0.4240652474113842
 50
131.68880965446286
 51
315.57684770433502
  0
LINE
  8
_0-0_
  6
CONTINUOUS
 62
    7
 10
-11.503503053156233
 20
2.2743284041411682
 11
-14.301093160022955
 21
0.1433067198761035
  0
LINE
  8
_0-0_
  6
CONTINUOUS
 62
    7
 10
-13.716190813564619
 20
-0.4701969901895308
 11
-11.033122877652811
 21
1.6117404289084094
  0
ARC
  8
_0-0_
  6
CONTINUOUS
 62
    7
 10
-15.567079650926711
 20
9.7741097106595554
 40
0.3851600186689683
 50
303.58468093301661
 51
127.75823548415855
  0
ARC
  8
_0-0_
  6
CONTINUOUS
 62
    7
 10
-18.173904296372452
 20
7.7472977460556329
 40
0.4017460238634166
 50
131.98880965446287
 51
315.87684770433509
  0
LINE
  8
_0-0_
  6
CONTINUOUS
 62
    7
 10
-15.802925041244389
 20
10.078617825242702
 11
-18.442666541410542
 21
8.0459057220578565
  0
LINE
  8
_0-0_
  6
CONTINUOUS
 62
    7
 10
-17.885512908991355
 20
7.4676009899527571
 11
-15.354021132939518
 21
9.4532447735065936
  0
ARC
  8
_0-0_
  6
CONTINUOUS
 62
    7
 10
-16.755240798518255
 20
6.469536518920556
 40
0.3851600186689683
 50
303.58468093301661
 51
127.75823548415855
  0
ARC
  8
_0-0_
  6
CONTINUOUS
 62
    7
 10
-19.36206544396401
 20
4.4427245543166327
 40
0.4017460238634166
 50
131.98880965446287
 51
315.87684770433509
  0
LINE
  8
_0-0_
  6
CONTINUOUS
 62
    7
 10
-16.991086188835933
 20
6.7740446335037028
 11
-19.6308276890021
 21
4.741332530318858
  0
LINE
  8
_0-0_
  6
CONTINUOUS
 62
    7
 10
-19.073674056582913
 20
4.1630277982137569
 11
-16.542182280531076
 21
6.1486715817675908
  0
ARC
  8
_0-0_
  6
CONTINUOUS
 62
    7
 10
-14.67595879023305
 20
6.1353661961604331
 40
0.3851600186689683
 50
303.58468093301661
 51
127.75823548415855
  0
ARC
  8
_0-0_
  6
CONTINUOUS
 62
    7
 10
-17.282783435678791
 20
4.1085542315565098
 40
0.4017460238634166
 50
131.98880965446287
 51
315.87684770433509
  0
LINE
  8
_0-0_
  6
CONTINUOUS
 62
    7
 10
-14.911804180550728
 20
6.4398743107435799
 11
-17.551545680716881
 21
4.4071622075587351
  0
LINE
  8
_0-0_
  6
CONTINUOUS
 62
    7
 10
-16.994392048297694
 20
3.828857475453634
 11
-14.462900272245857
 21
5.8145012590074678
  0
ARC
  8
_0-0_
  6
CONTINUOUS
 62
    7
 10
-12.485286674361117
 20
5.5784156582268949
 40
0.3851600186689683
 50
303.58468093301661
 51
127.75823548415855
  0
ARC
  8
_0-0_
  6
CONTINUOUS
 62
    7
 10
-15.092111319806857
 20
3.5516036936229716
 40
0.4017460238634166
 50
131.98880965446287
 51
315.87684770433509
  0
LINE
  8
_0-0_
  6
CONTINUOUS
 62
    7
 10
-12.721132064678795
 20
5.8829237728100416
 11
-15.360873564844947
 21
3.8502116696251969
  0
LINE
  8
_0-0_
  6
CONTINUOUS
 62
    7
 10
-14.803719932425761
 20
3.2719069375200958
 11
-12.272228156373924
 21
5.2575507210739296
  0
ARC
  8
_0-0_
  6
CONTINUOUS
 62
    7
 10
-19.061552888969995
 20
6.7383509289585035
 40
0.342364461039083
 50
304.08468093301661
 51
128.25823548415858
  0
ARC
  8
_0-0_
  6
CONTINUOUS
 62
    7
 10
-21.36292030140854
 20
4.9165879621839892
 40
0.3571075767674814
 50
132.48880965446287
 51
316.37684770433503
  0
LINE
  8
_0-0_
  6
CONTINUOUS
 62
    7
 10
-19.273547298676075
 20
7.0071850682264802
 11
-21.604127256517888
 21
5.1799224000982491
  0
LINE
  8
_0-0_
  6
CONTINUOUS
 62
    7
 10
-21.104412576971516
 20
4.6702151191368495
 11
-18.869685827071404
 21
6.4548011895105972
  0
ARC
  8
_0-0_
  6
CONTINUOUS
 62
    7
 10
-20.286844072423794
 20
3.6194279165306851
 40
0.342364461039083
 50
304.08468093301661
 51
128.25823548415858
  0
ARC
  8
_0-0_
  6
CONTINUOUS
 62
    7
 10
-22.588211484862331
 20
1.7976649497561707
 40
0.3571075767674814
 50
132.48880965446287
 51
316.37684770433503
  0
LINE
  8
_0-0_
  6
CONTINUOUS
 62
    7
 10
-20.498838482129873
 20
3.88826205579866
 11
-22.829418439971679
 21
2.0609993876704289
  0
LINE
  8
_0-0_
  6
CONTINUOUS
 62
    7
 10
-22.329703760425307
 20
1.5512921067090302
 11
-20.094977010525188
 21
3.3358781770827788
  0
ARC
  8
_0-0_
  6
CONTINUOUS
 62
    7
 10
-18.281822135863049
 20
3.2481275579083269
 40
0.342364461039083
 50
304.08468093301661
 51
128.25823548415858
  0
ARC
  8
_0-0_
  6
CONTINUOUS
 62
    7
 10
-20.583189548301579
 20
1.4263645911338125
 40
0.3571075767674814
 50
132.48880965446287
 51
316.37684770433503
  0
LINE
  8
_0-0_
  6
CONTINUOUS
 62
    7
 10
-18.493816545569128
 20
3.5169616971763018
 11
-20.824396503410927
 21
1.6896990290480707
  0
LINE
  8
_0-0_
  6
CONTINUOUS
 62
    7
 10
-20.324681823864555
 20
1.179991748086672
 11
-18.089955073964429
 21
2.9645778184604206
  0
ARC
  8
_0-0_
  6
CONTINUOUS
 62
    7
 10
-16.276800199302297
 20
2.8025671275614945
 40
0.342364461039083
 50
304.08468093301661
 51
128.25823548415858
  0
ARC
  8
_0-0_
  6
CONTINUOUS
 62
    7
 10
-18.578167611740835
 20
0.9808041607869801
 40
0.3571075767674814
 50
132.48880965446287
 51
316.37684770433503
  0
LINE
  8
_0-0_
  6
CONTINUOUS
 62
    7
 10
-16.488794609008377
 20
3.0714012668294695
 11
-18.819374566850197
 21
1.2441385987012383
  0
LINE
  8
_0-0_
  6
CONTINUOUS
 62
    7
 10
-18.319659887303825
 20
0.7344313177398396
 11
-16.084933137403691
 21
2.5190173881135882
  0
ARC
  8
_0-0_
  6
CONTINUOUS
 62
    7
 10
-14.123258119292611
 20
2.2827466254901916
 40
0.342364461039083
 50
304.08468093301661
 51
128.25823548415858
  0
ARC
  8
_0-0_
  6
CONTINUOUS
 62
    7
 10
-16.424625531731149
 20
0.4609836587156772
 40
0.3571075767674814
 50
132.48880965446287
 51
316.37684770433503
  0
LINE
  8
_0-0_
  6
CONTINUOUS
 62
    7
 10
-14.335252528998691
 20
2.5515807647581665
 11
-16.665832486840511
 21
0.7243180966299354
  0
LINE
  8
_0-0_
  6
CONTINUOUS
 62
    7
 10
-16.166117807294125
 20
0.2146108156685366
 11
-13.931391057394006
 21
1.9991968860422853
  0
ARC
  8
_0-0_
  6
CONTINUOUS
 62
    7
 10
-17.502091382756102
 20
-0.2792258490040895
 40
0.342364461039083
 50
304.08468093301661
 51
128.25823548415858
  0
ARC
  8
_0-0_
  6
CONTINUOUS
 62
    7
 10
-19.803458795194633
 20
-2.1009888157786039
 40
0.3571075767674814
 50
132.48880965446287
 51
316.37684770433503
  0
LINE
  8
_0-0_
  6
CONTINUOUS
 62
    7
 10
-17.714085792462182
 20
-0.0103917097361145
 11
-20.044665750303981
 21
-1.8376543778643457
  0
LINE
  8
_0-0_
  6
CONTINUOUS
 62
    7
 10
-19.544951070757602
 20
-2.3473616588257444
 11
-17.310224320857483
 21
-0.5627755884519958
  0
ARC
  8
_0-0_
  6
CONTINUOUS
 62
    7
 10
-19.507113319316826
 20
0.1292045454805057
 40
0.342364461039083
 50
304.08468093301661
 51
128.25823548415858
  0
ARC
  8
_0-0_
  6
CONTINUOUS
 62
    7
 10
-21.80848073175537
 20
-1.6925584212940086
 40
0.3571075767674814
 50
132.48880965446287
 51
316.37684770433503
  0
LINE
  8
_0-0_
  6
CONTINUOUS
 62
    7
 10
-19.719107729022912
 20
0.3980386847484807
 11
-22.049687686864718
 21
-1.4292239833797504
  0
LINE
  8
_0-0_
  6
CONTINUOUS
 62
    7
 10
-21.549973007318346
 20
-1.9389312643411492
 11
-19.315246257418234
 21
-0.1543451939674005
  0
ARC
  8
_0-0_
  6
CONTINUOUS
 62
    7
 10
-22.21296542237727
 20
4.136813434432276
 40
0.2995689034091976
 50
304.08468093301661
 51
128.25823548415858
  0
ARC
  8
_0-0_
  6
CONTINUOUS
 62
    7
 10
-24.226661908260997
 20
2.542770838504576
 40
0.3124691296715462
 50
132.48880965446287
 51
316.37684770433503
  0
LINE
  8
_0-0_
  6
CONTINUOUS
 62
    7
 10
-22.3984605308701
 20
4.3720433062917552
 11
-24.437717993981668
 21
2.7731884716795507
  0
LINE
  8
_0-0_
  6
CONTINUOUS
 62
    7
 10
-24.00046764937861
 20
2.3271946008383262
 11
-22.045081743215992
 21
3.8887074124153562
  0
ARC
  8
_0-0_
  6
CONTINUOUS
 62
    7
 10
-25.109108219631683
 20
1.6119709958002337
 40
0.2995689034091976
 50
304.08468093301661
 51
128.25823548415858
  0
ARC
  8
_0-0_
  6
CONTINUOUS
 62
    7
 10
-27.12280470551541
 20
0.0179283998725336
 40
0.3124691296715462
 50
132.48880965446287
 51
316.37684770433503
  0
LINE
  8
_0-0_
  6
CONTINUOUS
 62
    7
 10
-25.294603328124513
 20
1.8472008676597129
 11
-27.333860791236081
 21
0.2483460330475084
  0
LINE
  8
_0-0_
  6
CONTINUOUS
 62
    7
 10
-26.896610446633023
 20
-0.197647837793716
 11
-24.941224540470404
 21
1.3638649737833139
  0
ARC
  8
_0-0_
  6
CONTINUOUS
 62
    7
 10
-23.401126569968827
 20
0.9436303502799843
 40
0.2995689034091976
 50
304.08468093301661
 51
128.25823548415858
  0
ARC
  8
_0-0_
  6
CONTINUOUS
 62
    7
 10
-25.414823055852555
 20
-0.6504122456477157
 40
0.3124691296715462
 50
132.48880965446287
 51
316.37684770433503
  0
LINE
  8
_0-0_
  6
CONTINUOUS
 62
    7
 10
-23.586621678461658
 20
1.1788602221394635
 11
-25.625879141573225
 21
-0.4199946124727409
  0
LINE
  8
_0-0_
  6
CONTINUOUS
 62
    7
 10
-25.188628796970168
 20
-0.8659884833139655
 11
-23.233242890807549
 21
0.6955243282630645
  0
ARC
  8
_0-0_
  6
CONTINUOUS
 62
    7
 10
-21.767404992030439
 20
0.5723299916576243
 40
0.2995689034091976
 50
304.08468093301661
 51
128.25823548415858
  0
ARC
  8
_0-0_
  6
CONTINUOUS
 62
    7
 10
-23.781101477914167
 20
-1.0217126042700757
 40
0.3124691296715462
 50
132.48880965446287
 51
316.37684770433503
  0
LINE
  8
_0-0_
  6
CONTINUOUS
 62
    7
 10
-21.952900100523269
 20
0.8075598635171035
 11
-23.992157563634837
 21
-0.7912949710951009
  0
LINE
  8
_0-0_
  6
CONTINUOUS
 62
    7
 10
-23.554907219031779
 20
-1.2372888419363255
 11
-21.599521312869161
 21
0.3242239696407045
  0
ARC
  8
_0-0_
  6
CONTINUOUS
 62
    7
 10
-18.648481979602618
 20
-3.4005838456016209
 40
0.2995689034091976
 50
304.08468093301661
 51
128.25823548415858
  0
ARC
  8
_0-0_
  6
CONTINUOUS
 62
    7
 10
-20.662178465486353
 20
-4.9946264415293209
 40
0.3124691296715462
 50
132.48880965446287
 51
316.37684770433503
  0
LINE
  8
_0-0_
  6
CONTINUOUS
 62
    7
 10
-18.833977088095448
 20
-3.1653539737421417
 11
-20.873234551207023
 21
-4.7642088083543461
  0
LINE
  8
_0-0_
  6
CONTINUOUS
 62
    7
 10
-20.435984206603965
 20
-5.2102026791955707
 11
-18.480598300441354
 21
-3.6486898676185406
  0
ARC
  8
_0-0_
  6
CONTINUOUS
 62
    7
 10
-15.195388644414674
 20
-0.8014813352451044
 40
0.2995689034091976
 50
304.08468093301661
 51
128.25823548415858
  0
ARC
  8
_0-0_
  6
CONTINUOUS
 62
    7
 10
-17.209085130298401
 20
-2.3955239311728045
 40
0.3124691296715462
 50
132.48880965446287
 51
316.37684770433503
  0
LINE
  8
_0-0_
  6
CONTINUOUS
 62
    7
 10
-15.380883752907504
 20
-0.5662514633856252
 11
-17.420141216019086
 21
-2.1651062979978297
  0
LINE
  8
_0-0_
  6
CONTINUOUS
 62
    7
 10
-16.982890871416028
 20
-2.6111001688390543
 11
-15.027504965253396
 21
-1.0495873572620242
  0
ARC
  8
_0-0_
  6
CONTINUOUS
 62
    7
 10
-21.915925135479373
 20
-5.8140361766469555
 40
0.2995689034091976
 50
304.08468093301661
 51
128.25823548415858
  0
ARC
  8
_0-0_
  6
CONTINUOUS
 62
    7
 10
-23.929621621363101
 20
-7.4080787725746555
 40
0.3124691296715462
 50
132.48880965446287
 51
316.37684770433503
  0
LINE
  8
_0-0_
  6
CONTINUOUS
 62
    7
 10
-22.101420243972203
 20
-5.5788063047874763
 11
-24.140677707083771
 21
-7.1776611393996808
  0
LINE
  8
_0-0_
  6
CONTINUOUS
 62
    7
 10
-23.703427362480713
 20
-7.6236550102409053
 11
-21.748041456318095
 21
-6.0621421986638753
  0
ARC
  8
_0-0_
  6
CONTINUOUS
 62
    7
 10
-20.950544203061245
 20
-2.9178933793925532
 40
0.2995689034091976
 50
304.08468093301661
 51
128.25823548415858
  0
ARC
  8
_0-0_
  6
CONTINUOUS
 62
    7
 10
-22.964240688944972
 20
-4.5119359753202533
 40
0.3124691296715462
 50
132.48880965446287
 51
316.37684770433503
  0
LINE
  8
_0-0_
  6
CONTINUOUS
 62
    7
 10
-21.136039311554075
 20
-2.682663507533074
 11
-23.175296774665643
 21
-4.2815183421452785
  0
LINE
  8
_0-0_
  6
CONTINUOUS
 62
    7
 10
-22.738046430062585
 20
-4.727512212986503
 11
-20.782660523899967
 21
-3.165999401409473
  0
ARC
  8
_0-0_
  6
CONTINUOUS
 62
    7
 10
-27.92635043027882
 20
-0.6553961759658717
 40
0.2567733457793122
 50
304.08468093301661
 51
128.25823548415858
  0
ARC
  8
_0-0_
  6
CONTINUOUS
 62
    7
 10
-29.652375989607737
 20
-2.0217184010467593
 40
0.2678306825756111
 50
132.48880965446287
 51
316.37684770433503
  0
LINE
  8
_0-0_
  6
CONTINUOUS
 62
    7
 10
-28.085346237558387
 20
-0.45377057151489
 11
-29.833281205939745
 21
-1.8242175726110643
  0
LINE
  8
_0-0_
  6
CONTINUOUS
 62
    7
 10
-29.458495196279959
 20
-2.2064980333321129
 11
-27.782450133854883
 21
-0.8680584805518032
  0
ARC
  8
_0-0_
  6
CONTINUOUS
 62
    7
 10
-26.292628852340432
 20
-1.3608668573483547
 40
0.2567733457793122
 50
304.08468093301661
 51
128.25823548415858
  0
ARC
  8
_0-0_
  6
CONTINUOUS
 62
    7
 10
-28.018654411669349
 20
-2.7271890824292422
 40
0.2678306825756111
 50
132.48880965446287
 51
316.37684770433503
  0
LINE
  8
_0-0_
  6
CONTINUOUS
 62
    7
 10
-26.451624659619998
 20
-1.159241252897373
 11
-28.199559628001357
 21
-2.5296882539935472
  0
LINE
  8
_0-0_
  6
CONTINUOUS
 62
    7
 10
-27.82477361834157
 20
-2.9119687147145958
 11
-26.148728555916495
 21
-1.5735291619342862
  0
ARC
  8
_0-0_
  6
CONTINUOUS
 62
    7
 10
-24.547517166815343
 20
-1.7321672159707147
 40
0.2567733457793122
 50
304.08468093301661
 51
128.25823548415858
  0
ARC
  8
_0-0_
  6
CONTINUOUS
 62
    7
 10
-26.27354272614426
 20
-3.0984894410516022
 40
0.2678306825756111
 50
132.48880965446287
 51
316.37684770433503
  0
LINE
  8
_0-0_
  6
CONTINUOUS
 62
    7
 10
-24.70651297409491
 20
-1.530541611519733
 11
-26.454447942476268
 21
-2.9009886126159072
  0
LINE
  8
_0-0_
  6
CONTINUOUS
 62
    7
 10
-26.079661932816482
 20
-3.2832690733369558
 11
-24.403616870391406
 21
-1.9448295205566462
  0
ARC
  8
_0-0_
  6
CONTINUOUS
 62
    7
 10
-30.414062833048622
 20
-2.8831983277000282
 40
0.2567733457793122
 50
304.08468093301661
 51
128.25823548415858
  0
ARC
  8
_0-0_
  6
CONTINUOUS
 62
    7
 10
-32.140088392377535
 20
-4.2495205527809157
 40
0.2678306825756111
 50
132.48880965446287
 51
316.37684770433503
  0
LINE
  8
_0-0_
  6
CONTINUOUS
 62
    7
 10
-30.573058640328188
 20
-2.6815727232490465
 11
-32.320993608709543
 21
-4.0520197243452207
  0
LINE
  8
_0-0_
  6
CONTINUOUS
 62
    7
 10
-31.94620759904976
 20
-4.4343001850662693
 11
-30.270162536624685
 21
-3.0958606322859596
  0
ARC
  8
_0-0_
  6
CONTINUOUS
 62
    7
 10
-28.817471290972481
 20
-3.2173686504601511
 40
0.2567733457793122
 50
304.08468093301661
 51
128.25823548415858
  0
ARC
  8
_0-0_
  6
CONTINUOUS
 62
    7
 10
-30.543496850301398
 20
-4.5836908755410386
 40
0.2678306825756111
 50
132.48880965446287
 51
316.37684770433503
  0
LINE
  8
_0-0_
  6
CONTINUOUS
 62
    7
 10
-28.976467098252048
 20
-3.0157430460091694
 11
-30.724402066633406
 21
-4.3861900471053437
  0
LINE
  8
_0-0_
  6
CONTINUOUS
 62
    7
 10
-30.34961605697362
 20
-4.7684705078263923
 11
-28.673570994548545
 21
-3.4300309550460826
  0
ARC
  8
_0-0_
  6
CONTINUOUS
 62
    7
 10
-27.295139820620808
 20
-3.9599693677048711
 40
0.2567733457793122
 50
304.08468093301661
 51
128.25823548415858
  0
ARC
  8
_0-0_
  6
CONTINUOUS
 62
    7
 10
-29.021165379949725
 20
-5.3262915927857586
 40
0.2678306825756111
 50
132.48880965446287
 51
316.37684770433503
  0
LINE
  8
_0-0_
  6
CONTINUOUS
 62
    7
 10
-27.454135627900374
 20
-3.7583437632538894
 11
-29.202070596281732
 21
-5.1287907643500636
  0
LINE
  8
_0-0_
  6
CONTINUOUS
 62
    7
 10
-28.827284586621946
 20
-5.5110712250711122
 11
-27.151239524196871
 21
-4.1726316722908026
  0
ARC
  8
_0-0_
  6
CONTINUOUS
 62
    7
 10
-25.550028135095719
 20
-4.4426598339139423
 40
0.2567733457793122
 50
304.08468093301661
 51
128.25823548415858
  0
ARC
  8
_0-0_
  6
CONTINUOUS
 62
    7
 10
-27.276053694424636
 20
-5.8089820589948298
 40
0.2678306825756111
 50
132.48880965446287
 51
316.37684770433503
  0
LINE
  8
_0-0_
  6
CONTINUOUS
 62
    7
 10
-25.709023942375286
 20
-4.2410342294629606
 11
-27.456958910756644
 21
-5.6114812305591348
  0
LINE
  8
_0-0_
  6
CONTINUOUS
 62
    7
 10
-27.082172901096857
 20
-5.9937616912801834
 11
-25.406127838671782
 21
-4.6553221384998738
  0
ARC
  8
_0-0_
  6
CONTINUOUS
 62
    7
 10
-23.916306557157331
 20
-5.036740407709714
 40
0.2567733457793122
 50
304.08468093301661
 51
128.25823548415858
  0
ARC
  8
_0-0_
  6
CONTINUOUS
 62
    7
 10
-25.642332116486248
 20
-6.4030626327906015
 40
0.2678306825756111
 50
132.48880965446287
 51
316.37684770433503
  0
LINE
  8
_0-0_
  6
CONTINUOUS
 62
    7
 10
-24.075302364436897
 20
-4.8351148032587323
 11
-25.823237332818255
 21
-6.2055618043549066
  0
LINE
  8
_0-0_
  6
CONTINUOUS
 62
    7
 10
-25.448451323158469
 20
-6.5878422650759552
 11
-23.772406260733394
 21
-5.2494027122956455
  0
ARC
  8
_0-0_
  6
CONTINUOUS
 62
    7
 10
-29.894242330977324
 20
-6.0392513759900828
 40
0.2567733457793122
 50
304.08468093301661
 51
128.25823548415858
  0
ARC
  8
_0-0_
  6
CONTINUOUS
 62
    7
 10
-31.620267890306241
 20
-7.4055736010709703
 40
0.2678306825756111
 50
132.48880965446287
 51
316.37684770433503
  0
LINE
  8
_0-0_
  6
CONTINUOUS
 62
    7
 10
-30.053238138256891
 20
-5.8376257715391011
 11
-31.801173106638249
 21
-7.2080727726352753
  0
LINE
  8
_0-0_
  6
CONTINUOUS
 62
    7
 10
-31.426387096978463
 20
-7.5903532333563239
 11
-29.750342034553388
 21
-6.2519136805760143
  0
ARC
  8
_0-0_
  6
CONTINUOUS
 62
    7
 10
-28.223390717176702
 20
-6.5590718780613875
 40
0.2567733457793122
 50
304.08468093301661
 51
128.25823548415858
  0
ARC
  8
_0-0_
  6
CONTINUOUS
 62
    7
 10
-29.94941627650562
 20
-7.925394103142275
 40
0.2678306825756111
 50
132.48880965446287
 51
316.37684770433503
  0
LINE
  8
_0-0_
  6
CONTINUOUS
 62
    7
 10
-28.382386524456269
 20
-6.3574462736104058
 11
-30.130321492837627
 21
-7.7278932747065801
  0
LINE
  8
_0-0_
  6
CONTINUOUS
 62
    7
 10
-29.755535483177841
 20
-8.1101737354276295
 11
-28.079490420752766
 21
-6.771734182647319
  0
ARC
  8
_0-0_
  6
CONTINUOUS
 62
    7
 10
-26.738189282687262
 20
-7.3016725953061075
 40
0.2567733457793122
 50
304.08468093301661
 51
128.25823548415858
  0
ARC
  8
_0-0_
  6
CONTINUOUS
 62
    7
 10
-28.46421484201618
 20
-8.6679948203869941
 40
0.2678306825756111
 50
132.48880965446287
 51
316.37684770433503
  0
LINE
  8
_0-0_
  6
CONTINUOUS
 62
    7
 10
-26.897185089966829
 20
-7.1000469908551258
 11
-28.645120058348187
 21
-8.4704939919513009
  0
LINE
  8
_0-0_
  6
CONTINUOUS
 62
    7
 10
-28.270334048688401
 20
-8.8527744526723495
 11
-26.594288986263326
 21
-7.514334899892039
  0
ARC
  8
_0-0_
  6
CONTINUOUS
 62
    7
 10
-29.337291793043779
 20
-9.1953044242801418
 40
0.2567733457793122
 50
304.08468093301661
 51
128.25823548415858
  0
ARC
  8
_0-0_
  6
CONTINUOUS
 62
    7
 10
-31.063317352372696
 20
-10.561626649361028
 40
0.2678306825756111
 50
132.48880965446287
 51
316.37684770433503
  0
LINE
  8
_0-0_
  6
CONTINUOUS
 62
    7
 10
-29.496287600323345
 20
-8.9936788198291602
 11
-31.244222568704703
 21
-10.364125820925334
  0
LINE
  8
_0-0_
  6
CONTINUOUS
 62
    7
 10
-30.869436559044917
 20
-10.746406281646383
 11
-29.193391496619842
 21
-9.4079667288660715
  0
ARC
  8
_0-0_
  6
CONTINUOUS
 62
    7
 10
-27.666440179243171
 20
-9.7893849980759171
 40
0.2567733457793122
 50
304.08468093301661
 51
128.25823548415858
  0
ARC
  8
_0-0_
  6
CONTINUOUS
 62
    7
 10
-29.392465738572088
 20
-11.155707223156803
 40
0.2678306825756111
 50
132.48880965446287
 51
316.37684770433503
  0
LINE
  8
_0-0_
  6
CONTINUOUS
 62
    7
 10
-27.825435986522738
 20
-9.5877593936249355
 11
-29.573370954904096
 21
-10.95820639472111
  0
LINE
  8
_0-0_
  6
CONTINUOUS
 62
    7
 10
-29.19858494524431
 20
-11.340486855442158
 11
-27.522539882819235
 21
-10.002047302661847
  0
ARC
  8
_0-0_
  6
CONTINUOUS
 62
    7
 10
-24.881687489575473
 20
-7.710102989790701
 40
0.2567733457793122
 50
304.08468093301661
 51
128.25823548415858
  0
ARC
  8
_0-0_
  6
CONTINUOUS
 62
    7
 10
-26.60771304890439
 20
-9.0764252148715876
 40
0.2678306825756111
 50
132.48880965446287
 51
316.37684770433503
  0
LINE
  8
_0-0_
  6
CONTINUOUS
 62
    7
 10
-25.04068329685504
 20
-7.5084773853397193
 11
-26.788618265236398
 21
-8.8789243864358944
  0
LINE
  8
_0-0_
  6
CONTINUOUS
 62
    7
 10
-26.413832255576612
 20
-9.261204847156943
 11
-24.737787193151537
 21
-7.9227652943766325
  0
ARC
  8
_0-0_
  6
CONTINUOUS
 62
    7
 10
7.8577657112575316
 20
20.31887946062961
 40
0.4279555762988537
 50
48.084680933016614
 51
232.25823548415855
  0
ARC
  8
_0-0_
  6
CONTINUOUS
 62
    7
 10
10.76326569605455
 20
18.07852619234886
 40
0.4463844709593518
 50
236.48880965446284
 51
60.376847704335042
  0
LINE
  8
_0-0_
  6
CONTINUOUS
 62
    7
 10
7.595812552562311
 20
19.980461792747327
 11
10.516816901207537
 21
17.706340637239435
  0
LINE
  8
_0-0_
  6
CONTINUOUS
 62
    7
 10
10.983910493499739
 20
18.466566099154882
 11
8.1436535325766819
 21
20.637335311426327
  0
ARC
  8
_0-0_
  6
CONTINUOUS
 62
    7
 10
10.018718031970085
 20
16.389875241152243
 40
0.4279555762988537
 50
48.084680933016614
 51
232.25823548415855
  0
ARC
  8
_0-0_
  6
CONTINUOUS
 62
    7
 10
12.924218016767103
 20
14.149521972871501
 40
0.4463844709593518
 50
236.48880965446284
 51
60.376847704335042
  0
LINE
  8
_0-0_
  6
CONTINUOUS
 62
    7
 10
9.7567648732748644
 20
16.051457573269968
 11
12.677769221920091
 21
13.777336417762076
  0
LINE
  8
_0-0_
  6
CONTINUOUS
 62
    7
 10
13.144862814212292
 20
14.537561879677522
 11
10.304605853289235
 21
16.70833109194896
  0
ARC
  8
_0-0_
  6
CONTINUOUS
 62
    7
 10
4.9601250993929717
 20
12.264420810701008
 40
0.4279555762988537
 50
48.084680933016614
 51
232.25823548415855
  0
ARC
  8
_0-0_
  6
CONTINUOUS
 62
    7
 10
7.8656250841899897
 20
10.024067542420266
 40
0.4463844709593518
 50
236.48880965446284
 51
60.376847704335042
  0
LINE
  8
_0-0_
  6
CONTINUOUS
 62
    7
 10
4.6981719406977511
 20
11.926003142818733
 11
7.6191762893429775
 21
9.6518819873108406
  0
LINE
  8
_0-0_
  6
CONTINUOUS
 62
    7
 10
8.0862698816351788
 20
10.412107449226287
 11
5.246012920712122
 21
12.582876661497725
  0
ARC
  8
_0-0_
  6
CONTINUOUS
 62
    7
 10
13.320144932916936
 20
16.633175774790164
 40
0.4279555762988537
 50
50.084680933016614
 51
234.25823548415855
  0
ARC
  8
_0-0_
  6
CONTINUOUS
 62
    7
 10
16.302062167126
 20
14.495587756326675
 40
0.4463844709593518
 50
238.48880965446287
 51
62.376847704335042
  0
LINE
  8
_0-0_
  6
CONTINUOUS
 62
    7
 10
13.07016195529258
 20
16.285822228409327
 11
16.068752590779244
 21
14.115027987698209
  0
LINE
  8
_0-0_
  6
CONTINUOUS
 62
    7
 10
16.509030156274182
 20
14.891091672086823
 11
13.59474465018501
 21
16.961414971964381
  0
ARC
  8
_0-0_
  6
CONTINUOUS
 62
    7
 10
18.427850418237515
 20
13.244409635490936
 40
0.4279555762988537
 50
50.084680933016614
 51
234.25823548415855
  0
ARC
  8
_0-0_
  6
CONTINUOUS
 62
    7
 10
21.409767652446593
 20
11.106821617027446
 40
0.4463844709593518
 50
238.48880965446287
 51
62.376847704335042
  0
LINE
  8
_0-0_
  6
CONTINUOUS
 62
    7
 10
18.177867440613145
 20
12.897056089110098
 11
21.176458076099809
 21
10.72626184839898
  0
LINE
  8
_0-0_
  6
CONTINUOUS
 62
    7
 10
21.616735641594776
 20
11.502325532787591
 11
18.70245013550559
 21
13.572648832665148
  0
ARC
  8
_0-0_
  6
CONTINUOUS
 62
    7
 10
23.093542928866871
 20
10.199431365395977
 40
0.4279555762988537
 50
50.084680933016614
 51
234.25823548415855
  0
ARC
  8
_0-0_
  6
CONTINUOUS
 62
    7
 10
26.075460163075949
 20
8.0618433469324877
 40
0.4463844709593518
 50
238.48880965446287
 51
62.376847704335042
  0
LINE
  8
_0-0_
  6
CONTINUOUS
 62
    7
 10
22.843559951242529
 20
9.8520778190151397
 11
25.842150586729193
 21
7.6812835783040221
  0
LINE
  8
_0-0_
  6
CONTINUOUS
 62
    7
 10
26.282428152224131
 20
8.4573472626926325
 11
23.368142646134945
 21
10.52767056257019
  0
ARC
  8
_0-0_
  6
CONTINUOUS
 62
    7
 10
15.039084278938294
 20
13.097071977260537
 40
0.4279555762988537
 50
50.084680933016614
 51
234.25823548415855
  0
ARC
  8
_0-0_
  6
CONTINUOUS
 62
    7
 10
18.021001513147358
 20
10.959483958797048
 40
0.4463844709593518
 50
238.48880965446287
 51
62.376847704335042
  0
LINE
  8
_0-0_
  6
CONTINUOUS
 62
    7
 10
14.789101301313938
 20
12.749718430879696
 11
17.787691936800602
 21
10.578924190168578
  0
LINE
  8
_0-0_
  6
CONTINUOUS
 62
    7
 10
18.22796950229554
 20
11.354987874557192
 11
15.313683996206368
 21
13.425311174434746
  0
ARC
  8
_0-0_
  6
CONTINUOUS
 62
    7
 10
20.097677211515393
 20
9.6591932852178424
 40
0.4279555762988537
 50
50.084680933016614
 51
234.25823548415855
  0
ARC
  8
_0-0_
  6
CONTINUOUS
 62
    7
 10
23.079594445724471
 20
7.5216052667543494
 40
0.4463844709593518
 50
238.48880965446287
 51
62.376847704335042
  0
LINE
  8
_0-0_
  6
CONTINUOUS
 62
    7
 10
19.847694233891023
 20
9.3118397388369978
 11
22.846284869377687
 21
7.1410454981258837
  0
LINE
  8
_0-0_
  6
CONTINUOUS
 62
    7
 10
23.286562434872653
 20
7.9171091825144977
 11
20.372276928783467
 21
9.9874324823920482
  0
ARC
  8
_0-0_
  6
CONTINUOUS
 62
    7
 10
11.846768350612923
 20
12.802396660799733
 40
0.4279555762988537
 50
50.084680933016614
 51
234.25823548415855
  0
ARC
  8
_0-0_
  6
CONTINUOUS
 62
    7
 10
14.828685584822001
 20
10.664808642336244
 40
0.4463844709593518
 50
238.48880965446287
 51
62.376847704335042
  0
LINE
  8
_0-0_
  6
CONTINUOUS
 62
    7
 10
11.596785372988567
 20
12.455043114418896
 11
14.595376008475231
 21
10.284248873707778
  0
LINE
  8
_0-0_
  6
CONTINUOUS
 62
    7
 10
15.035653573970183
 20
11.060312558096388
 11
12.121368067880997
 21
13.130635857973946
  0
ARC
  8
_0-0_
  6
CONTINUOUS
 62
    7
 10
8.0651017893659578
 20
12.605946449825865
 40
0.4279555762988537
 50
50.084680933016614
 51
234.25823548415855
  0
ARC
  8
_0-0_
  6
CONTINUOUS
 62
    7
 10
11.047019023575036
 20
10.468358431362375
 40
0.4463844709593518
 50
238.48880965446287
 51
62.376847704335042
  0
LINE
  8
_0-0_
  6
CONTINUOUS
 62
    7
 10
7.8151188117416019
 20
12.258592903445024
 11
10.813709447228266
 21
10.087798662733906
  0
LINE
  8
_0-0_
  6
CONTINUOUS
 62
    7
 10
11.253987012723218
 20
10.863862347122524
 11
8.3397015066340323
 21
12.934185647000074
  0
ARC
  8
_0-0_
  6
CONTINUOUS
 62
    7
 10
7.1810758399835528
 20
8.1858167029138293
 40
0.4279555762988537
 50
50.084680933016614
 51
234.25823548415855
  0
ARC
  8
_0-0_
  6
CONTINUOUS
 62
    7
 10
10.162993074192631
 20
6.0482286844503399
 40
0.4463844709593518
 50
238.48880965446287
 51
62.376847704335042
  0
LINE
  8
_0-0_
  6
CONTINUOUS
 62
    7
 10
6.931092862359197
 20
7.8384631565329883
 11
9.9296834978458612
 21
5.6676689158218707
  0
LINE
  8
_0-0_
  6
CONTINUOUS
 62
    7
 10
10.369961063340813
 20
6.4437326002104847
 11
7.4556755572516273
 21
8.5140559000880387
  0
ARC
  8
_0-0_
  6
CONTINUOUS
 62
    7
 10
10.471616873795842
 20
8.7260547830919641
 40
0.4279555762988537
 50
50.084680933016614
 51
234.25823548415855
  0
ARC
  8
_0-0_
  6
CONTINUOUS
 62
    7
 10
13.45353410800492
 20
6.5884667646284747
 40
0.4463844709593518
 50
238.48880965446287
 51
62.376847704335042
  0
LINE
  8
_0-0_
  6
CONTINUOUS
 62
    7
 10
10.221633896171486
 20
8.3787012367111267
 11
13.22022453165815
 21
6.2079069960000091
  0
LINE
  8
_0-0_
  6
CONTINUOUS
 62
    7
 10
13.660502097153103
 20
6.983970680388623
 11
10.746216591063916
 21
9.054293980266177
  0
ARC
  8
_0-0_
  6
CONTINUOUS
 62
    7
 10
13.909495565838544
 20
9.266292863270106
 40
0.4279555762988537
 50
50.084680933016614
 51
234.25823548415855
  0
ARC
  8
_0-0_
  6
CONTINUOUS
 62
    7
 10
16.891412800047622
 20
7.128704844806613
 40
0.4463844709593518
 50
238.48880965446287
 51
62.376847704335042
  0
LINE
  8
_0-0_
  6
CONTINUOUS
 62
    7
 10
13.659512588214188
 20
8.918939316889265
 11
16.658103223700838
 21
6.7481450761781474
  0
LINE
  8
_0-0_
  6
CONTINUOUS
 62
    7
 10
17.098380789195804
 20
7.5242087605667614
 11
14.184095283106618
 21
9.5945320604443118
  0
ARC
  8
_0-0_
  6
CONTINUOUS
 62
    7
 10
16.659798519472677
 20
9.560968179730903
 40
0.4279555762988537
 50
50.084680933016614
 51
234.25823548415855
  0
ARC
  8
_0-0_
  6
CONTINUOUS
 62
    7
 10
19.641715753681755
 20
7.4233801612674171
 40
0.4463844709593518
 50
238.48880965446287
 51
62.376847704335042
  0
LINE
  8
_0-0_
  6
CONTINUOUS
 62
    7
 10
16.409815541848335
 20
9.2136146333500655
 11
19.408406177334999
 21
7.0428203926389479
  0
LINE
  8
_0-0_
  6
CONTINUOUS
 62
    7
 10
19.848683742829937
 20
7.8188840770275618
 11
16.934398236740751
 21
9.8892073769051159
  0
ARC
  8
_0-0_
  6
CONTINUOUS
 62
    7
 10
15.481097253629489
 20
5.4355137492796715
 40
0.4279555762988537
 50
50.084680933016614
 51
234.25823548415855
  0
ARC
  8
_0-0_
  6
CONTINUOUS
 62
    7
 10
18.463014487838567
 20
3.2979257308161829
 40
0.4463844709593518
 50
238.48880965446287
 51
62.376847704335042
  0
LINE
  8
_0-0_
  6
CONTINUOUS
 62
    7
 10
15.231114276005133
 20
5.088160202898834
 11
18.229704911491783
 21
2.9173659621877155
  0
LINE
  8
_0-0_
  6
CONTINUOUS
 62
    7
 10
18.66998247698675
 20
3.6934296465763294
 11
15.755696970897564
 21
5.7637529464538844
  0
ARC
  8
_0-0_
  6
CONTINUOUS
 62
    7
 10
12.681681747251861
 20
4.6497129053841979
 40
0.4279555762988537
 50
50.084680933016614
 51
234.25823548415855
  0
ARC
  8
_0-0_
  6
CONTINUOUS
 62
    7
 10
15.663598981460925
 20
2.5121248869207085
 40
0.4463844709593518
 50
238.48880965446287
 51
62.376847704335042
  0
LINE
  8
_0-0_
  6
CONTINUOUS
 62
    7
 10
12.431698769627506
 20
4.3023593590033586
 11
15.43028940511417
 21
2.131565118292241
  0
LINE
  8
_0-0_
  6
CONTINUOUS
 62
    7
 10
15.870566970609108
 20
2.907628802680855
 11
12.956281464519936
 21
4.9779521025584081
  0
ARC
  8
_0-0_
  6
CONTINUOUS
 62
    7
 10
18.968088498415629
 20
5.6810765129970058
 40
0.4279555762988537
 50
50.084680933016614
 51
234.25823548415855
  0
ARC
  8
_0-0_
  6
CONTINUOUS
 62
    7
 10
21.950005732624707
 20
3.5434884945335172
 40
0.4463844709593518
 50
238.48880965446287
 51
62.376847704335042
  0
LINE
  8
_0-0_
  6
CONTINUOUS
 62
    7
 10
18.718105520791287
 20
5.3337229666161683
 11
21.716696156277951
 21
3.1629287259050498
  0
LINE
  8
_0-0_
  6
CONTINUOUS
 62
    7
 10
22.156973721772889
 20
3.9389924102936638
 11
19.242688215683703
 21
6.0093157101712187
  0
ARC
  8
_0-0_
  6
CONTINUOUS
 62
    7
 10
21.963954215767135
 20
6.2704271459186103
 40
0.4279555762988537
 50
50.084680933016614
 51
234.25823548415855
  0
ARC
  8
_0-0_
  6
CONTINUOUS
 62
    7
 10
24.945871449976213
 20
4.1328391274551217
 40
0.4463844709593518
 50
238.48880965446287
 51
62.376847704335042
  0
LINE
  8
_0-0_
  6
CONTINUOUS
 62
    7
 10
21.713971238142793
 20
5.9230735995377728
 11
24.712561873629458
 21
3.7522793588266543
  0
LINE
  8
_0-0_
  6
CONTINUOUS
 62
    7
 10
25.152839439124396
 20
4.5283430432152683
 11
22.23855393303521
 21
6.5986663430928232
  0
ARC
  8
_0-0_
  6
CONTINUOUS
 62
    7
 10
25.058045038605574
 20
6.6142150151228805
 40
0.4279555762988537
 50
50.084680933016614
 51
234.25823548415855
  0
ARC
  8
_0-0_
  6
CONTINUOUS
 62
    7
 10
28.039962272814652
 20
4.4766269966593919
 40
0.4463844709593518
 50
238.48880965446287
 51
62.376847704335042
  0
LINE
  8
_0-0_
  6
CONTINUOUS
 62
    7
 10
24.808062060981204
 20
6.266861468742043
 11
27.806652696467868
 21
4.0960672280309245
  0
LINE
  8
_0-0_
  6
CONTINUOUS
 62
    7
 10
28.246930261962834
 20
4.8721309124195393
 11
25.332644755873648
 21
6.9424542122970934
  0
ARC
  8
_0-0_
  6
CONTINUOUS
 62
    7
 10
27.464560123035458
 20
7.0562279898140865
 40
0.4279555762988537
 50
50.084680933016614
 51
234.25823548415855
  0
ARC
  8
_0-0_
  6
CONTINUOUS
 62
    7
 10
30.446477357244536
 20
4.9186399713505971
 40
0.4463844709593518
 50
238.48880965446287
 51
62.376847704335042
  0
LINE
  8
_0-0_
  6
CONTINUOUS
 62
    7
 10
27.214577145411088
 20
6.7088744434332455
 11
30.213167780897752
 21
4.5380802027221288
  0
LINE
  8
_0-0_
  6
CONTINUOUS
 62
    7
 10
30.653445346392719
 20
5.3141438871107418
 11
27.739159840303532
 21
7.3844671869882959
  0
ARC
  8
_0-0_
  6
CONTINUOUS
 62
    7
 10
20.883478055410851
 20
2.194085268210844
 40
0.4279555762988537
 50
50.084680933016614
 51
234.25823548415855
  0
ARC
  8
_0-0_
  6
CONTINUOUS
 62
    7
 10
23.865395289619929
 20
0.0564972497473545
 40
0.4463844709593518
 50
238.48880965446287
 51
62.376847704335042
  0
LINE
  8
_0-0_
  6
CONTINUOUS
 62
    7
 10
20.63349507778651
 20
1.8467317218300048
 11
23.632085713273174
 21
-0.3240625188811128
  0
LINE
  8
_0-0_
  6
CONTINUOUS
 62
    7
 10
24.072363278768112
 20
0.4520011655075011
 11
21.158077772678926
 21
2.5223244653850552
  0
ARC
  8
_0-0_
  6
CONTINUOUS
 62
    7
 10
17.936724890802825
 20
1.7029597407761736
 40
0.4279555762988537
 50
50.084680933016614
 51
234.25823548415855
  0
ARC
  8
_0-0_
  6
CONTINUOUS
 62
    7
 10
20.918642125011903
 20
-0.4346282776873158
 40
0.4463844709593518
 50
238.48880965446287
 51
62.376847704335042
  0
LINE
  8
_0-0_
  6
CONTINUOUS
 62
    7
 10
17.686741913178484
 20
1.3556061943953344
 11
20.685332548665148
 21
-0.8151880463157832
  0
LINE
  8
_0-0_
  6
CONTINUOUS
 62
    7
 10
21.125610114160086
 20
-0.0391243619271692
 11
18.2113246080709
 21
2.0311989379503848
  0
ARC
  8
_0-0_
  6
CONTINUOUS
 62
    7
 10
23.92845632550581
 20
2.5378731374151142
 40
0.4279555762988537
 50
50.084680933016614
 51
234.25823548415855
  0
ARC
  8
_0-0_
  6
CONTINUOUS
 62
    7
 10
26.910373559714888
 20
0.4002851189516247
 40
0.4463844709593518
 50
238.48880965446287
 51
62.376847704335042
  0
LINE
  8
_0-0_
  6
CONTINUOUS
 62
    7
 10
23.678473347881468
 20
2.190519591034275
 11
26.677063983368132
 21
0.0197253503231573
  0
LINE
  8
_0-0_
  6
CONTINUOUS
 62
    7
 10
27.11734154886307
 20
0.7957890347117713
 11
24.203056042773884
 21
2.8661123345893254
  0
ARC
  8
_0-0_
  6
CONTINUOUS
 62
    7
 10
26.384083962679174
 20
3.3236739813105869
 40
0.4279555762988537
 50
50.084680933016614
 51
234.25823548415855
  0
ARC
  8
_0-0_
  6
CONTINUOUS
 62
    7
 10
29.366001196888252
 20
1.1860859628470974
 40
0.4463844709593518
 50
238.48880965446287
 51
62.376847704335042
  0
LINE
  8
_0-0_
  6
CONTINUOUS
 62
    7
 10
26.134100985054832
 20
2.9763204349297476
 11
29.132691620541497
 21
0.80552619421863
  0
LINE
  8
_0-0_
  6
CONTINUOUS
 62
    7
 10
29.572969186036435
 20
1.581589878607244
 11
26.658683679947249
 21
3.651913178484798
  0
ARC
  8
_0-0_
  6
CONTINUOUS
 62
    7
 10
29.478174785517599
 20
3.716574403258325
 40
0.4279555762988537
 50
50.084680933016614
 51
234.25823548415855
  0
ARC
  8
_0-0_
  6
CONTINUOUS
 62
    7
 10
32.460092019726673
 20
1.5789863847948356
 40
0.4463844709593518
 50
238.48880965446287
 51
62.376847704335042
  0
LINE
  8
_0-0_
  6
CONTINUOUS
 62
    7
 10
29.228191807893243
 20
3.3692208568774857
 11
32.226782443379903
 21
1.1984266161663681
  0
LINE
  8
_0-0_
  6
CONTINUOUS
 62
    7
 10
32.667060008874856
 20
1.9744903005549821
 11
29.752774502785673
 21
4.0448136004325361
  0
ARC
  8
_0-0_
  6
CONTINUOUS
 62
    7
 10
22.811569720268384
 20
-1.2964710026134894
 40
0.4279555762988537
 50
52.084680933016614
 51
236.25823548415855
  0
ARC
  8
_0-0_
  6
CONTINUOUS
 62
    7
 10
25.866271197068759
 20
-3.3286894495294144
 40
0.4463844709593518
 50
240.48880965446287
 51
64.376847704335049
  0
LINE
  8
_0-0_
  6
CONTINUOUS
 62
    7
 10
22.5738614894662
 20
-1.6523372307023338
 11
25.646385091002433
 21
-3.7171597782195915
  0
LINE
  8
_0-0_
  6
CONTINUOUS
 62
    7
 10
26.059310219306159
 20
-2.9262033854137934
 11
23.074546776028715
 21
-0.9588483679621662
  0
ARC
  8
_0-0_
  6
CONTINUOUS
 62
    7
 10
25.610985226645997
 20
-0.7071203696918884
 40
0.4279555762988537
 50
52.084680933016614
 51
236.25823548415855
  0
ARC
  8
_0-0_
  6
CONTINUOUS
 62
    7
 10
28.665686703446372
 20
-2.7393388166078134
 40
0.4463844709593518
 50
240.48880965446287
 51
64.376847704335049
  0
LINE
  8
_0-0_
  6
CONTINUOUS
 62
    7
 10
25.373276995843842
 20
-1.0629865977807329
 11
28.445800597380074
 21
-3.1278091452979906
  0
LINE
  8
_0-0_
  6
CONTINUOUS
 62
    7
 10
28.858725725683772
 20
-2.3368527524921925
 11
25.873962282406357
 21
-0.3694977350405652
  0
ARC
  8
_0-0_
  6
CONTINUOUS
 62
    7
 10
28.263063074793227
 20
-0.019544631283348
 40
0.4279555762988537
 50
52.084680933016614
 51
236.25823548415855
  0
ARC
  8
_0-0_
  6
CONTINUOUS
 62
    7
 10
31.317764551593601
 20
-2.0517630781992731
 40
0.4463844709593518
 50
240.48880965446287
 51
64.376847704335049
  0
LINE
  8
_0-0_
  6
CONTINUOUS
 62
    7
 10
28.025354843991042
 20
-0.3754108593721925
 11
31.097878445527275
 21
-2.4402334068894502
  0
LINE
  8
_0-0_
  6
CONTINUOUS
 62
    7
 10
31.510803573831002
 20
-1.6492770140836521
 11
28.526040130553557
 21
0.318078003367975
  0
ARC
  8
_0-0_
  6
CONTINUOUS
 62
    7
 10
31.755432006953118
 20
4.2006962395708038
 40
0.3851600186689683
 50
52.084680933016614
 51
236.25823548415855
  0
ARC
  8
_0-0_
  6
CONTINUOUS
 62
    7
 10
34.504663336073449
 20
2.3716996373464729
 40
0.4017460238634166
 50
240.48880965446287
 51
64.376847704335049
  0
LINE
  8
_0-0_
  6
CONTINUOUS
 62
    7
 10
31.541494599231161
 20
3.880416634290845
 11
34.306765840613778
 21
2.0220763415253122
  0
LINE
  8
_0-0_
  6
CONTINUOUS
 62
    7
 10
34.678398456087109
 20
2.7339370950505417
 11
31.992111357137421
 21
4.5045566107569952
  0
ARC
  8
_0-0_
  6
CONTINUOUS
 62
    7
 10
35.537098568200079
 20
1.4995058386801139
 40
0.3851600186689683
 50
52.084680933016614
 51
236.25823548415855
  0
ARC
  8
_0-0_
  6
CONTINUOUS
 62
    7
 10
38.286329897320414
 20
-0.329490763544217
 40
0.4017460238634166
 50
240.48880965446287
 51
64.376847704335049
  0
LINE
  8
_0-0_
  6
CONTINUOUS
 62
    7
 10
35.323161160478122
 20
1.1792262334001551
 11
38.088432401860743
 21
-0.6791140593653777
  0
LINE
  8
_0-0_
  6
CONTINUOUS
 62
    7
 10
38.460065017334074
 20
0.0327466941598517
 11
35.773777918384383
 21
1.8033662098663052
  0
ARC
  8
_0-0_
  6
CONTINUOUS
 62
    7
 10
33.376146247487526
 20
0.8610426530150414
 40
0.3851600186689683
 50
52.084680933016614
 51
236.25823548415855
  0
ARC
  8
_0-0_
  6
CONTINUOUS
 62
    7
 10
36.12537757660786
 20
-0.9679539492092894
 40
0.4017460238634166
 50
240.48880965446287
 51
64.376847704335049
  0
LINE
  8
_0-0_
  6
CONTINUOUS
 62
    7
 10
33.162208839765569
 20
0.5407630477350826
 11
35.92748008114819
 21
-1.3175772450304502
  0
LINE
  8
_0-0_
  6
CONTINUOUS
 62
    7
 10
36.299112696621521
 20
-0.6057164915052206
 11
33.612825597671829
 21
1.1649030242012328
  0
ARC
  8
_0-0_
  6
CONTINUOUS
 62
    7
 10
30.7240683993403
 20
0.4190296783238389
 40
0.3851600186689683
 50
52.084680933016614
 51
236.25823548415855
  0
ARC
  8
_0-0_
  6
CONTINUOUS
 62
    7
 10
33.473299728460631
 20
-1.4099669239004919
 40
0.4017460238634166
 50
240.48880965446287
 51
64.376847704335049
  0
LINE
  8
_0-0_
  6
CONTINUOUS
 62
    7
 10
30.510130991618357
 20
0.0987500730438801
 11
33.27540223300096
 21
-1.7595902197216526
  0
LINE
  8
_0-0_
  6
CONTINUOUS
 62
    7
 10
33.647034848474306
 20
-1.0477294661964232
 11
30.960747749524618
 21
0.7228900495100303
  0
ARC
  8
_0-0_
  6
CONTINUOUS
 62
    7
 10
32.639457956335519
 20
-2.9206239082319234
 40
0.3851600186689683
 50
52.084680933016614
 51
236.25823548415855
  0
ARC
  8
_0-0_
  6
CONTINUOUS
 62
    7
 10
35.388689285455854
 20
-4.7496205104562543
 40
0.4017460238634166
 50
240.48880965446287
 51
64.376847704335049
  0
LINE
  8
_0-0_
  6
CONTINUOUS
 62
    7
 10
32.425520548613562
 20
-3.2409035135118822
 11
35.190791789996183
 21
-5.099243806277415
  0
LINE
  8
_0-0_
  6
CONTINUOUS
 62
    7
 10
35.562424405469514
 20
-4.3873830527521855
 11
32.876137306519823
 21
-2.6167635370457321
  0
ARC
  8
_0-0_
  6
CONTINUOUS
 62
    7
 10
29.938267555444842
 20
-3.26441177743619
 40
0.3851600186689683
 50
52.084680933016614
 51
236.25823548415855
  0
ARC
  8
_0-0_
  6
CONTINUOUS
 62
    7
 10
32.687498884565173
 20
-5.093408379660521
 40
0.4017460238634166
 50
240.48880965446287
 51
64.376847704335049
  0
LINE
  8
_0-0_
  6
CONTINUOUS
 62
    7
 10
29.724330147722871
 20
-3.5846913827161488
 11
32.489601389105502
 21
-5.4430316754816817
  0
LINE
  8
_0-0_
  6
CONTINUOUS
 62
    7
 10
32.861234004578819
 20
-4.7311709219564522
 11
30.174946905629131
 21
-2.9605514062499987
  0
ARC
  8
_0-0_
  6
CONTINUOUS
 62
    7
 10
27.384414812784545
 20
-4.1975502795620683
 40
0.3851600186689683
 50
52.084680933016614
 51
236.25823548415855
  0
ARC
  8
_0-0_
  6
CONTINUOUS
 62
    7
 10
30.13364614190488
 20
-6.0265468817863992
 40
0.4017460238634166
 50
240.48880965446287
 51
64.376847704335049
  0
LINE
  8
_0-0_
  6
CONTINUOUS
 62
    7
 10
27.170477405062602
 20
-4.5178298848420271
 11
29.935748646445209
 21
-6.3761701776075599
  0
LINE
  8
_0-0_
  6
CONTINUOUS
 62
    7
 10
30.307381261918554
 20
-5.6643094240823304
 11
27.621094162968863
 21
-3.8936899083758769
  0
ARC
  8
_0-0_
  6
CONTINUOUS
 62
    7
 10
31.460756690492307
 20
-6.6531779167354186
 40
0.3851600186689683
 50
52.084680933016614
 51
236.25823548415855
  0
ARC
  8
_0-0_
  6
CONTINUOUS
 62
    7
 10
34.209988019612638
 20
-8.4821745189597486
 40
0.4017460238634166
 50
240.48880965446287
 51
64.376847704335049
  0
LINE
  8
_0-0_
  6
CONTINUOUS
 62
    7
 10
31.246819282770364
 20
-6.9734575220153774
 11
34.012090524152967
 21
-8.8317978147809093
  0
LINE
  8
_0-0_
  6
CONTINUOUS
 62
    7
 10
34.383723139626312
 20
-8.1199370612556798
 11
31.697436040676624
 21
-6.3493175455492272
  0
ARC
  8
_0-0_
  6
CONTINUOUS
 62
    7
 10
33.867271774922187
 20
-5.8182645200964798
 40
0.3851600186689683
 50
52.084680933016614
 51
236.25823548415855
  0
ARC
  8
_0-0_
  6
CONTINUOUS
 62
    7
 10
36.616503104042522
 20
-7.6472611223208107
 40
0.4017460238634166
 50
240.48880965446287
 51
64.376847704335049
  0
LINE
  8
_0-0_
  6
CONTINUOUS
 62
    7
 10
33.653334367200245
 20
-6.1385441253764386
 11
36.418605608582851
 21
-7.9968844181419714
  0
LINE
  8
_0-0_
  6
CONTINUOUS
 62
    7
 10
36.790238224056196
 20
-7.2850236646167419
 11
34.103951125106505
 21
-5.5144041489102884
  0
ARC
  8
_0-0_
  6
CONTINUOUS
 62
    7
 10
36.22467430660862
 20
-5.2289138871748788
 40
0.3851600186689683
 50
52.084680933016614
 51
236.25823548415855
  0
ARC
  8
_0-0_
  6
CONTINUOUS
 62
    7
 10
38.973905635728954
 20
-7.0579104893992097
 40
0.4017460238634166
 50
240.48880965446287
 51
64.376847704335049
  0
LINE
  8
_0-0_
  6
CONTINUOUS
 62
    7
 10
36.010736898886663
 20
-5.5491934924548376
 11
38.776008140269283
 21
-7.4075337852203704
  0
LINE
  8
_0-0_
  6
CONTINUOUS
 62
    7
 10
39.147640755742614
 20
-6.6956730316951409
 11
36.461353656792923
 21
-4.9250535159886875
  0
ARC
  8
_0-0_
  6
CONTINUOUS
 62
    7
 10
34.751297724304607
 20
-2.0365979588495149
 40
0.3851600186689683
 50
52.084680933016614
 51
236.25823548415855
  0
ARC
  8
_0-0_
  6
CONTINUOUS
 62
    7
 10
37.500529053424941
 20
-3.8655945610738458
 40
0.4017460238634166
 50
240.48880965446287
 51
64.376847704335049
  0
LINE
  8
_0-0_
  6
CONTINUOUS
 62
    7
 10
34.537360316582649
 20
-2.3568775641294737
 11
37.30263155796527
 21
-4.2152178568950065
  0
LINE
  8
_0-0_
  6
CONTINUOUS
 62
    7
 10
37.674264173438601
 20
-3.503357103369777
 11
34.98797707448891
 21
-1.7327375876633235
  0
ARC
  8
_0-0_
  6
CONTINUOUS
 62
    7
 10
39.36787768219051
 20
-1.1034594567236402
 40
0.3851600186689683
 50
52.084680933016614
 51
236.25823548415855
  0
ARC
  8
_0-0_
  6
CONTINUOUS
 62
    7
 10
42.117109011310845
 20
-2.9324560589479711
 40
0.4017460238634166
 50
240.48880965446287
 51
64.376847704335049
  0
LINE
  8
_0-0_
  6
CONTINUOUS
 62
    7
 10
39.153940274468567
 20
-1.423739062003599
 11
41.919211515851174
 21
-3.2820793547691318
  0
LINE
  8
_0-0_
  6
CONTINUOUS
 62
    7
 10
42.290844131324519
 20
-2.5702186012439023
 11
39.604557032374828
 21
-0.7995990855374488
  0
ARC
  8
_0-0_
  6
CONTINUOUS
 62
    7
 10
35.689813913804215
 20
-8.8666814552754438
 40
0.342364461039083
 50
52.084680933016614
 51
236.25823548415855
  0
ARC
  8
_0-0_
  6
CONTINUOUS
 62
    7
 10
38.133575095244524
 20
-10.492456212808193
 40
0.3571075767674814
 50
240.48880965446287
 51
64.376847704335049
  0
LINE
  8
_0-0_
  6
CONTINUOUS
 62
    7
 10
35.499647329162471
 20
-9.1513744377465258
 11
37.957666210391466
 21
-10.803232475760325
  0
LINE
  8
_0-0_
  6
CONTINUOUS
 62
    7
 10
38.28800631303443
 20
-10.170467361515691
 11
35.900195558412477
 21
-8.596583347554386
  0
ARC
  8
_0-0_
  6
CONTINUOUS
 62
    7
 10
37.899878787260235
 20
-8.326443375097309
 40
0.342364461039083
 50
52.084680933016614
 51
236.25823548415855
  0
ARC
  8
_0-0_
  6
CONTINUOUS
 62
    7
 10
40.343639968700543
 20
-9.9522181326300583
 40
0.3571075767674814
 50
240.48880965446287
 51
64.376847704335049
  0
LINE
  8
_0-0_
  6
CONTINUOUS
 62
    7
 10
37.709712202618491
 20
-8.611136357568391
 11
40.167731083847485
 21
-10.26299439558219
  0
LINE
  8
_0-0_
  6
CONTINUOUS
 62
    7
 10
40.498071186490449
 20
-9.6302292813375558
 11
38.110260431868497
 21
-8.0563452673762512
  0
ARC
  8
_0-0_
  6
CONTINUOUS
 62
    7
 10
39.225917711333835
 20
-11.174971434218396
 40
0.342364461039083
 50
52.084680933016614
 51
236.25823548415855
  0
ARC
  8
_0-0_
  6
CONTINUOUS
 62
    7
 10
41.669678892774158
 20
-12.800746191751145
 40
0.3571075767674814
 50
240.48880965446287
 51
64.376847704335049
  0
LINE
  8
_0-0_
  6
CONTINUOUS
 62
    7
 10
39.035751126692105
 20
-11.459664416689478
 11
41.493770007921086
 21
-13.111522454703277
  0
LINE
  8
_0-0_
  6
CONTINUOUS
 62
    7
 10
41.82411011056405
 20
-12.478757340458642
 11
39.436299355942111
 21
-10.904873326497338
  0
ARC
  8
_0-0_
  6
CONTINUOUS
 62
    7
 10
41.23953237381599
 20
-10.438283143066389
 40
0.342364461039083
 50
52.084680933016614
 51
236.25823548415855
  0
ARC
  8
_0-0_
  6
CONTINUOUS
 62
    7
 10
43.683293555256313
 20
-12.064057900599138
 40
0.3571075767674814
 50
240.48880965446287
 51
64.376847704335049
  0
LINE
  8
_0-0_
  6
CONTINUOUS
 62
    7
 10
41.04936578917426
 20
-10.722976125537471
 11
43.507384670403241
 21
-12.37483416355127
  0
LINE
  8
_0-0_
  6
CONTINUOUS
 62
    7
 10
43.837724773046205
 20
-11.742069049306636
 11
41.449914018424266
 21
-10.168185035345331
  0
ARC
  8
_0-0_
  6
CONTINUOUS
 62
    7
 10
40.208168766203187
 20
-7.5897550839453034
 40
0.342364461039083
 50
52.084680933016614
 51
236.25823548415855
  0
ARC
  8
_0-0_
  6
CONTINUOUS
 62
    7
 10
42.651929947643495
 20
-9.2155298414780518
 40
0.3571075767674814
 50
240.48880965446287
 51
64.376847704335049
  0
LINE
  8
_0-0_
  6
CONTINUOUS
 62
    7
 10
40.018002181561442
 20
-7.8744480664163854
 11
42.476021062790437
 21
-9.5263061044301836
  0
LINE
  8
_0-0_
  6
CONTINUOUS
 62
    7
 10
42.806361165433401
 20
-8.8935409901855493
 11
40.418550410811449
 21
-7.3196569762242438
  0
ARC
  8
_0-0_
  6
CONTINUOUS
 62
    7
 10
38.587454525668761
 20
-4.6430019193372738
 40
0.342364461039083
 50
52.084680933016614
 51
236.25823548415855
  0
ARC
  8
_0-0_
  6
CONTINUOUS
 62
    7
 10
41.031215707109084
 20
-6.2687766768700213
 40
0.3571075767674814
 50
240.48880965446287
 51
64.376847704335049
  0
LINE
  8
_0-0_
  6
CONTINUOUS
 62
    7
 10
38.397287941027031
 20
-4.9276949018083558
 11
40.855306822256011
 21
-6.5795529398221548
  0
LINE
  8
_0-0_
  6
CONTINUOUS
 62
    7
 10
41.185646924898975
 20
-5.9467878255775206
 11
38.797836170277037
 21
-4.3729038116162142
  0
ARC
  8
_0-0_
  6
CONTINUOUS
 62
    7
 10
37.163190496108228
 20
-1.6471362019857851
 40
0.342364461039083
 50
52.084680933016614
 51
236.25823548415855
  0
ARC
  8
_0-0_
  6
CONTINUOUS
 62
    7
 10
39.606951677548537
 20
-3.2729109595185326
 40
0.3571075767674814
 50
240.48880965446287
 51
64.376847704335049
  0
LINE
  8
_0-0_
  6
CONTINUOUS
 62
    7
 10
36.973023911466484
 20
-1.9318291844568671
 11
39.431042792695479
 21
-3.5836872224706662
  0
LINE
  8
_0-0_
  6
CONTINUOUS
 62
    7
 10
39.761382895338443
 20
-2.950922108226032
 11
37.37357214071649
 21
-1.3770380942647256
  0
ARC
  8
_0-0_
  6
CONTINUOUS
 62
    7
 10
40.748406846381329
 20
-4.1027638391591355
 40
0.342364461039083
 50
52.084680933016614
 51
236.25823548415855
  0
ARC
  8
_0-0_
  6
CONTINUOUS
 62
    7
 10
43.192168027821623
 20
-5.7285385966918829
 40
0.3571075767674814
 50
240.48880965446287
 51
64.376847704335049
  0
LINE
  8
_0-0_
  6
CONTINUOUS
 62
    7
 10
40.55824026173957
 20
-4.3874568216302174
 11
43.016259142968579
 21
-6.0393148596440165
  0
LINE
  8
_0-0_
  6
CONTINUOUS
 62
    7
 10
43.346599245611543
 20
-5.4065497453993823
 11
40.958788490989576
 21
-3.8326657314380759
  0
ARC
  8
_0-0_
  6
CONTINUOUS
 62
    7
 10
43.056696825324281
 20
-3.660750864467933
 40
0.342364461039083
 50
52.084680933016614
 51
236.25823548415855
  0
ARC
  8
_0-0_
  6
CONTINUOUS
 62
    7
 10
45.500458006764575
 20
-5.2865256220006804
 40
0.3571075767674814
 50
240.48880965446287
 51
64.376847704335049
  0
LINE
  8
_0-0_
  6
CONTINUOUS
 62
    7
 10
42.866530240682522
 20
-3.945443846939015
 11
45.324549121911531
 21
-5.597301884952814
  0
LINE
  8
_0-0_
  6
CONTINUOUS
 62
    7
 10
45.654889224554495
 20
-4.9645367707081798
 11
43.267078469932528
 21
-3.3906527567468734
  0
LINE
  8
_0-0_
  6
CONTINUOUS
 62
    7
 10
-14.431556555713666
 20
-11.246400957863225
 11
-13.742500826363734
 21
-11.395513983176778
  0
LINE
  8
_0-0_
  6
CONTINUOUS
 62
    7
 10
-15.085387431333285
 20
-10.966034223169739
 11
-14.431556555713666
 21
-11.246400957863225
  0
LINE
  8
_0-0_
  6
CONTINUOUS
 62
    7
 10
-16.011400511581993
 20
-10.982702242227802
 11
-15.085387431333285
 21
-10.966034223169739
  0
LINE
  8
_0-0_
  6
CONTINUOUS
 62
    7
 10
-16.780612031914142
 20
-11.325200349727332
 11
-16.011400511581993
 21
-10.982702242227802
  0
LINE
  8
_0-0_
  6
CONTINUOUS
 62
    7
 10
-17.686950177440931
 20
-11.792498460836775
 11
-16.780612031914142
 21
-11.325200349727332
  0
LINE
  8
_0-0_
  6
CONTINUOUS
 62
    7
 10
-19.113935358960159
 20
-12.852830556569224
 11
-17.686950177440931
 21
-11.792498460836775
  0
LINE
  8
_0-0_
  6
CONTINUOUS
 62
    7
 10
-21.633891103492783
 20
-14.459897066249507
 11
-19.113935358960159
 21
-12.852830556569224
  0
LINE
  8
_0-0_
  6
CONTINUOUS
 62
    7
 10
-21.684332765688364
 20
-14.937351100207053
 11
-21.633891103492783
 21
-14.459897066249507
  0
LINE
  8
_0-0_
  6
CONTINUOUS
 62
    7
 10
-21.70691496309767
 20
-15.508639104347942
 11
-21.684332765688364
 21
-14.937351100207053
  0
LINE
  8
_0-0_
  6
CONTINUOUS
 62
    7
 10
-21.63980528184403
 20
-15.957198150639123
 11
-21.70691496309767
 21
-15.508639104347942
  0
LINE
  8
_0-0_
  6
CONTINUOUS
 62
    7
 10
-21.486110290567748
 20
-16.211876119282998
 11
-21.63980528184403
 21
-15.957198150639123
  0
LINE
  8
_0-0_
  6
CONTINUOUS
 62
    7
 10
-20.933362045292224
 20
-16.354080705901719
 11
-21.486110290567748
 21
-16.211876119282998
  0
LINE
  8
_0-0_
  6
CONTINUOUS
 62
    7
 10
5.7980110318869755
 20
-25.571213471931902
 11
-20.933362045292224
 21
-16.354080705901719
  0
LINE
  8
_0-0_
  6
CONTINUOUS
 62
    7
 10
6.1795600499009602
 20
-25.602079852382015
 11
5.7980110318869755
 21
-25.571213471931902
  0
LINE
  8
_0-0_
  6
CONTINUOUS
 62
    7
 10
6.6002596314058941
 20
-25.441136200945035
 11
6.1795600499009602
 21
-25.602079852382015
  0
LINE
  8
_0-0_
  6
CONTINUOUS
 62
    7
 10
6.9518781388734148
 20
-25.330733864680074
 11
6.6002596314058941
 21
-25.441136200945035
  0
LINE
  8
_0-0_
  6
CONTINUOUS
 62
    7
 10
-20.930454782604823
 20
-15.332162609709449
 11
-16.522628188677043
 21
-12.335727694238493
  0
LINE
  8
_0-0_
  6
CONTINUOUS
 62
    7
 10
-21.011862478226956
 20
-15.644630553686058
 11
-20.930454782604823
 21
-15.332162609709449
  0
LINE
  8
_0-0_
  6
CONTINUOUS
 62
    7
 10
-20.811768263299054
 20
-15.873520103303875
 11
-21.011862478226956
 21
-15.644630553686058
  0
LINE
  8
_0-0_
  6
CONTINUOUS
 62
    7
 10
-19.431918869382198
 20
-16.454864377316412
 11
-20.811768263299054
 21
-15.873520103303875
  0
LINE
  8
_0-0_
  6
CONTINUOUS
 62
    7
 10
11.165923308130335
 20
-22.794248747181403
 11
11.065975853642843
 21
-23.226339080367424
  0
LINE
  8
_0-0_
  6
CONTINUOUS
 62
    7
 10
10.771948015555143
 20
-22.478773887540942
 11
11.165923308130335
 21
-22.794248747181403
  0
LINE
  8
_0-0_
  6
CONTINUOUS
 62
    7
 10
-15.11388380709381
 20
-13.034623311700241
 11
10.771948015555143
 21
-22.478773887540942
  0
LINE
  8
_0-0_
  6
CONTINUOUS
 62
    7
 10
-15.524327812774185
 20
-12.886205587800919
 11
-15.11388380709381
 21
-13.034623311700241
  0
LINE
  8
_0-0_
  6
CONTINUOUS
 62
    7
 10
-15.949169485799498
 20
-12.952279746174455
 11
-15.524327812774185
 21
-12.886205587800919
  0
LINE
  8
_0-0_
  6
CONTINUOUS
 62
    7
 10
-16.298716947506829
 20
-13.110116828971137
 11
-15.949169485799498
 21
-12.952279746174455
  0
LINE
  8
_0-0_
  6
CONTINUOUS
 62
    7
 10
-19.366143669938008
 20
-15.240100726356943
 11
-16.298716947506829
 21
-13.110116828971137
  0
LINE
  8
_0-0_
  6
CONTINUOUS
 62
    7
 10
-19.611501932660996
 20
-15.607252077025981
 11
-19.366143669938008
 21
-15.240100726356943
  0
LINE
  8
_0-0_
  6
CONTINUOUS
 62
    7
 10
-19.431918869382198
 20
-16.454864377316412
 11
-19.611501932660996
 21
-15.607252077025981
  0
LINE
  8
_0-0_
  6
CONTINUOUS
 62
    7
 10
11.065975853642843
 20
-23.226339080367424
 11
10.954637647474247
 21
-23.39753830762896
  0
LINE
  8
_0-0_
  6
CONTINUOUS
 62
    7
 10
11.056656147721942
 20
-23.01288272097467
 11
11.065975853642843
 21
-23.226339080367424
  0
LINE
  8
_0-0_
  6
CONTINUOUS
 62
    7
 10
-14.840466773631672
 20
-13.854376147204407
 11
11.056656147721942
 21
-23.01288272097467
  0
LINE
  8
_0-0_
  6
CONTINUOUS
 62
    7
 10
-15.225122360285976
 20
-13.752357646956709
 11
-14.840466773631672
 21
-13.854376147204407
  0
LINE
  8
_0-0_
  6
CONTINUOUS
 62
    7
 10
-15.676787975217447
 20
-13.748315208412759
 11
-15.225122360285976
 21
-13.752357646956709
  0
LINE
  8
_0-0_
  6
CONTINUOUS
 62
    7
 10
-15.957254362887394
 20
-13.855610976037415
 11
-15.676787975217447
 21
-13.748315208412759
  0
LINE
  8
_0-0_
  6
CONTINUOUS
 62
    7
 10
-19.256677203576711
 20
-16.114536968553537
 11
-15.957254362887394
 21
-13.855610976037415
  0
LINE
  8
_0-0_
  6
CONTINUOUS
 62
    7
 10
-19.389661737250972
 20
-16.334206465226902
 11
-19.256677203576711
 21
-16.114536968553537
  0
LINE
  8
_0-0_
  6
CONTINUOUS
 62
    7
 10
-19.431918869382198
 20
-16.454864377316412
 11
-19.389661737250972
 21
-16.334206465226902
  0
LINE
  8
_0-0_
  6
CONTINUOUS
 62
    7
 10
-19.211213849828749
 20
-16.611566284256543
 11
-19.431918869382198
 21
-16.454864377316412
  0
LINE
  8
_0-0_
  6
CONTINUOUS
 62
    7
 10
6.0217229671042709
 20
-25.252532390674688
 11
-19.211213849828749
 21
-16.611566284256543
  0
LINE
  8
_0-0_
  6
CONTINUOUS
 62
    7
 10
6.4249183126239338
 20
-25.234928501712975
 11
6.0217229671042709
 21
-25.252532390674688
  0
LINE
  8
_0-0_
  6
CONTINUOUS
 62
    7
 10
6.9178055368065436
 20
-25.094595654901557
 11
6.4249183126239338
 21
-25.234928501712975
  0
LINE
  8
_0-0_
  6
CONTINUOUS
 62
    7
 10
11.564040692225948
 20
-23.204593099885312
 11
6.9178055368065436
 21
-25.094595654901557
  0
LINE
  8
_0-0_
  6
CONTINUOUS
 62
    7
 10
6.8549376000497553
 20
-25.287441209668753
 11
6.5466117475935626
 21
-25.300903007110058
  0
LINE
  8
_0-0_
  6
CONTINUOUS
 62
    7
 10
12.377680043425958
 20
-23.33540693482292
 11
6.8549376000497553
 21
-25.287441209668753
  0
LINE
  8
_0-0_
  6
CONTINUOUS
 62
    7
 10
12.798379624930892
 20
-23.17446328338594
 11
12.377680043425958
 21
-23.33540693482292
  0
LINE
  8
_0-0_
  6
CONTINUOUS
 62
    7
 10
12.85814099304736
 20
-22.910465608821156
 11
12.798379624930892
 21
-23.17446328338594
  0
LINE
  8
_0-0_
  6
CONTINUOUS
 62
    7
 10
12.630187313333185
 20
-22.587742089019994
 11
12.85814099304736
 21
-22.910465608821156
  0
LINE
  8
_0-0_
  6
CONTINUOUS
 62
    7
 10
11.904168795035918
 20
-22.286764549700944
 11
12.630187313333185
 21
-22.587742089019994
  0
LINE
  8
_0-0_
  6
CONTINUOUS
 62
    7
 10
-14.693283878565349
 20
-12.327144552268329
 11
11.904168795035918
 21
-22.286764549700944
  0
LINE
  8
_0-0_
  6
CONTINUOUS
 62
    7
 10
-15.126409734631476
 20
-12.203479724514969
 11
-14.693283878565349
 21
-12.327144552268329
  0
LINE
  8
_0-0_
  6
CONTINUOUS
 62
    7
 10
-15.653369560880943
 20
-12.107674361547872
 11
-15.126409734631476
 21
-12.203479724514969
  0
LINE
  8
_0-0_
  6
CONTINUOUS
 62
    7
 10
-16.22258651926165
 20
-12.13252691067029
 11
-15.653369560880943
 21
-12.107674361547872
  0
LINE
  8
_0-0_
  6
CONTINUOUS
 62
    7
 10
-16.714438220564144
 20
-12.296577130747574
 11
-16.22258651926165
 21
-12.13252691067029
  0
LINE
  8
_0-0_
  6
CONTINUOUS
 62
    7
 10
-21.360474070030644
 20
-15.279649901753675
 11
-16.714438220564144
 21
-12.296577130747574
  0
LINE
  8
_0-0_
  6
CONTINUOUS
 62
    7
 10
-25.270663501705652
 20
-15.123204807969817
 11
5.1028561116857851
 21
-26.175853083465316
  0
LINE
  8
_0-0_
  6
CONTINUOUS
 62
    7
 10
5.1028561116857851
 20
-26.175853083465316
 11
29.861722626383415
 21
-19.286474336756157
  0
LINE
  8
_0-0_
  6
CONTINUOUS
 62
    7
 10
-25.270663501705652
 20
-15.123204807969817
 11
0.8315565183507409
 21
1.3037923246523411
  0
LINE
  8
_0-0_
  6
CONTINUOUS
 62
    7
 10
37.176735817958019
 20
-16.745215179909128
 11
0.8315565183507409
 21
1.3037923246523411
  0
ENDBLK
  0
ENDSEC
  0
SECTION
  2
ENTITIES
  0
INSERT
  2
-000-1
  8
_0-0_
 10
196.71023958678123
 20
151.74732447980335
 41
1
 42
1
 50
0
  0
ENDSEC
  0
EOF
