  0
SECTION
  2
HEADER
  9
$ACADVER
  1
AC1009
  9
$INSBASE
 10
0
 20
0
 30
0
  9
$EXTMIN
 10
0
 20
0
  9
$EXTMAX
 10
420
 20
297
  9
$LIMMIN
 10
0
 20
0
  9
$LIMMAX
 10
420
 20
297
  9
$LTSCALE
 40
1
  0
ENDSEC
  0
SECTION
  2
TABLES
  0
TABLE
  2
LTYPE
 70
     9
  0
LTYPE
  2
CONTINUOUS
 70
    64
  3
実線
 72
    65
 73
     0
 40
0.0
  0
LTYPE
  2
DASHED1
 70
    64
  3
--  --  --  --  --  --  --  --  
 72
    65
 73
     2
 40
2.5
 49
1.25
 49
-1.25
  0
LTYPE
  2
DASHED2
 70
    64
  3
----    ----    ----    ----    
 72
    65
 73
     2
 40
5.0
 49
2.5
 49
-2.5
  0
LTYPE
  2
DASHED3
 70
    64
  3
------  ------  ------  ------  
 72
    65
 73
     2
 40
5.0
 49
3.75
 49
-1.25
  0
LTYPE
  2
CENTER1
 70
    64
  3
----- - ----- - ----- - ----- - 
 72
    65
 73
     4
 40
10.0
 49
6.25
 49
-1.25
 49
1.25
 49
-1.25
  0
LTYPE
  2
CENTER2
 70
    64
  3
----------  --  ----------  --  
 72
    65
 73
     4
 40
20.0
 49
12.5
 49
-2.5
 49
2.5
 49
-2.5
  0
LTYPE
  2
PHANTOM1
 70
    64
  3
--- - - --- - - --- - - --- - - 
 72
    65
 73
     6
 40
10.0
 49
3.25
 49
-1.25
 49
1.25
 49
-1.25
 49
1.25
 49
-1.25
  0
LTYPE
  2
PHANTOM2
 70
    64
  3
--------  -  -  --------  -  -  
 72
    65
 73
     6
 40
20.0
 49
10.0
 49
-2.5
 49
1.25
 49
-2.5
 49
1.25
 49
-2.5
  0
LTYPE
  2
DOT
 70
    64
  3
-   -   -   -   -   -   -   -   
 72
    65
 73
     2
 40
2.5
 49
0.625
 49
-1.875
  0
LTYPE
  2
DUMMY
 70
    64
  3
ダミー
 72
    65
 73
     0
 40
0.0
  0
LTYPE
  2
RAND1
 70
    64
  3
ランダム線1
 72
    65
 73
     4
 40
10.0
 49
1.0
 49
-2.0
 49
3.0
 49
-4.0
  0
LTYPE
  2
RAND2
 70
    64
  3
ランダム線2
 72
    65
 73
     4
 40
14.0
 49
2.0
 49
-3.0
 49
4.0
 49
-5.0
  0
LTYPE
  2
RAND3
 70
    64
  3
ランダム線3
 72
    65
 73
     4
 40
18.0
 49
3.0
 49
-4.0
 49
5.0
 49
-6.0
  0
LTYPE
  2
RAND4
 70
    64
  3
ランダム線4
 72
    65
 73
     4
 40
22.0
 49
4.0
 49
-5.0
 49
6.0
 49
-7.0
  0
LTYPE
  2
RAND5
 70
    64
  3
ランダム線5
 72
    65
 73
     4
 40
26.0
 49
5.0
 49
-6.0
 49
7.0
 49
-8.0
  0
LTYPE
  2
LONG1
 70
    64
  3
----------  --  ----------  --  
 72
    65
 73
     4
 40
40.0
 49
32.5
 49
-2.5
 49
2.5
 49
-2.5
  0
LTYPE
  2
LONG2
 70
    64
  3
--------  -  -  --------  -  -  
 72
    65
 73
     6
 40
40.0
 49
30.0
 49
-2.5
 49
1.25
 49
-2.5
 49
1.25
 49
-2.5
  0
LTYPE
  2
LONG3
 70
    64
  3
+++++++++++++++..+++++++++++++++
 72
    65
 73
     2
 40
40.0
 49
37.5
 49
-2.5
  0
LTYPE
  2
LONG4
 70
    64
  3
+++++++++++++++..+++++++++++++++
 72
    65
 73
     2
 40
80.0
 49
75.0
 49
-5.0
  0
LTYPE
  2
LONG5
 70
    64
  3
----------  --  ----------  --  
 72
    65
 73
     4
 40
60.0
 49
37.5
 49
-7.5
 49
7.5
 49
-7.5
  0
LTYPE
  2
dashed
 70
   64
  3
-------   -------------   ------
 72
   65
 73
    2
 40
7.5
 49
6
 49
-1.5
  0
LTYPE
  2
dashed_spaced
 70
   64
  3
----        --------        ----
 72
   65
 73
    2
 40
12
 49
6
 49
-6
  0
LTYPE
  2
long_dashed_dotted
 70
   64
  3
------------- --- --------------
 72
   65
 73
    4
 40
15.25
 49
12
 49
-1.5
 49
0.25
 49
-1.5
  0
LTYPE
  2
long_dashed_double-dotted
 70
   64
  3
----------- --- --- ------------
 72
   65
 73
    6
 40
17
 49
12
 49
-1.5
 49
0.25
 49
-1.5
 49
0.25
 49
-1.5
  0
LTYPE
  2
long_dashed_triplicate-dotted
 70
   64
  3
--------- --- --- --- ----------
 72
   65
 73
    8
 40
18.75
 49
12
 49
-1.5
 49
0.25
 49
-1.5
 49
0.25
 49
-1.5
 49
0.25
 49
-1.5
  0
LTYPE
  2
dotted
 70
   64
  3
   -       -       -       -    
 72
   65
 73
    2
 40
1.75
 49
0.25
 49
-1.5
  0
LTYPE
  2
chain
 70
   64
  3
-------------- -- --------------
 72
   65
 73
    4
 40
18.5
 49
12
 49
-1.5
 49
3.5
 49
-1.5
  0
LTYPE
  2
chain_double_dash
 70
   64
  3
------------ -- -- -------------
 72
   65
 73
    6
 40
23.5
 49
12
 49
-1.5
 49
3.5
 49
-1.5
 49
3.5
 49
-1.5
  0
LTYPE
  2
dashed_dotted
 70
   64
  3
-----------     -     ----------
 72
   65
 73
    4
 40
9.25
 49
6
 49
-1.5
 49
0.25
 49
-1.5
  0
LTYPE
  2
double-dashed_dotted
 70
   64
  3
------   -----------   -   -----
 72
   65
 73
    6
 40
16.75
 49
6
 49
-1.5
 49
6
 49
-1.5
 49
0.25
 49
-1.5
  0
LTYPE
  2
dashed_double-dotted
 70
   64
  3
---------    -    -    ---------
 72
   65
 73
    6
 40
11
 49
6
 49
-1.5
 49
0.25
 49
-1.5
 49
0.25
 49
-1.5
  0
LTYPE
  2
double-dashed_double-dotted
 70
   64
  3
-----   ---------   -   -   ----
 72
   65
 73
    8
 40
18.5
 49
6
 49
-1.5
 49
6
 49
-1.5
 49
0.25
 49
-1.5
 49
0.25
 49
-1.5
  0
LTYPE
  2
dashed_triplicate-dotted
 70
   64
  3
-------    -    -    -    ------
 72
   65
 73
    8
 40
12.75
 49
6
 49
-1.5
 49
0.25
 49
-1.5
 49
0.25
 49
-1.5
 49
0.25
 49
-1.5
  0
LTYPE
  2
double-dashed_triplicate-dotted
 70
   64
  3
-----  ---------  -  -  -  -----
 72
   65
 73
   10
 40
20.25
 49
6
 49
-1.5
 49
6
 49
-1.5
 49
0.25
 49
-1.5
 49
0.25
 49
-1.5
 49
0.25
 49
-1.5
  0
LTYPE
  2
undefined
 70
   64
  3
--------------------------------
 72
   65
 73
    0
 40
0
  0
LTYPE
  2
_
 70
   64
  3
                                
 72
   65
 73
    0
 40
0
  0
LTYPE
  2
__18
 70
   64
  3
                                
 72
   65
 73
    0
 40
0
  0
LTYPE
  2
__19
 70
   64
  3
                                
 72
   65
 73
    0
 40
0
  0
LTYPE
  2
__20
 70
   64
  3
                                
 72
   65
 73
    0
 40
0
  0
LTYPE
  2
__21
 70
   64
  3
                                
 72
   65
 73
    0
 40
0
  0
LTYPE
  2
__22
 70
   64
  3
                                
 72
   65
 73
    0
 40
0
  0
LTYPE
  2
__23
 70
   64
  3
                                
 72
   65
 73
    0
 40
0
  0
LTYPE
  2
__24
 70
   64
  3
                                
 72
   65
 73
    0
 40
0
  0
LTYPE
  2
__25
 70
   64
  3
                                
 72
   65
 73
    0
 40
0
  0
LTYPE
  2
__26
 70
   64
  3
                                
 72
   65
 73
    0
 40
0
  0
LTYPE
  2
__27
 70
   64
  3
                                
 72
   65
 73
    0
 40
0
  0
LTYPE
  2
__28
 70
   64
  3
                                
 72
   65
 73
    0
 40
0
  0
LTYPE
  2
__29
 70
   64
  3
                                
 72
   65
 73
    0
 40
0
  0
LTYPE
  2
__30
 70
   64
  3
                                
 72
   65
 73
    0
 40
0
  0
LTYPE
  2
__31
 70
   64
  3
                                
 72
   65
 73
    0
 40
0
  0
LTYPE
  2
__32
 70
   64
  3
                                
 72
   65
 73
    0
 40
0
  0
ENDTAB
  0
TABLE
  2
STYLE
  5
3
100
AcDbSymbolTable
 70
     1
  0
STYLE
  5
10
100
AcDbSymbolTableRecord
100
AcDbTextStyleTableRecord
  2
STANDARD
 70
     0
 40
0.0
 41
1.0
 50
0.0
 71
     0
 42
0.2
  3
txt
  4
bigfont.shx
  0
STYLE
  5
26
100
AcDbSymbolTableRecord
100
AcDbTextStyleTableRecord
  2
TATEGAKI
 70
    68
 40
0.0
 41
1.0
 50
0.0
 71
     0
 42
1.0
  3
txt
  4
bigfont.shx
  0
ENDTAB
  0
TABLE
  2
LAYER
 70
    2
  0
LAYER
  2
_0-0_
 70
   64
 62
    7
  6
CONTINUOUS
  0
LAYER
  2
ADD_LINE
 70
   64
 62
    7
  6
CONTINUOUS
  0
ENDTAB
  0
ENDSEC
  0
SECTION
  2
BLOCKS
  0
BLOCK
  2
-000-1
 70
   64
 10
0
 20
0
 30
0
  0
LINE
  8
_0-0_
  6
CONTINUOUS
 62
    7
 10
-30.009249079484377
 20
-15.585922983436442
 11
-34.654096962765145
 21
-3.9369394031449865
  0
LINE
  8
_0-0_
  6
CONTINUOUS
 62
    7
 10
-34.654096962765145
 20
-3.9369394031449865
 11
-34.727824706944205
 21
-3.3102535776229769
  0
LINE
  8
_0-0_
  6
CONTINUOUS
 62
    7
 10
-34.727824706944205
 20
-3.3102535776229769
 11
-33.363861439631599
 21
0.1918142708823644
  0
LINE
  8
_0-0_
  6
CONTINUOUS
 62
    7
 10
-33.363861439631599
 20
0.1918142708823644
 11
-32.921494974557241
 21
0.6710446080462541
  0
LINE
  8
_0-0_
  6
CONTINUOUS
 62
    7
 10
2.1360473825857165
 20
34.954445651309086
 11
2.6152777197496038
 21
35.065037267577672
  0
LINE
  8
_0-0_
  6
CONTINUOUS
 62
    7
 10
2.6152777197496038
 20
35.065037267577672
 11
3.1313719290030226
 21
34.770126290861434
  0
LINE
  8
_0-0_
  6
CONTINUOUS
 62
    7
 10
3.1313719290030226
 20
34.770126290861434
 11
48.363342982856217
 21
-0.0662328337443387
  0
LINE
  8
_0-0_
  6
CONTINUOUS
 62
    7
 10
48.363342982856217
 20
-0.0662328337443387
 11
48.547662343303877
 21
-0.3611438104605841
  0
LINE
  8
_0-0_
  6
CONTINUOUS
 62
    7
 10
48.547662343303877
 20
-0.3611438104605841
 11
49.801033994347897
 21
-4.342441996129816
  0
LINE
  8
_0-0_
  6
CONTINUOUS
 62
    7
 10
49.801033994347897
 20
-4.342441996129816
 11
43.312992506590625
 21
-16.802430762390927
  0
LINE
  8
_0-0_
  6
CONTINUOUS
 62
    7
 10
43.312992506590625
 20
-16.802430762390927
 11
42.944353785695327
 21
-17.244797227465284
  0
LINE
  8
_0-0_
  6
CONTINUOUS
 62
    7
 10
-30.009249079484377
 20
-15.585922983436442
 11
1.8780002779590008
 21
5.9057144447595054
  0
LINE
  8
_0-0_
  6
CONTINUOUS
 62
    7
 10
1.8780002779590008
 20
5.9057144447595054
 11
2.6152777197495904
 21
5.9057144447595036
  0
LINE
  8
_0-0_
  6
CONTINUOUS
 62
    7
 10
2.6152777197495904
 20
5.9057144447595036
 11
42.944353785695327
 21
-16.876158506569986
  0
LINE
  8
_0-0_
  6
CONTINUOUS
 62
    7
 10
2.2466389988542912
 20
5.9794421889385632
 11
2.0991835104961716
 21
30.235870023849252
  0
LINE
  8
_0-0_
  6
CONTINUOUS
 62
    7
 10
2.0991835104961716
 20
30.235870023849252
 11
2.5415499755705309
 21
34.954445651309086
  0
LINE
  8
_0-0_
  6
CONTINUOUS
 62
    7
 10
-34.617233090675626
 20
-3.383981321802036
 11
1.4356338128846398
 21
30.08841453549114
  0
LINE
  8
_0-0_
  6
CONTINUOUS
 62
    7
 10
1.4356338128846398
 20
30.08841453549114
 11
2.5415499755705309
 21
30.235870023849252
  0
LINE
  8
_0-0_
  6
CONTINUOUS
 62
    7
 10
2.5415499755705309
 20
30.235870023849252
 11
49.579850761810704
 21
-4.0475310194135741
  0
LINE
  8
_0-0_
  6
CONTINUOUS
 62
    7
 10
-24.885170859039732
 20
-15.770242343884091
 11
2.7627332081077052
 21
1.6295052823740281
  0
LINE
  8
_0-0_
  6
CONTINUOUS
 62
    7
 10
2.7627332081077052
 20
1.6295052823740281
 11
37.562228460623949
 21
-17.392252715823403
  0
LINE
  8
_0-0_
  6
CONTINUOUS
 62
    7
 10
2.9421217321612181
 20
1.5156264418426861
 11
2.8399829782825838
 21
-0.4590561331442366
  0
LINE
  8
_0-0_
  6
CONTINUOUS
 62
    7
 10
2.8399829782825838
 20
-0.4590561331442366
 11
35.728661727202677
 21
-18.197153056733647
  0
LINE
  8
_0-0_
  6
CONTINUOUS
 62
    7
 10
35.728661727202677
 20
-18.197153056733647
 11
35.354152962981026
 21
-16.188424230453855
  0
LINE
  8
_0-0_
  6
CONTINUOUS
 62
    7
 10
-2.7776484850422802
 20
-1.8209061848593544
 11
-3.0500184953853013
 21
-3.9658200163106656
  0
LINE
  8
_0-0_
  6
CONTINUOUS
 62
    7
 10
-3.0500184953853013
 20
-3.9658200163106656
 11
-2.7436022337494022
 21
-4.136051272775056
  0
LINE
  8
_0-0_
  6
CONTINUOUS
 62
    7
 10
-2.7436022337494022
 20
-4.136051272775056
 11
30.247215269049331
 21
-19.933511872670429
  0
LINE
  8
_0-0_
  6
CONTINUOUS
 62
    7
 10
30.247215269049331
 20
-19.933511872670429
 11
35.728661727202677
 21
-18.197153056733647
  0
LINE
  8
_0-0_
  6
CONTINUOUS
 62
    7
 10
37.562228460623949
 20
-17.392252715823403
 11
35.693925527272469
 21
-18.010840711653422
  0
LINE
  8
_0-0_
  6
CONTINUOUS
 62
    7
 10
-2.8116947363351583
 20
-3.8636812624320296
 11
2.6357054705253136
 21
-0.6292873896086259
  0
LINE
  8
_0-0_
  6
CONTINUOUS
 62
    7
 10
-19.800774131481255
 20
-12.579521593408785
 11
-19.971005387945645
 21
-14.656342922274341
  0
LINE
  8
_0-0_
  6
CONTINUOUS
 62
    7
 10
-19.971005387945645
 20
-14.656342922274341
 11
9.8535107446154431
 21
-26.300160864438602
  0
LINE
  8
_0-0_
  6
CONTINUOUS
 62
    7
 10
9.8535107446154431
 20
-26.300160864438602
 11
9.8875569959083212
 21
-25.959698351509822
  0
LINE
  8
_0-0_
  6
CONTINUOUS
 62
    7
 10
-23.1373067581833
 20
-14.622296670981463
 11
-23.579908024990708
 21
-16.528886743382628
  0
LINE
  8
_0-0_
  6
CONTINUOUS
 62
    7
 10
-23.579908024990708
 20
-16.528886743382628
 11
5.8700993433487172
 21
-27.832242172618102
  0
LINE
  8
_0-0_
  6
CONTINUOUS
 62
    7
 10
5.8700993433487172
 20
-27.832242172618102
 11
9.8535107446154431
 21
-26.300160864438602
  0
LINE
  8
_0-0_
  6
CONTINUOUS
 62
    7
 10
-24.885170859039732
 20
-15.770242343884091
 11
-23.511815522404959
 21
-16.290562984332475
  0
LINE
  8
_0-0_
  6
CONTINUOUS
 62
    7
 10
-30.009249079484377
 20
-15.585922983436442
 11
5.2913130713697933
 21
-29.160045973040347
  0
LINE
  8
_0-0_
  6
CONTINUOUS
 62
    7
 10
30.099937624832666
 20
-19.862988831476898
 11
5.8859597289873031
 21
-27.880144823837334
  0
LINE
  8
_0-0_
  6
CONTINUOUS
 62
    7
 10
42.944353785695327
 20
-17.244797227465284
 11
5.2940240429372105
 21
-29.168606071141078
  0
LINE
  8
_0-0_
  6
CONTINUOUS
 62
    7
 10
-23.305013793614879
 20
-16.531440200719231
 11
-20.128889178771843
 21
-14.676768892781691
  0
LINE
  8
_0-0_
  6
CONTINUOUS
 62
    7
 10
-29.468954623111532
 20
2.9862538081289474
 11
-30.889016218051726
 21
3.6467475732174091
  0
LINE
  8
_0-0_
  6
CONTINUOUS
 62
    7
 10
-30.889016218051726
 20
3.6467475732174091
 11
-30.913784734242544
 21
3.8531518748075531
  0
LINE
  8
_0-0_
  6
CONTINUOUS
 62
    7
 10
-30.913784734242544
 20
3.8531518748075531
 11
-30.855991529797301
 21
4.2907289941786591
  0
LINE
  8
_0-0_
  6
CONTINUOUS
 62
    7
 10
-30.855991529797301
 20
4.2907289941786591
 11
-30.591794023761917
 21
4.8108678341858218
  0
LINE
  8
_0-0_
  6
CONTINUOUS
 62
    7
 10
-30.591794023761917
 20
4.8108678341858218
 11
-30.319340345662926
 21
5.3310066741929854
  0
LINE
  8
_0-0_
  6
CONTINUOUS
 62
    7
 10
-30.319340345662926
 20
5.3310066741929854
 11
-30.145960732327207
 21
5.6282288684827932
  0
LINE
  8
_0-0_
  6
CONTINUOUS
 62
    7
 10
-30.145960732327207
 20
5.6282288684827932
 11
-29.980837291055092
 21
5.7768399656276967
  0
LINE
  8
_0-0_
  6
CONTINUOUS
 62
    7
 10
-29.980837291055092
 20
5.7768399656276967
 11
-29.890019398355427
 21
5.875914030390966
  0
LINE
  8
_0-0_
  6
CONTINUOUS
 62
    7
 10
-29.890019398355427
 20
5.875914030390966
 11
-29.741408301210523
 21
5.8511455142001489
  0
LINE
  8
_0-0_
  6
CONTINUOUS
 62
    7
 10
-29.741408301210523
 20
5.8511455142001489
 11
-29.700127440892494
 21
5.6777659008644275
  0
LINE
  8
_0-0_
  6
CONTINUOUS
 62
    7
 10
-29.700127440892494
 20
5.6777659008644275
 11
-29.716639785019709
 21
5.3392628462565908
  0
LINE
  8
_0-0_
  6
CONTINUOUS
 62
    7
 10
-29.716639785019709
 20
5.3392628462565908
 11
-29.80745767771937
 21
4.8438925224402452
  0
LINE
  8
_0-0_
  6
CONTINUOUS
 62
    7
 10
-29.80745767771937
 20
4.8438925224402452
 11
-30.079911355818361
 21
4.3485221986238995
  0
LINE
  8
_0-0_
  6
CONTINUOUS
 62
    7
 10
-30.079911355818361
 20
4.3485221986238995
 11
-30.261547141217687
 21
4.03478766020688
  0
LINE
  8
_0-0_
  6
CONTINUOUS
 62
    7
 10
-30.261547141217687
 20
4.03478766020688
 11
-30.476207614871438
 21
3.828383358616736
  0
LINE
  8
_0-0_
  6
CONTINUOUS
 62
    7
 10
-30.476207614871438
 20
3.828383358616736
 11
-30.666099572334371
 21
3.7210531217898608
  0
LINE
  8
_0-0_
  6
CONTINUOUS
 62
    7
 10
-30.666099572334371
 20
3.7210531217898608
 11
-30.889016218051726
 21
3.6467475732174091
  0
LINE
  8
_0-0_
  6
CONTINUOUS
 62
    7
 10
-29.741408301210523
 20
5.8511455142001489
 11
-28.288322018015908
 21
5.1493708887936585
  0
LINE
  8
_0-0_
  6
CONTINUOUS
 62
    7
 10
-28.288322018015908
 20
5.1493708887936585
 11
-28.255297329761486
 21
4.9594789313307261
  0
LINE
  8
_0-0_
  6
CONTINUOUS
 62
    7
 10
-28.255297329761486
 20
4.9594789313307261
 11
-28.296578190079515
 21
4.7035375973589471
  0
LINE
  8
_0-0_
  6
CONTINUOUS
 62
    7
 10
-28.296578190079515
 20
4.7035375973589471
 11
-28.395652254842783
 21
4.4228277471963509
  0
LINE
  8
_0-0_
  6
CONTINUOUS
 62
    7
 10
-28.395652254842783
 20
4.4228277471963509
 11
-28.527751007860477
 21
4.1256055529065438
  0
LINE
  8
_0-0_
  6
CONTINUOUS
 62
    7
 10
-28.527751007860477
 20
4.1256055529065438
 11
-28.668105932941774
 21
3.9026889071891877
  0
LINE
  8
_0-0_
  6
CONTINUOUS
 62
    7
 10
-28.668105932941774
 20
3.9026889071891877
 11
-28.833229374213889
 21
3.6880284335354379
  0
LINE
  8
_0-0_
  6
CONTINUOUS
 62
    7
 10
-28.833229374213889
 20
3.6880284335354379
 11
-29.080914536122062
 21
3.3825500671820246
  0
LINE
  8
_0-0_
  6
CONTINUOUS
 62
    7
 10
-29.080914536122062
 20
3.3825500671820246
 11
-29.229525633266967
 21
3.151377249401063
  0
LINE
  8
_0-0_
  6
CONTINUOUS
 62
    7
 10
-29.229525633266967
 20
3.151377249401063
 11
-29.468954623111532
 21
2.9862538081289474
  0
LINE
  8
_0-0_
  6
CONTINUOUS
 62
    7
 10
-28.271809673888697
 20
5.3805437065746204
 11
-28.081917716425764
 21
5.4465930830834663
  0
LINE
  8
_0-0_
  6
CONTINUOUS
 62
    7
 10
-28.081917716425764
 20
5.4465930830834663
 11
-27.933306619280859
 21
5.4465930830834663
  0
LINE
  8
_0-0_
  6
CONTINUOUS
 62
    7
 10
-27.933306619280859
 20
5.4465930830834663
 11
-27.867257242772016
 21
5.3062381580021682
  0
LINE
  8
_0-0_
  6
CONTINUOUS
 62
    7
 10
-27.867257242772016
 20
5.3062381580021682
 11
-27.900281931026438
 21
5.0668091681576009
  0
LINE
  8
_0-0_
  6
CONTINUOUS
 62
    7
 10
-27.900281931026438
 20
5.0668091681576009
 11
-28.123198576743793
 21
4.4888771237051968
  0
LINE
  8
_0-0_
  6
CONTINUOUS
 62
    7
 10
-28.123198576743793
 20
4.4888771237051968
 11
-28.445189287224419
 21
3.8861765630619765
  0
LINE
  8
_0-0_
  6
CONTINUOUS
 62
    7
 10
-28.445189287224419
 20
3.8861765630619765
 11
-28.833229374213889
 21
3.3330130348003899
  0
LINE
  8
_0-0_
  6
CONTINUOUS
 62
    7
 10
-28.833229374213889
 20
3.3330130348003899
 11
-29.089170708185669
 21
2.9367167757473132
  0
LINE
  8
_0-0_
  6
CONTINUOUS
 62
    7
 10
-29.089170708185669
 20
2.9367167757473132
 11
-29.328599698030235
 21
2.6725192697119287
  0
LINE
  8
_0-0_
  6
CONTINUOUS
 62
    7
 10
-29.328599698030235
 20
2.6725192697119287
 11
-29.535003999620379
 21
2.5899575490758711
  0
LINE
  8
_0-0_
  6
CONTINUOUS
 62
    7
 10
-29.535003999620379
 20
2.5899575490758711
 11
-29.625821892320044
 21
2.7220563020935633
  0
LINE
  8
_0-0_
  6
CONTINUOUS
 62
    7
 10
-29.625821892320044
 20
2.7220563020935633
 11
-29.683615096765283
 21
2.9614852919381303
  0
LINE
  8
_0-0_
  6
CONTINUOUS
 62
    7
 10
-29.683615096765283
 20
2.9614852919381303
 11
-29.634078064383647
 21
3.0605593567013996
  0
LINE
  8
_0-0_
  6
CONTINUOUS
 62
    7
 10
-29.510235483429561
 20
2.5899575490758711
 11
-29.295575009775813
 21
2.4578587960581784
  0
LINE
  8
_0-0_
  6
CONTINUOUS
 62
    7
 10
-29.295575009775813
 20
2.4578587960581784
 11
-29.138707740567302
 21
2.5569328608214477
  0
LINE
  8
_0-0_
  6
CONTINUOUS
 62
    7
 10
-29.138707740567302
 20
2.5569328608214477
 11
-28.833229374213889
 21
2.8871797433656785
  0
LINE
  8
_0-0_
  6
CONTINUOUS
 62
    7
 10
-28.833229374213889
 20
2.8871797433656785
 11
-28.577288040242109
 21
3.2587074862279382
  0
LINE
  8
_0-0_
  6
CONTINUOUS
 62
    7
 10
-28.577288040242109
 20
3.2587074862279382
 11
-28.172735609125429
 21
3.7871024982987072
  0
LINE
  8
_0-0_
  6
CONTINUOUS
 62
    7
 10
-28.172735609125429
 20
3.7871024982987072
 11
-27.982843651662495
 21
4.2329357897334186
  0
LINE
  8
_0-0_
  6
CONTINUOUS
 62
    7
 10
-27.982843651662495
 20
4.2329357897334186
 11
-27.850744898644802
 21
4.5219018119596202
  0
LINE
  8
_0-0_
  6
CONTINUOUS
 62
    7
 10
-27.850744898644802
 20
4.5219018119596202
 11
-27.726902317690715
 21
4.8026116621222164
  0
LINE
  8
_0-0_
  6
CONTINUOUS
 62
    7
 10
-27.726902317690715
 20
4.8026116621222164
 11
-27.702133801499901
 21
5.0833215122848125
  0
LINE
  8
_0-0_
  6
CONTINUOUS
 62
    7
 10
-27.702133801499901
 20
5.0833215122848125
 11
-27.693877629436294
 21
5.2649572976841394
  0
LINE
  8
_0-0_
  6
CONTINUOUS
 62
    7
 10
-27.693877629436294
 20
5.2649572976841394
 11
-27.933306619280859
 21
5.4465930830834663
  0
LINE
  8
_0-0_
  6
CONTINUOUS
 62
    7
 10
-28.522911182857673
 20
5.2729287741593458
 11
-28.271809673888697
 21
5.3805437065746204
  0
LINE
  8
_0-0_
  6
CONTINUOUS
 62
    7
 10
-32.921494974557241
 20
0.6710446080462541
 11
-30.204274718609454
 21
3.3282631548721655
  0
LINE
  8
_0-0_
  6
CONTINUOUS
 62
    7
 10
-10.861020652783965
 20
20.9782371285389
 11
-12.489531061383941
 21
21.916333420488755
  0
LINE
  8
_0-0_
  6
CONTINUOUS
 62
    7
 10
-12.489531061383941
 20
21.916333420488755
 11
-12.49755299454093
 21
22.165666527688117
  0
LINE
  8
_0-0_
  6
CONTINUOUS
 62
    7
 10
-12.49755299454093
 20
22.165666527688117
 11
-12.382700223298228
 21
22.682716523685592
  0
LINE
  8
_0-0_
  6
CONTINUOUS
 62
    7
 10
-12.382700223298228
 20
22.682716523685592
 11
-12.012469933265139
 21
23.276876393464953
  0
LINE
  8
_0-0_
  6
CONTINUOUS
 62
    7
 10
-12.012469933265139
 20
23.276876393464953
 11
-11.632369937428495
 21
23.870172775874167
  0
LINE
  8
_0-0_
  6
CONTINUOUS
 62
    7
 10
-11.632369937428495
 20
23.870172775874167
 11
-11.394020570228504
 21
24.207348950029115
  0
LINE
  8
_0-0_
  6
CONTINUOUS
 62
    7
 10
-11.394020570228504
 20
24.207348950029115
 11
-11.181083681494718
 21
24.367733907090191
  0
LINE
  8
_0-0_
  6
CONTINUOUS
 62
    7
 10
-11.181083681494718
 20
24.367733907090191
 11
-11.062155069213828
 21
24.476672015661251
  0
LINE
  8
_0-0_
  6
CONTINUOUS
 62
    7
 10
-11.062155069213828
 20
24.476672015661251
 11
-10.887090826860247
 21
24.43152012558793
  0
LINE
  8
_0-0_
  6
CONTINUOUS
 62
    7
 10
-10.887090826860247
 20
24.43152012558793
 11
-10.855875532615558
 21
24.219938866862506
  0
LINE
  8
_0-0_
  6
CONTINUOUS
 62
    7
 10
-10.855875532615558
 20
24.219938866862506
 11
-10.911017926398708
 21
23.817007903656972
  0
LINE
  8
_0-0_
  6
CONTINUOUS
 62
    7
 10
-10.911017926398708
 20
23.817007903656972
 11
-11.071393932446663
 21
23.234323916515194
  0
LINE
  8
_0-0_
  6
CONTINUOUS
 62
    7
 10
-11.071393932446663
 20
23.234323916515194
 11
-11.448903466172871
 21
22.670636651516652
  0
LINE
  8
_0-0_
  6
CONTINUOUS
 62
    7
 10
-11.448903466172871
 20
22.670636651516652
 11
-11.698849513916711
 21
22.314584553124732
  0
LINE
  8
_0-0_
  6
CONTINUOUS
 62
    7
 10
-11.698849513916711
 20
22.314584553124732
 11
-11.977049049062868
 21
22.090292579659646
  0
LINE
  8
_0-0_
  6
CONTINUOUS
 62
    7
 10
-11.977049049062868
 20
22.090292579659646
 11
-12.215277618356586
 21
21.981846613726795
  0
LINE
  8
_0-0_
  6
CONTINUOUS
 62
    7
 10
-12.215277618356586
 20
21.981846613726795
 11
-12.489531061383941
 21
21.916333420488755
  0
LINE
  8
_0-0_
  6
CONTINUOUS
 62
    7
 10
-10.887090826860247
 20
24.43152012558793
 11
-9.2234190318967837
 21
23.440621355139697
  0
LINE
  8
_0-0_
  6
CONTINUOUS
 62
    7
 10
-9.2234190318967837
 20
23.440621355139697
 11
-9.2038004181959447
 21
23.210164172177308
  0
LINE
  8
_0-0_
  6
CONTINUOUS
 62
    7
 10
-9.2038004181959447
 20
23.210164172177308
 11
-9.2799170556882888
 21
22.908520729117782
  0
LINE
  8
_0-0_
  6
CONTINUOUS
 62
    7
 10
-9.2799170556882888
 20
22.908520729117782
 11
-9.4277120959159735
 21
22.583312580238626
  0
LINE
  8
_0-0_
  6
CONTINUOUS
 62
    7
 10
-9.4277120959159735
 20
22.583312580238626
 11
-9.6167129340981869
 21
22.241818969232938
  0
LINE
  8
_0-0_
  6
CONTINUOUS
 62
    7
 10
-9.6167129340981869
 20
22.241818969232938
 11
-9.8078120917526252
 21
21.990016197829412
  0
LINE
  8
_0-0_
  6
CONTINUOUS
 62
    7
 10
-9.8078120917526252
 20
21.990016197829412
 11
-10.027656879447585
 21
21.750673594339879
  0
LINE
  8
_0-0_
  6
CONTINUOUS
 62
    7
 10
-10.027656879447585
 20
21.750673594339879
 11
-10.355697086249736
 21
21.4113991007127
  0
LINE
  8
_0-0_
  6
CONTINUOUS
 62
    7
 10
-10.355697086249736
 20
21.4113991007127
 11
-10.557529437077877
 21
21.150590110875761
  0
LINE
  8
_0-0_
  6
CONTINUOUS
 62
    7
 10
-10.557529437077877
 20
21.150590110875761
 11
-10.861020652783965
 21
20.9782371285389
  0
LINE
  8
_0-0_
  6
CONTINUOUS
 62
    7
 10
-9.1795019739255483
 20
23.715246142898991
 11
-8.9455908414825647
 21
23.774343579814058
  0
LINE
  8
_0-0_
  6
CONTINUOUS
 62
    7
 10
-8.9455908414825647
 20
23.774343579814058
 11
-8.7679361370185429
 21
23.75880080715141
  0
LINE
  8
_0-0_
  6
CONTINUOUS
 62
    7
 10
-8.7679361370185429
 20
23.75880080715141
 11
-8.7036577758825953
 21
23.58410790952977
  0
LINE
  8
_0-0_
  6
CONTINUOUS
 62
    7
 10
-8.7036577758825953
 20
23.58410790952977
 11
-8.7681777328310897
 21
23.30134039070721
  0
LINE
  8
_0-0_
  6
CONTINUOUS
 62
    7
 10
-8.7681777328310897
 20
23.30134039070721
 11
-9.0951039054374281
 21
22.633775143452219
  0
LINE
  8
_0-0_
  6
CONTINUOUS
 62
    7
 10
-9.0951039054374281
 20
22.633775143452219
 11
-9.5430570097968914
 21
21.946962627228324
  0
LINE
  8
_0-0_
  6
CONTINUOUS
 62
    7
 10
-9.5430570097968914
 20
21.946962627228324
 11
-10.064786836363917
 21
21.326276244786946
  0
LINE
  8
_0-0_
  6
CONTINUOUS
 62
    7
 10
-10.064786836363917
 20
21.326276244786946
 11
-10.412195110041241
 21
20.879298474690785
  0
LINE
  8
_0-0_
  6
CONTINUOUS
 62
    7
 10
-10.412195110041241
 20
20.879298474690785
 11
-10.726048174189097
 21
20.588509022711243
  0
LINE
  8
_0-0_
  6
CONTINUOUS
 62
    7
 10
-10.726048174189097
 20
20.588509022711243
 11
-10.981425692979487
 21
20.511399148929357
  0
LINE
  8
_0-0_
  6
CONTINUOUS
 62
    7
 10
-10.981425692979487
 20
20.511399148929357
 11
-11.076176658896257
 21
20.678812802857884
  0
LINE
  8
_0-0_
  6
CONTINUOUS
 62
    7
 10
-11.076176658896257
 20
20.678812802857884
 11
-11.120223465786884
 21
20.971078682752058
  0
LINE
  8
_0-0_
  6
CONTINUOUS
 62
    7
 10
-11.120223465786884
 20
20.971078682752058
 11
-11.050643382523772
 21
21.084334228173851
  0
LINE
  8
_0-0_
  6
CONTINUOUS
 62
    7
 10
-10.951816575568818
 20
20.508808686818909
 11
-10.709020022598699
 21
20.328442722338174
  0
LINE
  8
_0-0_
  6
CONTINUOUS
 62
    7
 10
-10.709020022598699
 20
20.328442722338174
 11
-10.511133763889353
 21
20.43047293194806
  0
LINE
  8
_0-0_
  6
CONTINUOUS
 62
    7
 10
-10.511133763889353
 20
20.43047293194806
 11
-10.111415154351866
 21
20.793312131394885
  0
LINE
  8
_0-0_
  6
CONTINUOUS
 62
    7
 10
-10.111415154351866
 20
20.793312131394885
 11
-9.7665973427849817
 21
21.210680784080367
  0
LINE
  8
_0-0_
  6
CONTINUOUS
 62
    7
 10
-9.7665973427849817
 20
21.210680784080367
 11
-9.2277185667212809
 21
21.800031074370786
  0
LINE
  8
_0-0_
  6
CONTINUOUS
 62
    7
 10
-9.2277185667212809
 20
21.800031074370786
 11
-8.9540870152515257
 21
22.313134978249458
  0
LINE
  8
_0-0_
  6
CONTINUOUS
 62
    7
 10
-8.9540870152515257
 20
22.313134978249458
 11
-8.7659496644394661
 21
22.644758883451587
  0
LINE
  8
_0-0_
  6
CONTINUOUS
 62
    7
 10
-8.7659496644394661
 20
22.644758883451587
 11
-8.5885455068011094
 21
22.96737657022031
  0
LINE
  8
_0-0_
  6
CONTINUOUS
 62
    7
 10
-8.5885455068011094
 20
22.96737657022031
 11
-8.5295778188054374
 21
23.300356105430794
  0
LINE
  8
_0-0_
  6
CONTINUOUS
 62
    7
 10
-8.5295778188054374
 20
23.300356105430794
 11
-8.5007113908586387
 21
23.516626145738897
  0
LINE
  8
_0-0_
  6
CONTINUOUS
 62
    7
 10
-8.5007113908586387
 20
23.516626145738897
 11
-8.7679361370185429
 21
23.75880080715141
  0
LINE
  8
_0-0_
  6
CONTINUOUS
 62
    7
 10
-9.4909322754652923
 20
23.612861558992975
 11
-9.1795019739255483
 21
23.715246142898991
  0
LINE
  8
_0-0_
  6
CONTINUOUS
 62
    7
 10
-9.4766116553553275
 20
23.598217570041818
 11
2.1360473825857165
 21
34.954445651309086
  0
LINE
  8
_0-0_
  6
CONTINUOUS
 62
    7
 10
-28.038111533954673
 20
5.4465930830834655
 11
-11.675802921112473
 21
21.44758888744019
  0
ARC
  8
_0-0_
  6
CONTINUOUS
 62
    7
 10
-3.0672040370840881
 20
19.432614758611663
 40
0.4279555762988537
 50
302.88468093301663
 51
127.05823548415856
  0
ARC
  8
_0-0_
  6
CONTINUOUS
 62
    7
 10
-5.9909725489749297
 20
17.216155731869385
 40
0.4463844709593518
 50
131.28880965446285
 51
315.17684770433505
  0
LINE
  8
_0-0_
  6
CONTINUOUS
 62
    7
 10
-3.3251013850906537
 20
19.774133327911287
 11
-6.2855215415618977
 21
17.551565908935721
  0
LINE
  8
_0-0_
  6
CONTINUOUS
 62
    7
 10
-5.6743583166071607
 20
16.901489998469934
 11
-2.8348455813591391
 21
19.073232617516155
  0
ARC
  8
_0-0_
  6
CONTINUOUS
 62
    7
 10
-4.7009256150224763
 20
15.53396099307689
 40
0.4279555762988537
 50
302.88468093301663
 51
127.05823548415856
  0
ARC
  8
_0-0_
  6
CONTINUOUS
 62
    7
 10
-7.6246941269133179
 20
13.317501966334612
 40
0.4463844709593518
 50
131.28880965446285
 51
315.17684770433505
  0
LINE
  8
_0-0_
  6
CONTINUOUS
 62
    7
 10
-4.9588229630290419
 20
15.875479562376514
 11
-7.9192431195002859
 21
13.652912143400943
  0
LINE
  8
_0-0_
  6
CONTINUOUS
 62
    7
 10
-7.308079894545549
 20
13.002836232935158
 11
-4.4685671592975273
 21
15.174578851981378
  0
ARC
  8
_0-0_
  6
CONTINUOUS
 62
    7
 10
-1.6562626743191293
 20
15.645351100663598
 40
0.4279555762988537
 50
302.88468093301663
 51
127.05823548415856
  0
ARC
  8
_0-0_
  6
CONTINUOUS
 62
    7
 10
-4.580031186209971
 20
13.42889207392132
 40
0.4463844709593518
 50
131.28880965446285
 51
315.17684770433505
  0
LINE
  8
_0-0_
  6
CONTINUOUS
 62
    7
 10
-1.9141600223256949
 20
15.986869669963221
 11
-4.8745801787969389
 21
13.764302250987651
  0
LINE
  8
_0-0_
  6
CONTINUOUS
 62
    7
 10
-4.263416953842202
 20
13.114226340521865
 11
-1.4239042185941804
 21
15.285968959568086
  0
ARC
  8
_0-0_
  6
CONTINUOUS
 62
    7
 10
-6.111866977787435
 20
12.192257765475654
 40
0.4279555762988537
 50
302.88468093301663
 51
127.05823548415856
  0
ARC
  8
_0-0_
  6
CONTINUOUS
 62
    7
 10
-9.0356354896782758
 20
9.975798738733376
 40
0.4463844709593518
 50
131.28880965446285
 51
315.17684770433505
  0
LINE
  8
_0-0_
  6
CONTINUOUS
 62
    7
 10
-6.3697643257940006
 20
12.533776334775277
 11
-9.3301844822652438
 21
10.311208915799707
  0
LINE
  8
_0-0_
  6
CONTINUOUS
 62
    7
 10
-8.7190212573105068
 20
9.6611330053339213
 11
-5.8795085220624861
 21
11.832875624380142
  0
ARC
  8
_0-0_
  6
CONTINUOUS
 62
    7
 10
-3.2528542163952698
 20
11.858087442715531
 40
0.4279555762988537
 50
302.88468093301663
 51
127.05823548415856
  0
ARC
  8
_0-0_
  6
CONTINUOUS
 62
    7
 10
-6.1766227282861115
 20
9.641628415973253
 40
0.4463844709593518
 50
131.28880965446285
 51
315.17684770433505
  0
LINE
  8
_0-0_
  6
CONTINUOUS
 62
    7
 10
-3.5107515644018354
 20
12.199606012015154
 11
-6.4711717208730795
 21
9.977038593039584
  0
LINE
  8
_0-0_
  6
CONTINUOUS
 62
    7
 10
-5.8600084959183425
 20
9.3269626825737983
 11
-3.0204957606703209
 21
11.498705301620019
  0
ARC
  8
_0-0_
  6
CONTINUOUS
 62
    7
 10
-0.0968011681052222
 20
11.449657048230936
 40
0.4279555762988537
 50
302.88468093301663
 51
127.05823548415856
  0
ARC
  8
_0-0_
  6
CONTINUOUS
 62
    7
 10
-3.020569679996064
 20
9.2331980214886578
 40
0.4463844709593518
 50
131.28880965446285
 51
315.17684770433505
  0
LINE
  8
_0-0_
  6
CONTINUOUS
 62
    7
 10
-0.3546985161117878
 20
11.791175617530559
 11
-3.3151186725830319
 21
9.5686081985549887
  0
LINE
  8
_0-0_
  6
CONTINUOUS
 62
    7
 10
-2.703955447628295
 20
8.9185322880892031
 11
0.1355572876197266
 21
11.090274907135424
  0
ARC
  8
_0-0_
  6
CONTINUOUS
 62
    7
 10
-5.0350959377825921
 20
7.7737834978695766
 40
0.4279555762988537
 50
302.88468093301663
 51
127.05823548415856
  0
ARC
  8
_0-0_
  6
CONTINUOUS
 62
    7
 10
-7.9588644496734338
 20
5.5573244711272984
 40
0.4463844709593518
 50
131.28880965446285
 51
315.17684770433505
  0
LINE
  8
_0-0_
  6
CONTINUOUS
 62
    7
 10
-5.2929932857891577
 20
8.1153020671691998
 11
-8.2534134422604009
 21
5.8927346481936294
  0
LINE
  8
_0-0_
  6
CONTINUOUS
 62
    7
 10
-7.6422502173056648
 20
5.2426587377278437
 11
-4.8027374820576432
 21
7.4144013567740643
  0
ARC
  8
_0-0_
  6
CONTINUOUS
 62
    7
 10
-2.1760831763904269
 20
7.5138732468339251
 40
0.4279555762988537
 50
302.88468093301663
 51
127.05823548415856
  0
ARC
  8
_0-0_
  6
CONTINUOUS
 62
    7
 10
-5.0998516882812686
 20
5.297414220091647
 40
0.4463844709593518
 50
131.28880965446285
 51
315.17684770433505
  0
LINE
  8
_0-0_
  6
CONTINUOUS
 62
    7
 10
-2.4339805243969925
 20
7.8553918161335483
 11
-5.3944006808682365
 21
5.6328243971579779
  0
LINE
  8
_0-0_
  6
CONTINUOUS
 62
    7
 10
-4.7832374559134996
 20
4.9827484866921923
 11
-1.943724720665478
 21
7.1544911057384128
  0
ARC
  8
_0-0_
  6
CONTINUOUS
 62
    7
 10
-7.7084585198635898
 20
8.4049941075275871
 40
0.4279555762988537
 50
302.88468093301663
 51
127.05823548415856
  0
ARC
  8
_0-0_
  6
CONTINUOUS
 62
    7
 10
-10.632227031754431
 20
6.1885350807853099
 40
0.4463844709593518
 50
131.28880965446285
 51
315.17684770433505
  0
LINE
  8
_0-0_
  6
CONTINUOUS
 62
    7
 10
-7.9663558678701554
 20
8.7465126768272103
 11
-10.926776024341398
 21
6.5239452578516408
  0
LINE
  8
_0-0_
  6
CONTINUOUS
 62
    7
 10
-10.315612799386662
 20
5.8738693473858552
 11
-7.4761000641386408
 21
8.0456119664320767
  0
ARC
  8
_0-0_
  6
CONTINUOUS
 62
    7
 10
-10.381821101944572
 20
8.6277743227010042
 40
0.4279555762988537
 50
302.88468093301663
 51
127.05823548415856
  0
ARC
  8
_0-0_
  6
CONTINUOUS
 62
    7
 10
-13.305589613835414
 20
6.4113152959587261
 40
0.4463844709593518
 50
131.28880965446285
 51
315.17684770433505
  0
LINE
  8
_0-0_
  6
CONTINUOUS
 62
    7
 10
-10.639718449951138
 20
8.9692928920006274
 11
-13.600138606422382
 21
6.746725473025057
  0
LINE
  8
_0-0_
  6
CONTINUOUS
 62
    7
 10
-12.988975381467645
 20
6.0966495625592714
 11
-10.149462646219623
 21
8.2683921816054919
  0
ARC
  8
_0-0_
  6
CONTINUOUS
 62
    7
 10
-8.9337497033173801
 20
12.117997693751184
 40
0.4279555762988537
 50
302.88468093301663
 51
127.05823548415856
  0
ARC
  8
_0-0_
  6
CONTINUOUS
 62
    7
 10
-11.857518215208222
 20
9.9015386670089054
 40
0.4463844709593518
 50
131.28880965446285
 51
315.17684770433505
  0
LINE
  8
_0-0_
  6
CONTINUOUS
 62
    7
 10
-9.1916470513239457
 20
12.459516263050807
 11
-12.15206720779519
 21
10.236948844075236
  0
LINE
  8
_0-0_
  6
CONTINUOUS
 62
    7
 10
-11.540903982840453
 20
9.5868729336094507
 11
-8.7013912475924311
 21
11.758615552655671
  0
ARC
  8
_0-0_
  6
CONTINUOUS
 62
    7
 10
-6.8173376591699286
 20
4.3206901626816343
 40
0.4279555762988537
 50
302.88468093301663
 51
127.05823548415856
  0
ARC
  8
_0-0_
  6
CONTINUOUS
 62
    7
 10
-9.7411061710607694
 20
2.1042311359393562
 40
0.4463844709593518
 50
131.28880965446285
 51
315.17684770433505
  0
LINE
  8
_0-0_
  6
CONTINUOUS
 62
    7
 10
-7.0752350071764942
 20
4.6622087319812575
 11
-10.035655163647737
 21
2.4396413130056871
  0
LINE
  8
_0-0_
  6
CONTINUOUS
 62
    7
 10
-9.4244919386930004
 20
1.7895654025399015
 11
-6.5849792034449797
 21
3.9613080215861221
  0
ARC
  8
_0-0_
  6
CONTINUOUS
 62
    7
 10
-7.4563182291855332
 20
15.841183107804163
 40
0.4279555762988537
 50
303.2846809330166
 51
127.45823548415856
  0
ARC
  8
_0-0_
  6
CONTINUOUS
 62
    7
 10
-10.364541813494702
 20
13.604366505572393
 40
0.4463844709593518
 50
131.68880965446286
 51
315.57684770433502
  0
LINE
  8
_0-0_
  6
CONTINUOUS
 62
    7
 10
-7.7165935224445183
 20
16.180892906020567
 11
-10.661425213883168
 21
13.937712185741553
  0
LINE
  8
_0-0_
  6
CONTINUOUS
 62
    7
 10
-10.045738533400728
 20
13.291918806725096
 11
-7.2214564955988214
 21
15.48343187945977
  0
ARC
  8
_0-0_
  6
CONTINUOUS
 62
    7
 10
-11.576219563276757
 20
12.220797103418677
 40
0.406557797483911
 50
303.2846809330166
 51
127.45823548415856
  0
ARC
  8
_0-0_
  6
CONTINUOUS
 62
    7
 10
-14.339031968370483
 20
10.095821331298497
 40
0.4240652474113842
 50
131.68880965446286
 51
315.57684770433502
  0
LINE
  8
_0-0_
  6
CONTINUOUS
 62
    7
 10
-11.823481091872798
 20
12.543521411724264
 11
-14.62107119873952
 21
10.412499727459199
  0
LINE
  8
_0-0_
  6
CONTINUOUS
 62
    7
 10
-14.036168852281184
 20
9.7989960173935646
 11
-11.353100916369376
 21
11.880933436491505
  0
ARC
  8
_0-0_
  6
CONTINUOUS
 62
    7
 10
-9.3855474474048375
 20
4.7205298592470157
 40
0.406557797483911
 50
303.2846809330166
 51
127.45823548415856
  0
ARC
  8
_0-0_
  6
CONTINUOUS
 62
    7
 10
-12.148359852498563
 20
2.5955540871268354
 40
0.4240652474113842
 50
131.68880965446286
 51
315.57684770433502
  0
LINE
  8
_0-0_
  6
CONTINUOUS
 62
    7
 10
-9.632808976000879
 20
5.0432541675526021
 11
-12.4303990828676
 21
2.9122324832875375
  0
LINE
  8
_0-0_
  6
CONTINUOUS
 62
    7
 10
-11.845496736409265
 20
2.2987287732219031
 11
-9.162428800497457
 21
4.3806661923198433
  0
ARC
  8
_0-0_
  6
CONTINUOUS
 62
    7
 10
-10.870748881894277
 20
1.3045665599213088
 40
0.406557797483911
 50
303.2846809330166
 51
127.45823548415856
  0
ARC
  8
_0-0_
  6
CONTINUOUS
 62
    7
 10
-13.633561286988003
 20
-0.8204092121988715
 40
0.4240652474113842
 50
131.68880965446286
 51
315.57684770433502
  0
LINE
  8
_0-0_
  6
CONTINUOUS
 62
    7
 10
-11.118010410490319
 20
1.6272908682268952
 11
-13.91560051735704
 21
-0.5037308160381694
  0
LINE
  8
_0-0_
  6
CONTINUOUS
 62
    7
 10
-13.330698170898705
 20
-1.1172345261038039
 11
-10.647630234986897
 21
0.9647028929941363
  0
ARC
  8
_0-0_
  6
CONTINUOUS
 62
    7
 10
-15.181587008260797
 20
9.1270721747452832
 40
0.3851600186689683
 50
303.58468093301661
 51
127.75823548415855
  0
ARC
  8
_0-0_
  6
CONTINUOUS
 62
    7
 10
-17.78841165370654
 20
7.1002602101413608
 40
0.4017460238634166
 50
131.98880965446287
 51
315.87684770433509
  0
LINE
  8
_0-0_
  6
CONTINUOUS
 62
    7
 10
-15.417432398578475
 20
9.43158028932843
 11
-18.05717389874463
 21
7.3988681861435861
  0
LINE
  8
_0-0_
  6
CONTINUOUS
 62
    7
 10
-17.500020266325443
 20
6.820563454038485
 11
-14.968528490273604
 21
8.8062072375923197
  0
ARC
  8
_0-0_
  6
CONTINUOUS
 62
    7
 10
-16.369748155852342
 20
5.8224989830062821
 40
0.3851600186689683
 50
303.58468093301661
 51
127.75823548415855
  0
ARC
  8
_0-0_
  6
CONTINUOUS
 62
    7
 10
-18.976572801298083
 20
3.7956870184023597
 40
0.4017460238634166
 50
131.98880965446287
 51
315.87684770433509
  0
LINE
  8
_0-0_
  6
CONTINUOUS
 62
    7
 10
-16.60559354617002
 20
6.1270070975894289
 11
-19.245335046336173
 21
4.094294994404585
  0
LINE
  8
_0-0_
  6
CONTINUOUS
 62
    7
 10
-18.688181413916986
 20
3.5159902622994839
 11
-16.156689637865149
 21
5.5016340458533186
  0
ARC
  8
_0-0_
  6
CONTINUOUS
 62
    7
 10
-14.290466147567136
 20
5.4883286602461592
 40
0.3851600186689683
 50
303.58468093301661
 51
127.75823548415855
  0
ARC
  8
_0-0_
  6
CONTINUOUS
 62
    7
 10
-16.897290793012878
 20
3.4615166956422367
 40
0.4017460238634166
 50
131.98880965446287
 51
315.87684770433509
  0
LINE
  8
_0-0_
  6
CONTINUOUS
 62
    7
 10
-14.526311537884814
 20
5.7928367748293059
 11
-17.166053038050968
 21
3.7601246716444621
  0
LINE
  8
_0-0_
  6
CONTINUOUS
 62
    7
 10
-16.608899405631782
 20
3.1818199395393609
 11
-14.077407629579943
 21
5.1674637230931957
  0
ARC
  8
_0-0_
  6
CONTINUOUS
 62
    7
 10
-12.099794031695202
 20
4.931378122312621
 40
0.3851600186689683
 50
303.58468093301661
 51
127.75823548415855
  0
ARC
  8
_0-0_
  6
CONTINUOUS
 62
    7
 10
-14.706618677140943
 20
2.9045661577086985
 40
0.4017460238634166
 50
131.98880965446287
 51
315.87684770433509
  0
LINE
  8
_0-0_
  6
CONTINUOUS
 62
    7
 10
-12.33563942201288
 20
5.2358862368957677
 11
-14.975380922179033
 21
3.2031741337109239
  0
LINE
  8
_0-0_
  6
CONTINUOUS
 62
    7
 10
-14.418227289759846
 20
2.6248694016058227
 11
-11.886735513708009
 21
4.6105131851596575
  0
ARC
  8
_0-0_
  6
CONTINUOUS
 62
    7
 10
-18.676060246304083
 20
6.0913133930442314
 40
0.342364461039083
 50
304.08468093301661
 51
128.25823548415858
  0
ARC
  8
_0-0_
  6
CONTINUOUS
 62
    7
 10
-20.97742765874262
 20
4.269550426269717
 40
0.3571075767674814
 50
132.48880965446287
 51
316.37684770433503
  0
LINE
  8
_0-0_
  6
CONTINUOUS
 62
    7
 10
-18.888054656010162
 20
6.3601475323122063
 11
-21.218634613851968
 21
4.5328848641839752
  0
LINE
  8
_0-0_
  6
CONTINUOUS
 62
    7
 10
-20.718919934305596
 20
4.0231775832225765
 11
-18.484193184405477
 21
5.8077636535963251
  0
ARC
  8
_0-0_
  6
CONTINUOUS
 62
    7
 10
-19.901351429757874
 20
2.972390380616412
 40
0.342364461039083
 50
304.08468093301661
 51
128.25823548415858
  0
ARC
  8
_0-0_
  6
CONTINUOUS
 62
    7
 10
-22.202718842196411
 20
1.1506274138418977
 40
0.3571075767674814
 50
132.48880965446287
 51
316.37684770433503
  0
LINE
  8
_0-0_
  6
CONTINUOUS
 62
    7
 10
-20.113345839463953
 20
3.241224519884387
 11
-22.443925797305759
 21
1.4139618517561559
  0
LINE
  8
_0-0_
  6
CONTINUOUS
 62
    7
 10
-21.944211117759387
 20
0.9042545707947571
 11
-19.709484367859268
 21
2.6888406411685057
  0
ARC
  8
_0-0_
  6
CONTINUOUS
 62
    7
 10
-17.896329493197122
 20
2.6010900219940538
 40
0.342364461039083
 50
304.08468093301661
 51
128.25823548415858
  0
ARC
  8
_0-0_
  6
CONTINUOUS
 62
    7
 10
-20.197696905635659
 20
0.7793270552195394
 40
0.3571075767674814
 50
132.48880965446287
 51
316.37684770433503
  0
LINE
  8
_0-0_
  6
CONTINUOUS
 62
    7
 10
-18.108323902903201
 20
2.8699241612620288
 11
-20.438903860745008
 21
1.0426614931337976
  0
LINE
  8
_0-0_
  6
CONTINUOUS
 62
    7
 10
-19.939189181198635
 20
0.5329542121723989
 11
-17.704462431298516
 21
2.3175402825461475
  0
ARC
  8
_0-0_
  6
CONTINUOUS
 62
    7
 10
-15.891307556636383
 20
2.1555295916472215
 40
0.342364461039083
 50
304.08468093301661
 51
128.25823548415858
  0
ARC
  8
_0-0_
  6
CONTINUOUS
 62
    7
 10
-18.192674969074922
 20
0.3337666248727071
 40
0.3571075767674814
 50
132.48880965446287
 51
316.37684770433503
  0
LINE
  8
_0-0_
  6
CONTINUOUS
 62
    7
 10
-16.103301966342464
 20
2.4243637309151964
 11
-18.43388192418427
 21
0.5971010627869652
  0
LINE
  8
_0-0_
  6
CONTINUOUS
 62
    7
 10
-17.934167244637898
 20
0.0873937818255665
 11
-15.699440494737777
 21
1.8719798521993152
  0
ARC
  8
_0-0_
  6
CONTINUOUS
 62
    7
 10
-13.737765476626697
 20
1.6357090895759185
 40
0.342364461039083
 50
304.08468093301661
 51
128.25823548415858
  0
ARC
  8
_0-0_
  6
CONTINUOUS
 62
    7
 10
-16.039132889065236
 20
-0.1860538771985957
 40
0.3571075767674814
 50
132.48880965446287
 51
316.37684770433503
  0
LINE
  8
_0-0_
  6
CONTINUOUS
 62
    7
 10
-13.949759886332776
 20
1.9045432288438935
 11
-16.280339844174584
 21
0.0772805607156623
  0
LINE
  8
_0-0_
  6
CONTINUOUS
 62
    7
 10
-15.78062516462821
 20
-0.4324267202457363
 11
-13.545898414728091
 21
1.3521593501280122
  0
ARC
  8
_0-0_
  6
CONTINUOUS
 62
    7
 10
-17.116598740090176
 20
-0.9262633849183625
 40
0.342364461039083
 50
304.08468093301661
 51
128.25823548415858
  0
ARC
  8
_0-0_
  6
CONTINUOUS
 62
    7
 10
-19.417966152528713
 20
-2.7480263516928769
 40
0.3571075767674814
 50
132.48880965446287
 51
316.37684770433503
  0
LINE
  8
_0-0_
  6
CONTINUOUS
 62
    7
 10
-17.328593149796255
 20
-0.6574292456503876
 11
-19.659173107638061
 21
-2.4846919137786188
  0
LINE
  8
_0-0_
  6
CONTINUOUS
 62
    7
 10
-19.159458428091689
 20
-2.9943991947400175
 11
-16.92473167819157
 21
-1.2098131243662689
  0
ARC
  8
_0-0_
  6
CONTINUOUS
 62
    7
 10
-19.121620676650913
 20
-0.5178329904337672
 40
0.342364461039083
 50
304.08468093301661
 51
128.25823548415858
  0
ARC
  8
_0-0_
  6
CONTINUOUS
 62
    7
 10
-21.422988089089451
 20
-2.3395959572082816
 40
0.3571075767674814
 50
132.48880965446287
 51
316.37684770433503
  0
LINE
  8
_0-0_
  6
CONTINUOUS
 62
    7
 10
-19.333615086356993
 20
-0.2489988511657923
 11
-21.664195044198799
 21
-2.0762615192940235
  0
LINE
  8
_0-0_
  6
CONTINUOUS
 62
    7
 10
-21.164480364652427
 20
-2.5859688002554222
 11
-18.929753614752308
 21
-0.8013827298816735
  0
ARC
  8
_0-0_
  6
CONTINUOUS
 62
    7
 10
-21.82747277971135
 20
3.489775898518003
 40
0.2995689034091976
 50
304.08468093301661
 51
128.25823548415858
  0
ARC
  8
_0-0_
  6
CONTINUOUS
 62
    7
 10
-23.841169265595077
 20
1.8957333025903029
 40
0.3124691296715462
 50
132.48880965446287
 51
316.37684770433503
  0
LINE
  8
_0-0_
  6
CONTINUOUS
 62
    7
 10
-22.01296788820418
 20
3.7250057703774822
 11
-24.052225351315748
 21
2.1261509357652777
  0
LINE
  8
_0-0_
  6
CONTINUOUS
 62
    7
 10
-23.61497500671269
 20
1.6801570649240531
 11
-21.659589100550072
 21
3.2416698765010832
  0
ARC
  8
_0-0_
  6
CONTINUOUS
 62
    7
 10
-24.723615576965763
 20
0.9649334598859606
 40
0.2995689034091976
 50
304.08468093301661
 51
128.25823548415858
  0
ARC
  8
_0-0_
  6
CONTINUOUS
 62
    7
 10
-26.73731206284949
 20
-0.6291091360417393
 40
0.3124691296715462
 50
132.48880965446287
 51
316.37684770433503
  0
LINE
  8
_0-0_
  6
CONTINUOUS
 62
    7
 10
-24.909110685458593
 20
1.2001633317454399
 11
-26.948368148570161
 21
-0.3986915028667645
  0
LINE
  8
_0-0_
  6
CONTINUOUS
 62
    7
 10
-26.511117803967103
 20
-0.8446853737079891
 11
-24.555731897804485
 21
0.7168274378690409
  0
ARC
  8
_0-0_
  6
CONTINUOUS
 62
    7
 10
-23.015633927302908
 20
0.2965928143657112
 40
0.2995689034091976
 50
304.08468093301661
 51
128.25823548415858
  0
ARC
  8
_0-0_
  6
CONTINUOUS
 62
    7
 10
-25.029330413186635
 20
-1.2974497815619888
 40
0.3124691296715462
 50
132.48880965446287
 51
316.37684770433503
  0
LINE
  8
_0-0_
  6
CONTINUOUS
 62
    7
 10
-23.201129035795738
 20
0.5318226862251904
 11
-25.240386498907306
 21
-1.067032148387014
  0
LINE
  8
_0-0_
  6
CONTINUOUS
 62
    7
 10
-24.803136154304248
 20
-1.5130260192282385
 11
-22.847750248141629
 21
0.0484867923487914
  0
ARC
  8
_0-0_
  6
CONTINUOUS
 62
    7
 10
-21.381912349364519
 20
-0.0747075442566487
 40
0.2995689034091976
 50
304.08468093301661
 51
128.25823548415858
  0
ARC
  8
_0-0_
  6
CONTINUOUS
 62
    7
 10
-23.395608835248247
 20
-1.6687501401843488
 40
0.3124691296715462
 50
132.48880965446287
 51
316.37684770433503
  0
LINE
  8
_0-0_
  6
CONTINUOUS
 62
    7
 10
-21.56740745785735
 20
0.1605223276028304
 11
-23.606664920968917
 21
-1.438332507009374
  0
LINE
  8
_0-0_
  6
CONTINUOUS
 62
    7
 10
-23.16941457636586
 20
-1.8843263778505985
 11
-21.214028670203241
 21
-0.3228135662735685
  0
ARC
  8
_0-0_
  6
CONTINUOUS
 62
    7
 10
-18.262989336936705
 20
-4.0476213815158939
 40
0.2995689034091976
 50
304.08468093301661
 51
128.25823548415858
  0
ARC
  8
_0-0_
  6
CONTINUOUS
 62
    7
 10
-20.276685822820433
 20
-5.6416639774435939
 40
0.3124691296715462
 50
132.48880965446287
 51
316.37684770433503
  0
LINE
  8
_0-0_
  6
CONTINUOUS
 62
    7
 10
-18.448484445429536
 20
-3.8123915096564147
 11
-20.487741908541103
 21
-5.4112463442686192
  0
LINE
  8
_0-0_
  6
CONTINUOUS
 62
    7
 10
-20.050491563938046
 20
-5.8572402151098437
 11
-18.095105657775427
 21
-4.2957274035328137
  0
ARC
  8
_0-0_
  6
CONTINUOUS
 62
    7
 10
-14.80989600174876
 20
-1.4485188711593775
 40
0.2995689034091976
 50
304.08468093301661
 51
128.25823548415858
  0
ARC
  8
_0-0_
  6
CONTINUOUS
 62
    7
 10
-16.823592487632489
 20
-3.0425614670870775
 40
0.3124691296715462
 50
132.48880965446287
 51
316.37684770433503
  0
LINE
  8
_0-0_
  6
CONTINUOUS
 62
    7
 10
-14.99539111024159
 20
-1.2132889992998983
 11
-17.034648573353159
 21
-2.8121438339121028
  0
LINE
  8
_0-0_
  6
CONTINUOUS
 62
    7
 10
-16.597398228750102
 20
-3.2581377047533273
 11
-14.642012322587481
 21
-1.6966248931762973
  0
ARC
  8
_0-0_
  6
CONTINUOUS
 62
    7
 10
-21.530432492813453
 20
-6.4610737125612285
 40
0.2995689034091976
 50
304.08468093301661
 51
128.25823548415858
  0
ARC
  8
_0-0_
  6
CONTINUOUS
 62
    7
 10
-23.544128978697181
 20
-8.0551163084889286
 40
0.3124691296715462
 50
132.48880965446287
 51
316.37684770433503
  0
LINE
  8
_0-0_
  6
CONTINUOUS
 62
    7
 10
-21.715927601306284
 20
-6.2258438407017493
 11
-23.755185064417851
 21
-7.8246986753139538
  0
LINE
  8
_0-0_
  6
CONTINUOUS
 62
    7
 10
-23.317934719814794
 20
-8.2706925461551783
 11
-21.362548813652175
 21
-6.7091797345781483
  0
ARC
  8
_0-0_
  6
CONTINUOUS
 62
    7
 10
-20.565051560395325
 20
-3.5649309153068263
 40
0.2995689034091976
 50
304.08468093301661
 51
128.25823548415858
  0
ARC
  8
_0-0_
  6
CONTINUOUS
 62
    7
 10
-22.578748046279053
 20
-5.1589735112345263
 40
0.3124691296715462
 50
132.48880965446287
 51
316.37684770433503
  0
LINE
  8
_0-0_
  6
CONTINUOUS
 62
    7
 10
-20.750546668888155
 20
-3.3297010434473471
 11
-22.789804131999723
 21
-4.9285558780595515
  0
LINE
  8
_0-0_
  6
CONTINUOUS
 62
    7
 10
-22.352553787396666
 20
-5.3745497489007761
 11
-20.397167881234047
 21
-3.813036937323746
  0
ARC
  8
_0-0_
  6
CONTINUOUS
 62
    7
 10
-27.5408577876129
 20
-1.3024337118801448
 40
0.2567733457793122
 50
304.08468093301661
 51
128.25823548415858
  0
ARC
  8
_0-0_
  6
CONTINUOUS
 62
    7
 10
-29.266883346941817
 20
-2.6687559369610323
 40
0.2678306825756111
 50
132.48880965446287
 51
316.37684770433503
  0
LINE
  8
_0-0_
  6
CONTINUOUS
 62
    7
 10
-27.699853594892467
 20
-1.1008081074291631
 11
-29.447788563273825
 21
-2.4712551085253374
  0
LINE
  8
_0-0_
  6
CONTINUOUS
 62
    7
 10
-29.073002553614039
 20
-2.853535569246386
 11
-27.396957491188964
 21
-1.5150960164660763
  0
ARC
  8
_0-0_
  6
CONTINUOUS
 62
    7
 10
-25.907136209674512
 20
-2.0079043932626277
 40
0.2567733457793122
 50
304.08468093301661
 51
128.25823548415858
  0
ARC
  8
_0-0_
  6
CONTINUOUS
 62
    7
 10
-27.633161769003429
 20
-3.3742266183435152
 40
0.2678306825756111
 50
132.48880965446287
 51
316.37684770433503
  0
LINE
  8
_0-0_
  6
CONTINUOUS
 62
    7
 10
-26.066132016954079
 20
-1.8062787888116461
 11
-27.814066985335437
 21
-3.1767257899078203
  0
LINE
  8
_0-0_
  6
CONTINUOUS
 62
    7
 10
-27.439280975675651
 20
-3.5590062506288689
 11
-25.763235913250575
 21
-2.2205666978485592
  0
ARC
  8
_0-0_
  6
CONTINUOUS
 62
    7
 10
-24.162024524149423
 20
-2.3792047518849877
 40
0.2567733457793122
 50
304.08468093301661
 51
128.25823548415858
  0
ARC
  8
_0-0_
  6
CONTINUOUS
 62
    7
 10
-25.88805008347834
 20
-3.7455269769658752
 40
0.2678306825756111
 50
132.48880965446287
 51
316.37684770433503
  0
LINE
  8
_0-0_
  6
CONTINUOUS
 62
    7
 10
-24.32102033142899
 20
-2.177579147434006
 11
-26.068955299810348
 21
-3.5480261485301803
  0
LINE
  8
_0-0_
  6
CONTINUOUS
 62
    7
 10
-25.694169290150562
 20
-3.9303066092512289
 11
-24.018124227725487
 21
-2.5918670564709192
  0
ARC
  8
_0-0_
  6
CONTINUOUS
 62
    7
 10
-30.028570190382702
 20
-3.5302358636143012
 40
0.2567733457793122
 50
304.08468093301661
 51
128.25823548415858
  0
ARC
  8
_0-0_
  6
CONTINUOUS
 62
    7
 10
-31.754595749711619
 20
-4.8965580886951887
 40
0.2678306825756111
 50
132.48880965446287
 51
316.37684770433503
  0
LINE
  8
_0-0_
  6
CONTINUOUS
 62
    7
 10
-30.187565997662269
 20
-3.3286102591633195
 11
-31.935500966043627
 21
-4.6990572602594938
  0
LINE
  8
_0-0_
  6
CONTINUOUS
 62
    7
 10
-31.560714956383841
 20
-5.0813377209805424
 11
-29.884669893958765
 21
-3.7428981682002327
  0
ARC
  8
_0-0_
  6
CONTINUOUS
 62
    7
 10
-28.431978648306561
 20
-3.8644061863744241
 40
0.2567733457793122
 50
304.08468093301661
 51
128.25823548415858
  0
ARC
  8
_0-0_
  6
CONTINUOUS
 62
    7
 10
-30.158004207635479
 20
-5.2307284114553116
 40
0.2678306825756111
 50
132.48880965446287
 51
316.37684770433503
  0
LINE
  8
_0-0_
  6
CONTINUOUS
 62
    7
 10
-28.590974455586128
 20
-3.6627805819234425
 11
-30.338909423967486
 21
-5.0332275830196167
  0
LINE
  8
_0-0_
  6
CONTINUOUS
 62
    7
 10
-29.9641234143077
 20
-5.4155080437406653
 11
-28.288078351882625
 21
-4.0770684909603556
  0
ARC
  8
_0-0_
  6
CONTINUOUS
 62
    7
 10
-26.909647177954888
 20
-4.6070069036191441
 40
0.2567733457793122
 50
304.08468093301661
 51
128.25823548415858
  0
ARC
  8
_0-0_
  6
CONTINUOUS
 62
    7
 10
-28.635672737283805
 20
-5.9733291287000316
 40
0.2678306825756111
 50
132.48880965446287
 51
316.37684770433503
  0
LINE
  8
_0-0_
  6
CONTINUOUS
 62
    7
 10
-27.068642985234455
 20
-4.4053812991681625
 11
-28.816577953615813
 21
-5.7758283002643367
  0
LINE
  8
_0-0_
  6
CONTINUOUS
 62
    7
 10
-28.441791943956027
 20
-6.1581087609853853
 11
-26.765746881530951
 21
-4.8196692082050756
  0
ARC
  8
_0-0_
  6
CONTINUOUS
 62
    7
 10
-25.164535492429799
 20
-5.0896973698282153
 40
0.2567733457793122
 50
304.08468093301661
 51
128.25823548415858
  0
ARC
  8
_0-0_
  6
CONTINUOUS
 62
    7
 10
-26.890561051758716
 20
-6.4560195949091028
 40
0.2678306825756111
 50
132.48880965446287
 51
316.37684770433503
  0
LINE
  8
_0-0_
  6
CONTINUOUS
 62
    7
 10
-25.323531299709366
 20
-4.8880717653772336
 11
-27.071466268090724
 21
-6.2585187664734079
  0
LINE
  8
_0-0_
  6
CONTINUOUS
 62
    7
 10
-26.696680258430938
 20
-6.6407992271944565
 11
-25.020635196005863
 21
-5.3023596744141468
  0
ARC
  8
_0-0_
  6
CONTINUOUS
 62
    7
 10
-23.530813914491411
 20
-5.683777943623987
 40
0.2567733457793122
 50
304.08468093301661
 51
128.25823548415858
  0
ARC
  8
_0-0_
  6
CONTINUOUS
 62
    7
 10
-25.256839473820328
 20
-7.0501001687048745
 40
0.2678306825756111
 50
132.48880965446287
 51
316.37684770433503
  0
LINE
  8
_0-0_
  6
CONTINUOUS
 62
    7
 10
-23.689809721770978
 20
-5.4821523391730054
 11
-25.437744690152336
 21
-6.8525993402691796
  0
LINE
  8
_0-0_
  6
CONTINUOUS
 62
    7
 10
-25.062958680492549
 20
-7.2348798009902282
 11
-23.386913618067474
 21
-5.8964402482099185
  0
ARC
  8
_0-0_
  6
CONTINUOUS
 62
    7
 10
-29.508749688311404
 20
-6.6862889119043558
 40
0.2567733457793122
 50
304.08468093301661
 51
128.25823548415858
  0
ARC
  8
_0-0_
  6
CONTINUOUS
 62
    7
 10
-31.234775247640322
 20
-8.0526111369852433
 40
0.2678306825756111
 50
132.48880965446287
 51
316.37684770433503
  0
LINE
  8
_0-0_
  6
CONTINUOUS
 62
    7
 10
-29.667745495590971
 20
-6.4846633074533742
 11
-31.415680463972329
 21
-7.8551103085495484
  0
LINE
  8
_0-0_
  6
CONTINUOUS
 62
    7
 10
-31.040894454312543
 20
-8.237390769270597
 11
-29.364849391887468
 21
-6.8989512164902873
  0
ARC
  8
_0-0_
  6
CONTINUOUS
 62
    7
 10
-27.837898074510782
 20
-7.2061094139756605
 40
0.2567733457793122
 50
304.08468093301661
 51
128.25823548415858
  0
ARC
  8
_0-0_
  6
CONTINUOUS
 62
    7
 10
-29.5639236338397
 20
-8.572431639056548
 40
0.2678306825756111
 50
132.48880965446287
 51
316.37684770433503
  0
LINE
  8
_0-0_
  6
CONTINUOUS
 62
    7
 10
-27.996893881790349
 20
-7.0044838095246789
 11
-29.744828850171707
 21
-8.3749308106208531
  0
LINE
  8
_0-0_
  6
CONTINUOUS
 62
    7
 10
-29.370042840511921
 20
-8.7572112713419017
 11
-27.693997778086846
 21
-7.418771718561592
  0
ARC
  8
_0-0_
  6
CONTINUOUS
 62
    7
 10
-26.352696640021342
 20
-7.9487101312203805
 40
0.2567733457793122
 50
304.08468093301661
 51
128.25823548415858
  0
ARC
  8
_0-0_
  6
CONTINUOUS
 62
    7
 10
-28.07872219935026
 20
-9.315032356301268
 40
0.2678306825756111
 50
132.48880965446287
 51
316.37684770433503
  0
LINE
  8
_0-0_
  6
CONTINUOUS
 62
    7
 10
-26.511692447300909
 20
-7.7470845267693988
 11
-28.259627415682267
 21
-9.1175315278655731
  0
LINE
  8
_0-0_
  6
CONTINUOUS
 62
    7
 10
-27.884841406022481
 20
-9.4998119885866217
 11
-26.208796343597406
 21
-8.161372435806312
  0
ARC
  8
_0-0_
  6
CONTINUOUS
 62
    7
 10
-28.951799150377859
 20
-9.842341960194414
 40
0.2567733457793122
 50
304.08468093301661
 51
128.25823548415858
  0
ARC
  8
_0-0_
  6
CONTINUOUS
 62
    7
 10
-30.677824709706776
 20
-11.208664185275302
 40
0.2678306825756111
 50
132.48880965446287
 51
316.37684770433503
  0
LINE
  8
_0-0_
  6
CONTINUOUS
 62
    7
 10
-29.110794957657426
 20
-9.6407163557434323
 11
-30.858729926038784
 21
-11.011163356839607
  0
LINE
  8
_0-0_
  6
CONTINUOUS
 62
    7
 10
-30.483943916378998
 20
-11.393443817560655
 11
-28.807898853953922
 21
-10.055004264780345
  0
ARC
  8
_0-0_
  6
CONTINUOUS
 62
    7
 10
-27.280947536577251
 20
-10.436422533990189
 40
0.2567733457793122
 50
304.08468093301661
 51
128.25823548415858
  0
ARC
  8
_0-0_
  6
CONTINUOUS
 62
    7
 10
-29.006973095906169
 20
-11.802744759071077
 40
0.2678306825756111
 50
132.48880965446287
 51
316.37684770433503
  0
LINE
  8
_0-0_
  6
CONTINUOUS
 62
    7
 10
-27.439943343856818
 20
-10.234796929539208
 11
-29.187878312238176
 21
-11.605243930635382
  0
LINE
  8
_0-0_
  6
CONTINUOUS
 62
    7
 10
-28.81309230257839
 20
-11.98752439135643
 11
-27.137047240153315
 21
-10.649084838576121
  0
ARC
  8
_0-0_
  6
CONTINUOUS
 62
    7
 10
-24.496194846909553
 20
-8.357140525704974
 40
0.2567733457793122
 50
304.08468093301661
 51
128.25823548415858
  0
ARC
  8
_0-0_
  6
CONTINUOUS
 62
    7
 10
-26.222220406238471
 20
-9.7234627507858615
 40
0.2678306825756111
 50
132.48880965446287
 51
316.37684770433503
  0
LINE
  8
_0-0_
  6
CONTINUOUS
 62
    7
 10
-24.65519065418912
 20
-8.1555149212539924
 11
-26.403125622570478
 21
-9.5259619223501666
  0
LINE
  8
_0-0_
  6
CONTINUOUS
 62
    7
 10
-26.028339612910692
 20
-9.9082423830712152
 11
-24.352294550485617
 21
-8.5698028302909055
  0
ARC
  8
_0-0_
  6
CONTINUOUS
 62
    7
 10
8.2432583539234461
 20
19.671841924715338
 40
0.4279555762988537
 50
48.084680933016614
 51
232.25823548415855
  0
ARC
  8
_0-0_
  6
CONTINUOUS
 62
    7
 10
11.148758338720464
 20
17.431488656434588
 40
0.4463844709593518
 50
236.48880965446284
 51
60.376847704335042
  0
LINE
  8
_0-0_
  6
CONTINUOUS
 62
    7
 10
7.9813051952282246
 20
19.333424256833055
 11
10.902309543873452
 21
17.059303101325163
  0
LINE
  8
_0-0_
  6
CONTINUOUS
 62
    7
 10
11.369403136165653
 20
17.81952856324061
 11
8.5291461752425963
 21
19.990297775512055
  0
ARC
  8
_0-0_
  6
CONTINUOUS
 62
    7
 10
10.404210674635999
 20
15.742837705237973
 40
0.4279555762988537
 50
48.084680933016614
 51
232.25823548415855
  0
ARC
  8
_0-0_
  6
CONTINUOUS
 62
    7
 10
13.309710659433017
 20
13.502484436957227
 40
0.4463844709593518
 50
236.48880965446284
 51
60.376847704335042
  0
LINE
  8
_0-0_
  6
CONTINUOUS
 62
    7
 10
10.142257515940779
 20
15.404420037355694
 11
13.063261864586005
 21
13.130298881847802
  0
LINE
  8
_0-0_
  6
CONTINUOUS
 62
    7
 10
13.530355456878207
 20
13.890524343763248
 11
10.69009849595515
 21
16.061293556034688
  0
ARC
  8
_0-0_
  6
CONTINUOUS
 62
    7
 10
5.3456177420588853
 20
11.617383274786738
 40
0.4279555762988537
 50
48.084680933016614
 51
232.25823548415855
  0
ARC
  8
_0-0_
  6
CONTINUOUS
 62
    7
 10
8.2511177268559042
 20
9.3770300065059917
 40
0.4463844709593518
 50
236.48880965446284
 51
60.376847704335042
  0
LINE
  8
_0-0_
  6
CONTINUOUS
 62
    7
 10
5.0836645833636647
 20
11.278965606904459
 11
8.004668932008892
 21
9.0048444513965666
  0
LINE
  8
_0-0_
  6
CONTINUOUS
 62
    7
 10
8.4717625243010932
 20
9.7650699133120131
 11
5.6315055633780355
 21
11.935839125583453
  0
ARC
  8
_0-0_
  6
CONTINUOUS
 62
    7
 10
13.70563757558285
 20
15.986138238875894
 40
0.4279555762988537
 50
50.084680933016614
 51
234.25823548415855
  0
ARC
  8
_0-0_
  6
CONTINUOUS
 62
    7
 10
16.687554809791926
 20
13.848550220412404
 40
0.4463844709593518
 50
238.48880965446287
 51
62.376847704335042
  0
LINE
  8
_0-0_
  6
CONTINUOUS
 62
    7
 10
13.455654597958494
 20
15.638784692495054
 11
16.454245233445157
 21
13.467990451783937
  0
LINE
  8
_0-0_
  6
CONTINUOUS
 62
    7
 10
16.894522798940109
 20
14.244054136172551
 11
13.980237292850925
 21
16.314377436050108
  0
ARC
  8
_0-0_
  6
CONTINUOUS
 62
    7
 10
18.813343060903428
 20
12.597372099576663
 40
0.4279555762988537
 50
50.084680933016614
 51
234.25823548415855
  0
ARC
  8
_0-0_
  6
CONTINUOUS
 62
    7
 10
21.795260295112506
 20
10.459784081113174
 40
0.4463844709593518
 50
238.48880965446287
 51
62.376847704335042
  0
LINE
  8
_0-0_
  6
CONTINUOUS
 62
    7
 10
18.563360083279072
 20
12.250018553195824
 11
21.561950718765736
 21
10.079224312484707
  0
LINE
  8
_0-0_
  6
CONTINUOUS
 62
    7
 10
22.002228284260688
 20
10.85528799687332
 11
19.087942778171502
 21
12.925611296750875
  0
ARC
  8
_0-0_
  6
CONTINUOUS
 62
    7
 10
23.479035571532798
 20
9.552393829481705
 40
0.4279555762988537
 50
50.084680933016614
 51
234.25823548415855
  0
ARC
  8
_0-0_
  6
CONTINUOUS
 62
    7
 10
26.460952805741876
 20
7.4148058110182156
 40
0.4463844709593518
 50
238.48880965446287
 51
62.376847704335042
  0
LINE
  8
_0-0_
  6
CONTINUOUS
 62
    7
 10
23.229052593908442
 20
9.2050402831008658
 11
26.227643229395106
 21
7.0342460423897482
  0
LINE
  8
_0-0_
  6
CONTINUOUS
 62
    7
 10
26.667920794890058
 20
7.8103097267783621
 11
23.753635288800872
 21
9.8806330266559161
  0
ARC
  8
_0-0_
  6
CONTINUOUS
 62
    7
 10
15.424576921604208
 20
12.450034441346263
 40
0.4279555762988537
 50
50.084680933016614
 51
234.25823548415855
  0
ARC
  8
_0-0_
  6
CONTINUOUS
 62
    7
 10
18.406494155813284
 20
10.312446422882774
 40
0.4463844709593518
 50
238.48880965446287
 51
62.376847704335042
  0
LINE
  8
_0-0_
  6
CONTINUOUS
 62
    7
 10
15.174593943979852
 20
12.102680894965424
 11
18.173184579466515
 21
9.9318866542543063
  0
LINE
  8
_0-0_
  6
CONTINUOUS
 62
    7
 10
18.613462144961467
 20
10.70795033864292
 11
15.699176638872283
 21
12.778273638520474
  0
ARC
  8
_0-0_
  6
CONTINUOUS
 62
    7
 10
20.483169854181305
 20
9.0121557493035684
 40
0.4279555762988537
 50
50.084680933016614
 51
234.25823548415855
  0
ARC
  8
_0-0_
  6
CONTINUOUS
 62
    7
 10
23.465087088390383
 20
6.8745677308400781
 40
0.4463844709593518
 50
238.48880965446287
 51
62.376847704335042
  0
LINE
  8
_0-0_
  6
CONTINUOUS
 62
    7
 10
20.23318687655695
 20
8.6648022029227274
 11
23.231777512043614
 21
6.4940079622116107
  0
LINE
  8
_0-0_
  6
CONTINUOUS
 62
    7
 10
23.672055077538566
 20
7.2700716466002246
 11
20.75776957144938
 21
9.3403949464777778
  0
ARC
  8
_0-0_
  6
CONTINUOUS
 62
    7
 10
12.232260993278837
 20
12.155359124885461
 40
0.4279555762988537
 50
50.084680933016614
 51
234.25823548415855
  0
ARC
  8
_0-0_
  6
CONTINUOUS
 62
    7
 10
15.214178227487915
 20
10.017771106421971
 40
0.4463844709593518
 50
238.48880965446287
 51
62.376847704335042
  0
LINE
  8
_0-0_
  6
CONTINUOUS
 62
    7
 10
11.982278015654481
 20
11.808005578504622
 11
14.980868651141146
 21
9.637211337793504
  0
LINE
  8
_0-0_
  6
CONTINUOUS
 62
    7
 10
15.421146216636098
 20
10.413275022182118
 11
12.506860710546912
 21
12.483598322059672
  0
ARC
  8
_0-0_
  6
CONTINUOUS
 62
    7
 10
8.4505944320318722
 20
11.958908913911593
 40
0.4279555762988537
 50
50.084680933016614
 51
234.25823548415855
  0
ARC
  8
_0-0_
  6
CONTINUOUS
 62
    7
 10
11.43251166624095
 20
9.8213208954481033
 40
0.4463844709593518
 50
238.48880965446287
 51
62.376847704335042
  0
LINE
  8
_0-0_
  6
CONTINUOUS
 62
    7
 10
8.2006114544075164
 20
11.611555367530753
 11
11.199202089894181
 21
9.4407611268196359
  0
LINE
  8
_0-0_
  6
CONTINUOUS
 62
    7
 10
11.639479655389133
 20
10.21682481120825
 11
8.7251941492999467
 21
12.287148111085804
  0
ARC
  8
_0-0_
  6
CONTINUOUS
 62
    7
 10
7.5665684826494664
 20
7.5387791669995554
 40
0.4279555762988537
 50
50.084680933016614
 51
234.25823548415855
  0
ARC
  8
_0-0_
  6
CONTINUOUS
 62
    7
 10
10.548485716858545
 20
5.401191148536066
 40
0.4463844709593518
 50
238.48880965446287
 51
62.376847704335042
  0
LINE
  8
_0-0_
  6
CONTINUOUS
 62
    7
 10
7.3165855050251105
 20
7.1914256206187162
 11
10.315176140511776
 21
5.0206313799075986
  0
LINE
  8
_0-0_
  6
CONTINUOUS
 62
    7
 10
10.755453706006728
 20
5.7966950642962125
 11
7.8411681999175409
 21
7.8670183641737665
  0
ARC
  8
_0-0_
  6
CONTINUOUS
 62
    7
 10
10.857109516461756
 20
8.079017247177692
 40
0.4279555762988537
 50
50.084680933016614
 51
234.25823548415855
  0
ARC
  8
_0-0_
  6
CONTINUOUS
 62
    7
 10
13.839026750670834
 20
5.9414292287142034
 40
0.4463844709593518
 50
238.48880965446287
 51
62.376847704335042
  0
LINE
  8
_0-0_
  6
CONTINUOUS
 62
    7
 10
10.607126538837401
 20
7.7316637007968536
 11
13.605717174324065
 21
5.560869460085736
  0
LINE
  8
_0-0_
  6
CONTINUOUS
 62
    7
 10
14.045994739819017
 20
6.33693314447435
 11
11.131709233729831
 21
8.4072564443519031
  0
ARC
  8
_0-0_
  6
CONTINUOUS
 62
    7
 10
14.294988208504458
 20
8.6192553273558321
 40
0.4279555762988537
 50
50.084680933016614
 51
234.25823548415855
  0
ARC
  8
_0-0_
  6
CONTINUOUS
 62
    7
 10
17.276905442713534
 20
6.4816673088923418
 40
0.4463844709593518
 50
238.48880965446287
 51
62.376847704335042
  0
LINE
  8
_0-0_
  6
CONTINUOUS
 62
    7
 10
14.045005230880102
 20
8.2719017809749928
 11
17.043595866366765
 21
6.1011075402638744
  0
LINE
  8
_0-0_
  6
CONTINUOUS
 62
    7
 10
17.483873431861717
 20
6.8771712246524883
 11
14.569587925772533
 21
8.9474945245300415
  0
ARC
  8
_0-0_
  6
CONTINUOUS
 62
    7
 10
17.045291162138604
 20
8.9139306438166326
 40
0.4279555762988537
 50
50.084680933016614
 51
234.25823548415855
  0
ARC
  8
_0-0_
  6
CONTINUOUS
 62
    7
 10
20.027208396347682
 20
6.776342625353144
 40
0.4463844709593518
 50
238.48880965446287
 51
62.376847704335042
  0
LINE
  8
_0-0_
  6
CONTINUOUS
 62
    7
 10
16.795308184514248
 20
8.5665770974357951
 11
19.793898820000912
 21
6.3957828567246766
  0
LINE
  8
_0-0_
  6
CONTINUOUS
 62
    7
 10
20.234176385495864
 20
7.1718465411132906
 11
17.319890879406678
 21
9.2421698409908455
  0
ARC
  8
_0-0_
  6
CONTINUOUS
 62
    7
 10
15.866589896295404
 20
4.7884762133653993
 40
0.4279555762988537
 50
50.084680933016614
 51
234.25823548415855
  0
ARC
  8
_0-0_
  6
CONTINUOUS
 62
    7
 10
18.84850713050448
 20
2.6508881949019099
 40
0.4463844709593518
 50
238.48880965446287
 51
62.376847704335042
  0
LINE
  8
_0-0_
  6
CONTINUOUS
 62
    7
 10
15.616606918671048
 20
4.44112266698456
 11
18.61519755415771
 21
2.2703284262734424
  0
LINE
  8
_0-0_
  6
CONTINUOUS
 62
    7
 10
19.055475119652662
 20
3.0463921106620564
 11
16.141189613563476
 21
5.1167154105396104
  0
ARC
  8
_0-0_
  6
CONTINUOUS
 62
    7
 10
13.067174389917776
 20
4.0026753694699249
 40
0.4279555762988537
 50
50.084680933016614
 51
234.25823548415855
  0
ARC
  8
_0-0_
  6
CONTINUOUS
 62
    7
 10
16.049091624126852
 20
1.8650873510064354
 40
0.4463844709593518
 50
238.48880965446287
 51
62.376847704335042
  0
LINE
  8
_0-0_
  6
CONTINUOUS
 62
    7
 10
12.81719141229342
 20
3.6553218230890856
 11
15.815782047780084
 21
1.484527582377968
  0
LINE
  8
_0-0_
  6
CONTINUOUS
 62
    7
 10
16.256059613275035
 20
2.260591266766582
 11
13.34177410718585
 21
4.330914566644136
  0
ARC
  8
_0-0_
  6
CONTINUOUS
 62
    7
 10
19.353581141081555
 20
5.0340389770827336
 40
0.4279555762988537
 50
50.084680933016614
 51
234.25823548415855
  0
ARC
  8
_0-0_
  6
CONTINUOUS
 62
    7
 10
22.335498375290634
 20
2.8964509586192442
 40
0.4463844709593518
 50
238.48880965446287
 51
62.376847704335042
  0
LINE
  8
_0-0_
  6
CONTINUOUS
 62
    7
 10
19.1035981634572
 20
4.6866854307018944
 11
22.102188798943864
 21
2.5158911899907768
  0
LINE
  8
_0-0_
  6
CONTINUOUS
 62
    7
 10
22.542466364438816
 20
3.2919548743793907
 11
19.62818085834963
 21
5.3622781742569448
  0
ARC
  8
_0-0_
  6
CONTINUOUS
 62
    7
 10
22.349446858433062
 20
5.6233896100043381
 40
0.4279555762988537
 50
50.084680933016614
 51
234.25823548415855
  0
ARC
  8
_0-0_
  6
CONTINUOUS
 62
    7
 10
25.33136409264214
 20
3.4858015915408487
 40
0.4463844709593518
 50
238.48880965446287
 51
62.376847704335042
  0
LINE
  8
_0-0_
  6
CONTINUOUS
 62
    7
 10
22.099463880808706
 20
5.2760360636234989
 11
25.09805451629537
 21
3.1052418229123813
  0
LINE
  8
_0-0_
  6
CONTINUOUS
 62
    7
 10
25.538332081790323
 20
3.8813055073009952
 11
22.624046575701136
 21
5.9516288071785493
  0
ARC
  8
_0-0_
  6
CONTINUOUS
 62
    7
 10
25.443537681271486
 20
5.9671774792086083
 40
0.4279555762988537
 50
50.084680933016614
 51
234.25823548415855
  0
ARC
  8
_0-0_
  6
CONTINUOUS
 62
    7
 10
28.425454915480564
 20
3.8295894607451189
 40
0.4463844709593518
 50
238.48880965446287
 51
62.376847704335042
  0
LINE
  8
_0-0_
  6
CONTINUOUS
 62
    7
 10
25.193554703647131
 20
5.619823932827769
 11
28.192145339133795
 21
3.4490296921166514
  0
LINE
  8
_0-0_
  6
CONTINUOUS
 62
    7
 10
28.632422904628747
 20
4.2250933765052654
 11
25.718137398539561
 21
6.2954166763828194
  0
ARC
  8
_0-0_
  6
CONTINUOUS
 62
    7
 10
27.850052765701371
 20
6.4091904538998126
 40
0.4279555762988537
 50
50.084680933016614
 51
234.25823548415855
  0
ARC
  8
_0-0_
  6
CONTINUOUS
 62
    7
 10
30.831969999910449
 20
4.2716024354363231
 40
0.4463844709593518
 50
238.48880965446287
 51
62.376847704335042
  0
LINE
  8
_0-0_
  6
CONTINUOUS
 62
    7
 10
27.600069788077015
 20
6.0618369075189733
 11
30.598660423563679
 21
3.8910426668078557
  0
LINE
  8
_0-0_
  6
CONTINUOUS
 62
    7
 10
31.038937989058631
 20
4.6671063511964697
 11
28.124652482969445
 21
6.7374296510740237
  0
ARC
  8
_0-0_
  6
CONTINUOUS
 62
    7
 10
21.268970698076778
 20
1.547047732296571
 40
0.4279555762988537
 50
50.084680933016614
 51
234.25823548415855
  0
ARC
  8
_0-0_
  6
CONTINUOUS
 62
    7
 10
24.250887932285856
 20
-0.5905402861669184
 40
0.4463844709593518
 50
238.48880965446287
 51
62.376847704335042
  0
LINE
  8
_0-0_
  6
CONTINUOUS
 62
    7
 10
21.018987720452422
 20
1.1996941859157317
 11
24.017578355939087
 21
-0.9711000547953858
  0
LINE
  8
_0-0_
  6
CONTINUOUS
 62
    7
 10
24.457855921434039
 20
-0.1950363704067719
 11
21.543570415344853
 21
1.8752869294707821
  0
ARC
  8
_0-0_
  6
CONTINUOUS
 62
    7
 10
18.322217533468752
 20
1.0559222048619006
 40
0.4279555762988537
 50
50.084680933016614
 51
234.25823548415855
  0
ARC
  8
_0-0_
  6
CONTINUOUS
 62
    7
 10
21.30413476767783
 20
-1.0816658136015889
 40
0.4463844709593518
 50
238.48880965446287
 51
62.376847704335042
  0
LINE
  8
_0-0_
  6
CONTINUOUS
 62
    7
 10
18.072234555844396
 20
0.7085686584810613
 11
21.07082519133106
 21
-1.4622255822300563
  0
LINE
  8
_0-0_
  6
CONTINUOUS
 62
    7
 10
21.511102756826013
 20
-0.6861618978414423
 11
18.596817250736827
 21
1.3841614020361117
  0
ARC
  8
_0-0_
  6
CONTINUOUS
 62
    7
 10
24.313948968171736
 20
1.8908356015008412
 40
0.4279555762988537
 50
50.084680933016614
 51
234.25823548415855
  0
ARC
  8
_0-0_
  6
CONTINUOUS
 62
    7
 10
27.295866202380815
 20
-0.2467524169626482
 40
0.4463844709593518
 50
238.48880965446287
 51
62.376847704335042
  0
LINE
  8
_0-0_
  6
CONTINUOUS
 62
    7
 10
24.063965990547381
 20
1.5434820551200019
 11
27.062556626034045
 21
-0.6273121855911156
  0
LINE
  8
_0-0_
  6
CONTINUOUS
 62
    7
 10
27.502834191528997
 20
0.1487514987974982
 11
24.588548685439811
 21
2.2190747986750523
  0
ARC
  8
_0-0_
  6
CONTINUOUS
 62
    7
 10
26.769576605345101
 20
2.6766364453963138
 40
0.4279555762988537
 50
50.084680933016614
 51
234.25823548415855
  0
ARC
  8
_0-0_
  6
CONTINUOUS
 62
    7
 10
29.751493839554179
 20
0.5390484269328244
 40
0.4463844709593518
 50
238.48880965446287
 51
62.376847704335042
  0
LINE
  8
_0-0_
  6
CONTINUOUS
 62
    7
 10
26.519593627720745
 20
2.3292828990154746
 11
29.518184263207409
 21
0.1584886583043569
  0
LINE
  8
_0-0_
  6
CONTINUOUS
 62
    7
 10
29.958461828702362
 20
0.9345523426929709
 11
27.044176322613176
 21
3.004875642570525
  0
ARC
  8
_0-0_
  6
CONTINUOUS
 62
    7
 10
29.863667428183518
 20
3.069536867344052
 40
0.4279555762988537
 50
50.084680933016614
 51
234.25823548415855
  0
ARC
  8
_0-0_
  6
CONTINUOUS
 62
    7
 10
32.845584662392596
 20
0.9319488488805625
 40
0.4463844709593518
 50
238.48880965446287
 51
62.376847704335042
  0
LINE
  8
_0-0_
  6
CONTINUOUS
 62
    7
 10
29.613684450559163
 20
2.7221833209632127
 11
32.612275086045827
 21
0.5513890802520951
  0
LINE
  8
_0-0_
  6
CONTINUOUS
 62
    7
 10
33.052552651540779
 20
1.327452764640709
 11
30.138267145451593
 21
3.3977760645182631
  0
ARC
  8
_0-0_
  6
CONTINUOUS
 62
    7
 10
23.197062362934297
 20
-1.9435085385277624
 40
0.4279555762988537
 50
52.084680933016614
 51
236.25823548415855
  0
ARC
  8
_0-0_
  6
CONTINUOUS
 62
    7
 10
26.251763839734672
 20
-3.9757269854436874
 40
0.4463844709593518
 50
240.48880965446287
 51
64.376847704335049
  0
LINE
  8
_0-0_
  6
CONTINUOUS
 62
    7
 10
22.959354132132127
 20
-2.2993747666166069
 11
26.03187773366836
 21
-4.3641973141338646
  0
LINE
  8
_0-0_
  6
CONTINUOUS
 62
    7
 10
26.444802861972072
 20
-3.5732409213280665
 11
23.460039418694642
 21
-1.6058859038764393
  0
ARC
  8
_0-0_
  6
CONTINUOUS
 62
    7
 10
25.996477869311924
 20
-1.3541579056061614
 40
0.4279555762988537
 50
52.084680933016614
 51
236.25823548415855
  0
ARC
  8
_0-0_
  6
CONTINUOUS
 62
    7
 10
29.051179346112299
 20
-3.3863763525220865
 40
0.4463844709593518
 50
240.48880965446287
 51
64.376847704335049
  0
LINE
  8
_0-0_
  6
CONTINUOUS
 62
    7
 10
25.758769638509754
 20
-1.7100241336950059
 11
28.831293240045987
 21
-3.7748466812122636
  0
LINE
  8
_0-0_
  6
CONTINUOUS
 62
    7
 10
29.244218368349699
 20
-2.9838902884064655
 11
26.259454925072269
 21
-1.0165352709548383
  0
ARC
  8
_0-0_
  6
CONTINUOUS
 62
    7
 10
28.648555717459139
 20
-0.666582167197621
 40
0.4279555762988537
 50
52.084680933016614
 51
236.25823548415855
  0
ARC
  8
_0-0_
  6
CONTINUOUS
 62
    7
 10
31.703257194259514
 20
-2.6988006141135461
 40
0.4463844709593518
 50
240.48880965446287
 51
64.376847704335049
  0
LINE
  8
_0-0_
  6
CONTINUOUS
 62
    7
 10
28.410847486656969
 20
-1.0224483952864656
 11
31.483371088193202
 21
-3.0872709428037233
  0
LINE
  8
_0-0_
  6
CONTINUOUS
 62
    7
 10
31.896296216496914
 20
-2.2963145499979252
 11
28.911532773219484
 21
-0.3289595325462979
  0
ARC
  8
_0-0_
  6
CONTINUOUS
 62
    7
 10
32.140924649619038
 20
3.5536587036565308
 40
0.3851600186689683
 50
52.084680933016614
 51
236.25823548415855
  0
ARC
  8
_0-0_
  6
CONTINUOUS
 62
    7
 10
34.890155978739372
 20
1.7246621014321999
 40
0.4017460238634166
 50
240.48880965446287
 51
64.376847704335049
  0
LINE
  8
_0-0_
  6
CONTINUOUS
 62
    7
 10
31.926987241897081
 20
3.233379098376572
 11
34.692258483279701
 21
1.3750388056110392
  0
LINE
  8
_0-0_
  6
CONTINUOUS
 62
    7
 10
35.063891098753032
 20
2.0868995591362687
 11
32.377603999803341
 21
3.8575190748427222
  0
ARC
  8
_0-0_
  6
CONTINUOUS
 62
    7
 10
35.922591210866003
 20
0.8524683027658408
 40
0.3851600186689683
 50
52.084680933016614
 51
236.25823548415855
  0
ARC
  8
_0-0_
  6
CONTINUOUS
 62
    7
 10
38.671822539986337
 20
-0.97652829945849
 40
0.4017460238634166
 50
240.48880965446287
 51
64.376847704335049
  0
LINE
  8
_0-0_
  6
CONTINUOUS
 62
    7
 10
35.708653803144045
 20
0.532188697485882
 11
38.473925044526666
 21
-1.3261515952796508
  0
LINE
  8
_0-0_
  6
CONTINUOUS
 62
    7
 10
38.845557659999997
 20
-0.6142908417544212
 11
36.159270561050306
 21
1.1563286739520322
  0
ARC
  8
_0-0_
  6
CONTINUOUS
 62
    7
 10
33.761638890153449
 20
0.2140051171007684
 40
0.3851600186689683
 50
52.084680933016614
 51
236.25823548415855
  0
ARC
  8
_0-0_
  6
CONTINUOUS
 62
    7
 10
36.510870219273784
 20
-1.6149914851235625
 40
0.4017460238634166
 50
240.48880965446287
 51
64.376847704335049
  0
LINE
  8
_0-0_
  6
CONTINUOUS
 62
    7
 10
33.547701482431492
 20
-0.1062744881791903
 11
36.312972723814113
 21
-1.9646147809447232
  0
LINE
  8
_0-0_
  6
CONTINUOUS
 62
    7
 10
36.684605339287444
 20
-1.2527540274194937
 11
33.998318240337753
 21
0.5178654882869597
  0
ARC
  8
_0-0_
  6
CONTINUOUS
 62
    7
 10
31.109561042006227
 20
-0.228007857590434
 40
0.3851600186689683
 50
52.084680933016614
 51
236.25823548415855
  0
ARC
  8
_0-0_
  6
CONTINUOUS
 62
    7
 10
33.858792371126562
 20
-2.057004459814765
 40
0.4017460238634166
 50
240.48880965446287
 51
64.376847704335049
  0
LINE
  8
_0-0_
  6
CONTINUOUS
 62
    7
 10
30.89562363428427
 20
-0.5482874628703928
 11
33.660894875666891
 21
-2.4066277556359257
  0
LINE
  8
_0-0_
  6
CONTINUOUS
 62
    7
 10
34.032527491140222
 20
-1.6947670021106962
 11
31.346240392190531
 21
0.0758525135957572
  0
ARC
  8
_0-0_
  6
CONTINUOUS
 62
    7
 10
33.024950599001443
 20
-3.5676614441461965
 40
0.3851600186689683
 50
52.084680933016614
 51
236.25823548415855
  0
ARC
  8
_0-0_
  6
CONTINUOUS
 62
    7
 10
35.774181928121777
 20
-5.3966580463705274
 40
0.4017460238634166
 50
240.48880965446287
 51
64.376847704335049
  0
LINE
  8
_0-0_
  6
CONTINUOUS
 62
    7
 10
32.811013191279486
 20
-3.8879410494261553
 11
35.576284432662106
 21
-5.7462813421916881
  0
LINE
  8
_0-0_
  6
CONTINUOUS
 62
    7
 10
35.947917048135437
 20
-5.0344205886664586
 11
33.261629949185746
 21
-3.2638010729600051
  0
ARC
  8
_0-0_
  6
CONTINUOUS
 62
    7
 10
30.323760198110755
 20
-3.9114493133504631
 40
0.3851600186689683
 50
52.084680933016614
 51
236.25823548415855
  0
ARC
  8
_0-0_
  6
CONTINUOUS
 62
    7
 10
33.072991527231089
 20
-5.740445915574794
 40
0.4017460238634166
 50
240.48880965446287
 51
64.376847704335049
  0
LINE
  8
_0-0_
  6
CONTINUOUS
 62
    7
 10
30.109822790388797
 20
-4.2317289186304219
 11
32.875094031771418
 21
-6.0900692113959547
  0
LINE
  8
_0-0_
  6
CONTINUOUS
 62
    7
 10
33.246726647244749
 20
-5.3782084578707252
 11
30.560439548295058
 21
-3.6075889421642717
  0
ARC
  8
_0-0_
  6
CONTINUOUS
 62
    7
 10
27.769907455450472
 20
-4.8445878154763413
 40
0.3851600186689683
 50
52.084680933016614
 51
236.25823548415855
  0
ARC
  8
_0-0_
  6
CONTINUOUS
 62
    7
 10
30.519138784570806
 20
-6.6735844177006722
 40
0.4017460238634166
 50
240.48880965446287
 51
64.376847704335049
  0
LINE
  8
_0-0_
  6
CONTINUOUS
 62
    7
 10
27.555970047728515
 20
-5.1648674207563001
 11
30.321241289111136
 21
-7.0232077135218329
  0
LINE
  8
_0-0_
  6
CONTINUOUS
 62
    7
 10
30.692873904584467
 20
-6.3113469599966034
 11
28.006586805634775
 21
-4.54072744429015
  0
ARC
  8
_0-0_
  6
CONTINUOUS
 62
    7
 10
31.846249333158234
 20
-7.3002154526496916
 40
0.3851600186689683
 50
52.084680933016614
 51
236.25823548415855
  0
ARC
  8
_0-0_
  6
CONTINUOUS
 62
    7
 10
34.595480662278568
 20
-9.1292120548740225
 40
0.4017460238634166
 50
240.48880965446287
 51
64.376847704335049
  0
LINE
  8
_0-0_
  6
CONTINUOUS
 62
    7
 10
31.632311925436277
 20
-7.6204950579296504
 11
34.397583166818897
 21
-9.4788353506951832
  0
LINE
  8
_0-0_
  6
CONTINUOUS
 62
    7
 10
34.769215782292228
 20
-8.7669745971699538
 11
32.082928683342537
 21
-6.9963550814635003
  0
ARC
  8
_0-0_
  6
CONTINUOUS
 62
    7
 10
34.252764417588118
 20
-6.4653020560107528
 40
0.3851600186689683
 50
52.084680933016614
 51
236.25823548415855
  0
ARC
  8
_0-0_
  6
CONTINUOUS
 62
    7
 10
37.001995746708452
 20
-8.2942986582350837
 40
0.4017460238634166
 50
240.48880965446287
 51
64.376847704335049
  0
LINE
  8
_0-0_
  6
CONTINUOUS
 62
    7
 10
34.038827009866161
 20
-6.7855816612907116
 11
36.804098251248782
 21
-8.6439219540562444
  0
LINE
  8
_0-0_
  6
CONTINUOUS
 62
    7
 10
37.175730866722112
 20
-7.9320612005310149
 11
34.489443767772421
 21
-6.1614416848245614
  0
ARC
  8
_0-0_
  6
CONTINUOUS
 62
    7
 10
36.610166949274543
 20
-5.8759514230891519
 40
0.3851600186689683
 50
52.084680933016614
 51
236.25823548415855
  0
ARC
  8
_0-0_
  6
CONTINUOUS
 62
    7
 10
39.359398278394877
 20
-7.7049480253134828
 40
0.4017460238634166
 50
240.48880965446287
 51
64.376847704335049
  0
LINE
  8
_0-0_
  6
CONTINUOUS
 62
    7
 10
36.396229541552586
 20
-6.1962310283691107
 11
39.161500782935207
 21
-8.0545713211346435
  0
LINE
  8
_0-0_
  6
CONTINUOUS
 62
    7
 10
39.533133398408538
 20
-7.342710567609414
 11
36.846846299458846
 21
-5.5720910519029605
  0
ARC
  8
_0-0_
  6
CONTINUOUS
 62
    7
 10
35.13679036697053
 20
-2.6836354947637879
 40
0.3851600186689683
 50
52.084680933016614
 51
236.25823548415855
  0
ARC
  8
_0-0_
  6
CONTINUOUS
 62
    7
 10
37.886021696090864
 20
-4.5126320969881188
 40
0.4017460238634166
 50
240.48880965446287
 51
64.376847704335049
  0
LINE
  8
_0-0_
  6
CONTINUOUS
 62
    7
 10
34.922852959248573
 20
-3.0039151000437467
 11
37.688124200631194
 21
-4.8622553928092795
  0
LINE
  8
_0-0_
  6
CONTINUOUS
 62
    7
 10
38.059756816104525
 20
-4.1503946392840501
 11
35.373469717154833
 21
-2.3797751235775966
  0
ARC
  8
_0-0_
  6
CONTINUOUS
 62
    7
 10
39.753370324856441
 20
-1.7504969926379133
 40
0.3851600186689683
 50
52.084680933016614
 51
236.25823548415855
  0
ARC
  8
_0-0_
  6
CONTINUOUS
 62
    7
 10
42.502601653976775
 20
-3.5794935948622442
 40
0.4017460238634166
 50
240.48880965446287
 51
64.376847704335049
  0
LINE
  8
_0-0_
  6
CONTINUOUS
 62
    7
 10
39.539432917134484
 20
-2.0707765979178721
 11
42.304704158517104
 21
-3.9291168906834049
  0
LINE
  8
_0-0_
  6
CONTINUOUS
 62
    7
 10
42.676336773990435
 20
-3.2172561371581754
 11
39.990049675040744
 21
-1.4466366214517219
  0
ARC
  8
_0-0_
  6
CONTINUOUS
 62
    7
 10
36.075306556470139
 20
-9.5137189911897178
 40
0.342364461039083
 50
52.084680933016614
 51
236.25823548415855
  0
ARC
  8
_0-0_
  6
CONTINUOUS
 62
    7
 10
38.519067737910447
 20
-11.139493748722465
 40
0.3571075767674814
 50
240.48880965446287
 51
64.376847704335049
  0
LINE
  8
_0-0_
  6
CONTINUOUS
 62
    7
 10
35.885139971828394
 20
-9.7984119736607997
 11
38.343158853057389
 21
-11.450270011674599
  0
LINE
  8
_0-0_
  6
CONTINUOUS
 62
    7
 10
38.673498955700353
 20
-10.817504897429965
 11
36.285688201078401
 21
-9.2436208834686582
  0
ARC
  8
_0-0_
  6
CONTINUOUS
 62
    7
 10
38.285371429926158
 20
-8.973480911011583
 40
0.342364461039083
 50
52.084680933016614
 51
236.25823548415855
  0
ARC
  8
_0-0_
  6
CONTINUOUS
 62
    7
 10
40.729132611366467
 20
-10.59925566854433
 40
0.3571075767674814
 50
240.48880965446287
 51
64.376847704335049
  0
LINE
  8
_0-0_
  6
CONTINUOUS
 62
    7
 10
38.095204845284414
 20
-9.258173893482665
 11
40.553223726513409
 21
-10.910031931496464
  0
LINE
  8
_0-0_
  6
CONTINUOUS
 62
    7
 10
40.883563829156373
 20
-10.27726681725183
 11
38.49575307453442
 21
-8.7033828032905234
  0
ARC
  8
_0-0_
  6
CONTINUOUS
 62
    7
 10
39.611410353999766
 20
-11.82200897013267
 40
0.342364461039083
 50
52.084680933016614
 51
236.25823548415855
  0
ARC
  8
_0-0_
  6
CONTINUOUS
 62
    7
 10
42.055171535440074
 20
-13.447783727665417
 40
0.3571075767674814
 50
240.48880965446287
 51
64.376847704335049
  0
LINE
  8
_0-0_
  6
CONTINUOUS
 62
    7
 10
39.421243769358021
 20
-12.106701952603752
 11
41.879262650587016
 21
-13.758559990617551
  0
LINE
  8
_0-0_
  6
CONTINUOUS
 62
    7
 10
42.20960275322998
 20
-13.125794876372916
 11
39.821791998608028
 21
-11.55191086241161
  0
ARC
  8
_0-0_
  6
CONTINUOUS
 62
    7
 10
41.625025016481921
 20
-11.085320678980663
 40
0.342364461039083
 50
52.084680933016614
 51
236.25823548415855
  0
ARC
  8
_0-0_
  6
CONTINUOUS
 62
    7
 10
44.068786197922229
 20
-12.711095436513411
 40
0.3571075767674814
 50
240.48880965446287
 51
64.376847704335049
  0
LINE
  8
_0-0_
  6
CONTINUOUS
 62
    7
 10
41.434858431840176
 20
-11.370013661451745
 11
43.892877313069171
 21
-13.021871699465544
  0
LINE
  8
_0-0_
  6
CONTINUOUS
 62
    7
 10
44.223217415712135
 20
-12.38910658522091
 11
41.835406661090182
 21
-10.815222571259604
  0
ARC
  8
_0-0_
  6
CONTINUOUS
 62
    7
 10
40.59366140886911
 20
-8.2367926198595764
 40
0.342364461039083
 50
52.084680933016614
 51
236.25823548415855
  0
ARC
  8
_0-0_
  6
CONTINUOUS
 62
    7
 10
43.037422590309419
 20
-9.8625673773923239
 40
0.3571075767674814
 50
240.48880965446287
 51
64.376847704335049
  0
LINE
  8
_0-0_
  6
CONTINUOUS
 62
    7
 10
40.403494824227366
 20
-8.5214856023306584
 11
42.86151370545636
 21
-10.173343640344457
  0
LINE
  8
_0-0_
  6
CONTINUOUS
 62
    7
 10
43.191853808099324
 20
-9.5405785260998233
 11
40.804043053477372
 21
-7.9666945121385169
  0
ARC
  8
_0-0_
  6
CONTINUOUS
 62
    7
 10
38.972947168334692
 20
-5.2900394552515468
 40
0.342364461039083
 50
52.084680933016614
 51
236.25823548415855
  0
ARC
  8
_0-0_
  6
CONTINUOUS
 62
    7
 10
41.416708349775
 20
-6.9158142127842943
 40
0.3571075767674814
 50
240.48880965446287
 51
64.376847704335049
  0
LINE
  8
_0-0_
  6
CONTINUOUS
 62
    7
 10
38.782780583692947
 20
-5.5747324377226288
 11
41.240799464921942
 21
-7.2265904757364279
  0
LINE
  8
_0-0_
  6
CONTINUOUS
 62
    7
 10
41.571139567564906
 20
-6.5938253614917937
 11
39.183328812942953
 21
-5.0199413475304873
  0
ARC
  8
_0-0_
  6
CONTINUOUS
 62
    7
 10
37.548683138774152
 20
-2.2941737379000582
 40
0.342364461039083
 50
52.084680933016614
 51
236.25823548415855
  0
ARC
  8
_0-0_
  6
CONTINUOUS
 62
    7
 10
39.99244432021446
 20
-3.9199484954328057
 40
0.3571075767674814
 50
240.48880965446287
 51
64.376847704335049
  0
LINE
  8
_0-0_
  6
CONTINUOUS
 62
    7
 10
37.358516554132407
 20
-2.5788667203711402
 11
39.816535435361402
 21
-4.2307247583849392
  0
LINE
  8
_0-0_
  6
CONTINUOUS
 62
    7
 10
40.146875538004366
 20
-3.597959644140305
 11
37.759064783382414
 21
-2.0240756301789986
  0
ARC
  8
_0-0_
  6
CONTINUOUS
 62
    7
 10
41.133899489047245
 20
-4.7498013750734085
 40
0.342364461039083
 50
52.084680933016614
 51
236.25823548415855
  0
ARC
  8
_0-0_
  6
CONTINUOUS
 62
    7
 10
43.577660670487553
 20
-6.375576132606156
 40
0.3571075767674814
 50
240.48880965446287
 51
64.376847704335049
  0
LINE
  8
_0-0_
  6
CONTINUOUS
 62
    7
 10
40.943732904405501
 20
-5.0344943575444905
 11
43.401751785634495
 21
-6.6863523955582895
  0
LINE
  8
_0-0_
  6
CONTINUOUS
 62
    7
 10
43.732091888277459
 20
-6.0535872813136553
 11
41.344281133655507
 21
-4.4797032673523489
  0
ARC
  8
_0-0_
  6
CONTINUOUS
 62
    7
 10
43.442189467990197
 20
-4.307788400382206
 40
0.342364461039083
 50
52.084680933016614
 51
236.25823548415855
  0
ARC
  8
_0-0_
  6
CONTINUOUS
 62
    7
 10
45.885950649430505
 20
-5.9335631579149535
 40
0.3571075767674814
 50
240.48880965446287
 51
64.376847704335049
  0
LINE
  8
_0-0_
  6
CONTINUOUS
 62
    7
 10
43.252022883348452
 20
-4.592481382853288
 11
45.710041764577447
 21
-6.244339420867087
  0
LINE
  8
_0-0_
  6
CONTINUOUS
 62
    7
 10
46.040381867220411
 20
-5.6115743066224528
 11
43.652571112598459
 21
-4.0376902926611464
  0
LINE
  8
_0-0_
  6
CONTINUOUS
 62
    7
 10
-10.933841287157351
 20
-7.8288083464940428
 11
-9.0322918633792781
 21
-6.4674718271983771
  0
LINE
  8
_0-0_
  6
CONTINUOUS
 62
    7
 10
-9.0322918633792781
 20
-6.4674718271983771
 11
-5.553320758512573
 21
-4.2850116930894497
  0
LINE
  8
_0-0_
  6
CONTINUOUS
 62
    7
 10
-5.553320758512573
 20
-4.2850116930894497
 11
-4.3432438524719812
 21
-3.7447987886070422
  0
LINE
  8
_0-0_
  6
CONTINUOUS
 62
    7
 10
-4.3432438524719812
 20
-3.7447987886070422
 11
-3.3708606244036474
 21
-3.6583647238898562
  0
LINE
  8
_0-0_
  6
CONTINUOUS
 62
    7
 10
-3.3708606244036474
 20
-3.6583647238898562
 11
-3.0683413978934988
 21
-3.7015817562484488
  0
LINE
  8
_0-0_
  6
CONTINUOUS
 62
    7
 10
-10.933841287157351
 20
-7.8288083464940428
 11
-10.977058319515946
 21
-8.3258042186178578
  0
LINE
  8
_0-0_
  6
CONTINUOUS
 62
    7
 10
-10.977058319515946
 20
-8.3258042186178578
 11
-11.063492384233131
 21
-9.082102284893228
  0
LINE
  8
_0-0_
  6
CONTINUOUS
 62
    7
 10
-11.063492384233131
 20
-9.082102284893228
 11
-10.890624254798761
 21
-9.579098157017043
  0
LINE
  8
_0-0_
  6
CONTINUOUS
 62
    7
 10
-10.890624254798761
 20
-9.579098157017043
 11
-10.501670963571426
 21
-9.9464429320650805
  0
LINE
  8
_0-0_
  6
CONTINUOUS
 62
    7
 10
-10.501670963571426
 20
-9.9464429320650805
 11
-10.004675091447611
 21
-10.205745126216636
  0
LINE
  8
_0-0_
  6
CONTINUOUS
 62
    7
 10
-10.004675091447611
 20
-10.205745126216636
 11
17.956744844561804
 21
-22.479382316056935
  0
LINE
  8
_0-0_
  6
CONTINUOUS
 62
    7
 10
17.956744844561804
 20
-22.479382316056935
 11
18.648217362299285
 21
-22.781901542567084
  0
LINE
  8
_0-0_
  6
CONTINUOUS
 62
    7
 10
18.648217362299285
 20
-22.781901542567084
 11
19.101996202064509
 21
-22.825118574925675
  0
LINE
  8
_0-0_
  6
CONTINUOUS
 62
    7
 10
19.101996202064509
 20
-22.825118574925675
 11
19.66381762272621
 21
-22.825118574925675
  0
LINE
  8
_0-0_
  6
CONTINUOUS
 62
    7
 10
19.66381762272621
 20
-22.825118574925675
 11
20.48494123753947
 21
-22.630641929312013
  0
LINE
  8
_0-0_
  6
CONTINUOUS
 62
    7
 10
20.48494123753947
 20
-22.630641929312013
 11
27.939879319396695
 21
-20.232096633410123
  0
LINE
  8
_0-0_
  6
CONTINUOUS
 62
    7
 10
27.939879319396695
 20
-20.232096633410123
 11
28.177572997368955
 21
-19.951185923079265
  0
LINE
  8
_0-0_
  6
CONTINUOUS
 62
    7
 10
28.177572997368955
 20
-19.951185923079265
 11
28.155964481189656
 21
-19.562232631851934
  0
LINE
  8
_0-0_
  6
CONTINUOUS
 62
    7
 10
28.155964481189656
 20
-19.562232631851934
 11
27.983096351755286
 21
-18.978802695010934
  0
LINE
  8
_0-0_
  6
CONTINUOUS
 62
    7
 10
27.983096351755286
 20
-18.978802695010934
 11
27.723794157603734
 21
-18.784326049397265
  0
LINE
  8
_0-0_
  6
CONTINUOUS
 62
    7
 10
26.881062026611179
 20
-19.324538953879674
 11
27.09714718840414
 21
-19.605449664210525
  0
LINE
  8
_0-0_
  6
CONTINUOUS
 62
    7
 10
27.09714718840414
 20
-19.605449664210525
 11
27.140364220762734
 21
-19.907968890720674
  0
LINE
  8
_0-0_
  6
CONTINUOUS
 62
    7
 10
27.140364220762734
 20
-19.907968890720674
 11
26.945887575149069
 21
-20.124054052513635
  0
LINE
  8
_0-0_
  6
CONTINUOUS
 62
    7
 10
26.945887575149069
 20
-20.124054052513635
 11
19.728643171264103
 21
-22.479382316056935
  0
LINE
  8
_0-0_
  6
CONTINUOUS
 62
    7
 10
19.728643171264103
 20
-22.479382316056935
 11
19.210038782960993
 21
-22.457773799877636
  0
LINE
  8
_0-0_
  6
CONTINUOUS
 62
    7
 10
19.210038782960993
 20
-22.457773799877636
 11
18.648217362299288
 21
-22.198471605726084
  0
LINE
  8
_0-0_
  6
CONTINUOUS
 62
    7
 10
18.648217362299288
 20
-22.198471605726084
 11
-8.0815171514902406
 21
-10.292179190933817
  0
LINE
  8
_0-0_
  6
CONTINUOUS
 62
    7
 10
-8.0815171514902406
 20
-10.292179190933817
 11
-8.1247341838488296
 21
-10.097702545320153
  0
LINE
  8
_0-0_
  6
CONTINUOUS
 62
    7
 10
-8.1247341838488296
 20
-10.097702545320153
 11
-7.8870405058765707
 21
-9.6439237055549309
  0
LINE
  8
_0-0_
  6
CONTINUOUS
 62
    7
 10
-7.8870405058765707
 20
-9.6439237055549309
 11
-3.8246394641688672
 21
-7.180552861115153
  0
LINE
  8
_0-0_
  6
CONTINUOUS
 62
    7
 10
-3.8246394641688672
 20
-7.180552861115153
 11
-3.4356861729415336
 21
-6.9644676993221886
  0
LINE
  8
_0-0_
  6
CONTINUOUS
 62
    7
 10
-3.4356861729415336
 20
-6.9644676993221886
 11
-2.9602988169970139
 21
-6.9860762155014857
  0
LINE
  8
_0-0_
  6
CONTINUOUS
 62
    7
 10
-2.9602988169970139
 20
-6.9860762155014857
 11
-2.5281284934110886
 21
-7.0725102802186708
  0
LINE
  8
_0-0_
  6
CONTINUOUS
 62
    7
 10
-2.5281284934110886
 20
-7.0725102802186708
 11
-2.1607837183630507
 21
-7.3102039581909297
  0
LINE
  8
_0-0_
  6
CONTINUOUS
 62
    7
 10
-2.1607837183630507
 20
-7.3102039581909297
 11
24.201606020378431
 21
-19.713492245107005
  0
LINE
  8
_0-0_
  6
CONTINUOUS
 62
    7
 10
24.201606020378431
 20
-19.713492245107005
 11
24.288040085095616
 21
-19.864751858362084
  0
LINE
  8
_0-0_
  6
CONTINUOUS
 62
    7
 10
24.288040085095616
 20
-19.864751858362084
 11
24.201606020378435
 21
-20.102445536334344
  0
LINE
  8
_0-0_
  6
CONTINUOUS
 62
    7
 10
24.201606020378435
 20
-20.102445536334344
 11
19.361298396216061
 21
-22.241688638084675
  0
LINE
  8
_0-0_
  6
CONTINUOUS
 62
    7
 10
19.361298396216061
 20
-22.241688638084675
 11
19.296472847678174
 21
-22.176863089546785
  0
LINE
  8
_0-0_
  6
CONTINUOUS
 62
    7
 10
19.296472847678174
 20
-22.176863089546785
 11
19.166821750602395
 21
-22.241688638084675
  0
LINE
  8
_0-0_
  6
CONTINUOUS
 62
    7
 10
19.166821750602395
 20
-22.241688638084675
 11
18.885911040271544
 21
-22.241688638084675
  0
LINE
  8
_0-0_
  6
CONTINUOUS
 62
    7
 10
18.885911040271544
 20
-22.241688638084675
 11
18.73465142701647
 21
-22.176863089546785
  0
LINE
  8
_0-0_
  6
CONTINUOUS
 62
    7
 10
24.201606020378435
 20
-20.102445536334344
 11
24.568950795426471
 21
-19.605449664210525
  0
LINE
  8
_0-0_
  6
CONTINUOUS
 62
    7
 10
24.568950795426471
 20
-19.605449664210525
 11
24.568950795426471
 21
-19.475798567134746
  0
LINE
  8
_0-0_
  6
CONTINUOUS
 62
    7
 10
24.568950795426471
 20
-19.475798567134746
 11
24.417691182171396
 21
-19.259713405341785
  0
LINE
  8
_0-0_
  6
CONTINUOUS
 62
    7
 10
24.417691182171396
 20
-19.259713405341785
 11
-2.463302944873198
 21
-6.4458633110190764
  0
LINE
  8
_0-0_
  6
CONTINUOUS
 62
    7
 10
-2.463302944873198
 20
-6.4458633110190764
 11
-3.0251243655349036
 21
-6.3162122139433006
  0
LINE
  8
_0-0_
  6
CONTINUOUS
 62
    7
 10
-3.0251243655349036
 20
-6.3162122139433006
 11
-3.5437287538380149
 21
-6.3594292463018931
  0
LINE
  8
_0-0_
  6
CONTINUOUS
 62
    7
 10
-3.5437287538380149
 20
-6.3594292463018931
 11
-4.0623331421411262
 21
-6.6187314404534483
  0
LINE
  8
_0-0_
  6
CONTINUOUS
 62
    7
 10
-4.0623331421411262
 20
-6.6187314404534483
 11
-8.0166916029523492
 21
-9.1037108010725234
  0
LINE
  8
_0-0_
  6
CONTINUOUS
 62
    7
 10
-8.0166916029523492
 20
-9.1037108010725234
 11
-8.2111682485660147
 21
-9.3630129952240786
  0
LINE
  8
_0-0_
  6
CONTINUOUS
 62
    7
 10
-8.2111682485660147
 20
-9.3630129952240786
 11
-8.3408193456417923
 21
-9.7087492540928189
  0
LINE
  8
_0-0_
  6
CONTINUOUS
 62
    7
 10
-8.3408193456417923
 20
-9.7087492540928189
 11
-8.0815171514902406
 21
-10.292179190933817
  0
LINE
  8
_0-0_
  6
CONTINUOUS
 62
    7
 10
-11.04188386805383
 20
-8.8444086069209664
 11
-10.674539093005794
 21
-8.4122382833350411
  0
LINE
  8
_0-0_
  6
CONTINUOUS
 62
    7
 10
-10.674539093005794
 20
-8.4122382833350411
 11
-4.4945034657270506
 21
-5.0413097593648182
  0
LINE
  8
_0-0_
  6
CONTINUOUS
 62
    7
 10
-4.4945034657270506
 20
-5.0413097593648182
 11
-3.6085543023759037
 21
-4.8036160813925592
  0
LINE
  8
_0-0_
  6
CONTINUOUS
 62
    7
 10
-3.6085543023759037
 20
-4.8036160813925592
 11
-2.9602988169970139
 21
-4.8036160813925592
  0
LINE
  8
_0-0_
  6
CONTINUOUS
 62
    7
 10
-2.9602988169970139
 20
-4.8036160813925592
 11
-2.3336518477974213
 21
-4.9548756946476331
  0
LINE
  8
_0-0_
  6
CONTINUOUS
 62
    7
 10
-2.3336518477974213
 20
-4.9548756946476331
 11
-1.5773537815220511
 21
-5.3222204696956696
  0
LINE
  8
_0-0_
  6
CONTINUOUS
 62
    7
 10
-1.5773537815220511
 20
-5.3222204696956696
 11
26.881062026611179
 21
-19.324538953879674
  0
LINE
  8
_0-0_
  6
CONTINUOUS
 62
    7
 10
-8.2976023132831997
 20
-9.9248344158857815
 11
-9.7885899296546448
 21
-9.2549704143275964
  0
LINE
  8
_0-0_
  6
CONTINUOUS
 62
    7
 10
-9.7885899296546448
 20
-9.2549704143275964
 11
-9.9614580590890149
 21
-9.0388852525346337
  0
LINE
  8
_0-0_
  6
CONTINUOUS
 62
    7
 10
-9.9614580590890149
 20
-9.0388852525346337
 11
-9.8966325105511253
 21
-8.736366026024486
  0
LINE
  8
_0-0_
  6
CONTINUOUS
 62
    7
 10
-9.8966325105511253
 20
-8.736366026024486
 11
-9.7021558649374597
 21
-8.5418893804108187
  0
LINE
  8
_0-0_
  6
CONTINUOUS
 62
    7
 10
-9.7021558649374597
 20
-8.5418893804108187
 11
-4.4080694010098664
 21
-5.3222204696956696
  0
LINE
  8
_0-0_
  6
CONTINUOUS
 62
    7
 10
-4.4080694010098664
 20
-5.3222204696956696
 11
-3.5221202376587177
 21
-4.9332671784683368
  0
LINE
  8
_0-0_
  6
CONTINUOUS
 62
    7
 10
-3.5221202376587177
 20
-4.9332671784683368
 11
-3.0683413978934952
 21
-4.9764842108269294
  0
LINE
  8
_0-0_
  6
CONTINUOUS
 62
    7
 10
-3.0683413978934952
 20
-4.9764842108269294
 11
-2.6793881066661625
 21
-5.0197012431855219
  0
LINE
  8
_0-0_
  6
CONTINUOUS
 62
    7
 10
-18.691298595524721
 20
-13.681335306783177
 11
-13.6684210591536
 21
-10.757570770686554
  0
LINE
  8
_0-0_
  6
CONTINUOUS
 62
    7
 10
-13.6684210591536
 20
-10.757570770686554
 11
-13.143642809084975
 21
-10.607634127809806
  0
LINE
  8
_0-0_
  6
CONTINUOUS
 62
    7
 10
-13.143642809084975
 20
-10.607634127809806
 11
-12.543896237577975
 21
-10.607634127809806
  0
LINE
  8
_0-0_
  6
CONTINUOUS
 62
    7
 10
-12.543896237577975
 20
-10.607634127809806
 11
-11.994128547029893
 21
-10.732581330207099
  0
LINE
  8
_0-0_
  6
CONTINUOUS
 62
    7
 10
-11.994128547029893
 20
-10.732581330207099
 11
-11.544318618399643
 21
-10.882517973083848
  0
LINE
  8
_0-0_
  6
CONTINUOUS
 62
    7
 10
-11.544318618399643
 20
-10.882517973083848
 11
15.969055349483952
 21
-22.577576117470336
  0
LINE
  8
_0-0_
  6
CONTINUOUS
 62
    7
 10
15.969055349483952
 20
-22.577576117470336
 11
16.718738563867703
 21
-22.927428284182753
  0
LINE
  8
_0-0_
  6
CONTINUOUS
 62
    7
 10
16.718738563867703
 20
-22.927428284182753
 11
16.943643528182825
 21
-23.277280450895169
  0
LINE
  8
_0-0_
  6
CONTINUOUS
 62
    7
 10
16.943643528182825
 20
-23.277280450895169
 11
16.868675206744449
 21
-23.552164296169209
  0
LINE
  8
_0-0_
  6
CONTINUOUS
 62
    7
 10
16.868675206744449
 20
-23.552164296169209
 11
16.418865278114197
 21
-23.702100939045955
  0
LINE
  8
_0-0_
  6
CONTINUOUS
 62
    7
 10
16.418865278114197
 20
-23.702100939045955
 11
10.521357324962041
 21
-25.501340653566956
  0
LINE
  8
_0-0_
  6
CONTINUOUS
 62
    7
 10
10.521357324962041
 20
-25.501340653566956
 11
10.196494598729082
 21
-25.501340653566956
  0
LINE
  8
_0-0_
  6
CONTINUOUS
 62
    7
 10
15.569224301812618
 20
-23.527174855689751
 11
10.596325646400416
 21
-25.301425129731292
  0
LINE
  8
_0-0_
  6
CONTINUOUS
 62
    7
 10
10.596325646400416
 20
-25.301425129731292
 11
10.071547396331791
 21
-25.42637233212858
  0
LINE
  8
_0-0_
  6
CONTINUOUS
 62
    7
 10
10.071547396331791
 20
-25.42637233212858
 11
9.6467269081809999
 21
-25.42637233212858
  0
LINE
  8
_0-0_
  6
CONTINUOUS
 62
    7
 10
9.6467269081809999
 20
-25.42637233212858
 11
-16.49222783333239
 21
-15.180701735550677
  0
LINE
  8
_0-0_
  6
CONTINUOUS
 62
    7
 10
-16.49222783333239
 20
-15.180701735550677
 11
-16.717132797647515
 21
-15.005775652194467
  0
LINE
  8
_0-0_
  6
CONTINUOUS
 62
    7
 10
-16.717132797647515
 20
-15.005775652194467
 11
-16.667153916688598
 21
-14.880828449797177
  0
LINE
  8
_0-0_
  6
CONTINUOUS
 62
    7
 10
-16.667153916688598
 20
-14.880828449797177
 11
-16.517217273811845
 21
-14.655923485482051
  0
LINE
  8
_0-0_
  6
CONTINUOUS
 62
    7
 10
-16.517217273811845
 20
-14.655923485482051
 11
-12.943727285249308
 21
-12.431863282810262
  0
LINE
  8
_0-0_
  6
CONTINUOUS
 62
    7
 10
-12.943727285249308
 20
-12.431863282810262
 11
-12.643853999495809
 21
-12.331905520892429
  0
LINE
  8
_0-0_
  6
CONTINUOUS
 62
    7
 10
-12.643853999495809
 20
-12.331905520892429
 11
-12.169054630386102
 21
-12.356894961371887
  0
LINE
  8
_0-0_
  6
CONTINUOUS
 62
    7
 10
-12.169054630386102
 20
-12.356894961371887
 11
-11.769223582714767
 21
-12.481842163769178
  0
LINE
  8
_0-0_
  6
CONTINUOUS
 62
    7
 10
-11.769223582714767
 20
-12.481842163769178
 11
15.044446051743995
 21
-23.302269891374628
  0
LINE
  8
_0-0_
  6
CONTINUOUS
 62
    7
 10
15.044446051743995
 20
-23.302269891374628
 11
15.044446051743995
 21
-23.527174855689751
  0
LINE
  8
_0-0_
  6
CONTINUOUS
 62
    7
 10
15.044446051743995
 20
-23.527174855689751
 11
14.919498849346704
 21
-23.702100939045955
  0
LINE
  8
_0-0_
  6
CONTINUOUS
 62
    7
 10
-16.717132797647515
 20
-15.005775652194467
 11
-16.867069440524268
 21
-14.106155794933969
  0
LINE
  8
_0-0_
  6
CONTINUOUS
 62
    7
 10
-16.867069440524268
 20
-14.106155794933969
 11
-16.592185595250221
 21
-13.731314187742095
  0
LINE
  8
_0-0_
  6
CONTINUOUS
 62
    7
 10
-16.592185595250221
 20
-13.731314187742095
 11
-13.268590011482267
 21
-11.632201187467595
  0
LINE
  8
_0-0_
  6
CONTINUOUS
 62
    7
 10
-13.268590011482267
 20
-11.632201187467595
 11
-12.893748404290392
 21
-11.482264544590846
  0
LINE
  8
_0-0_
  6
CONTINUOUS
 62
    7
 10
-12.893748404290392
 20
-11.482264544590846
 11
-12.443938475660142
 21
-11.43228566363193
  0
LINE
  8
_0-0_
  6
CONTINUOUS
 62
    7
 10
-12.443938475660142
 20
-11.43228566363193
 11
-12.01911798750935
 21
-11.607211746988137
  0
LINE
  8
_0-0_
  6
CONTINUOUS
 62
    7
 10
-12.01911798750935
 20
-11.607211746988137
 11
14.76956220646996
 21
-22.727512760347082
  0
LINE
  8
_0-0_
  6
CONTINUOUS
 62
    7
 10
14.76956220646996
 20
-22.727512760347082
 11
15.169393254141287
 21
-23.077364927059499
  0
LINE
  8
_0-0_
  6
CONTINUOUS
 62
    7
 10
15.169393254141287
 20
-23.077364927059499
 11
15.044446051743995
 21
-23.527174855689751
  0
LINE
  8
_0-0_
  6
CONTINUOUS
 62
    7
 10
-16.717132797647515
 20
-15.005775652194467
 11
-18.141530904976641
 21
-14.331060759249093
  0
LINE
  8
_0-0_
  6
CONTINUOUS
 62
    7
 10
-18.141530904976641
 20
-14.331060759249093
 11
-18.341446428812304
 21
-14.08116635445451
  0
LINE
  8
_0-0_
  6
CONTINUOUS
 62
    7
 10
-18.341446428812304
 20
-14.08116635445451
 11
-18.241488666894469
 21
-13.756303628221554
  0
LINE
  8
_0-0_
  6
CONTINUOUS
 62
    7
 10
-18.241488666894469
 20
-13.756303628221554
 11
-13.468505535317933
 21
-10.807549651645472
  0
LINE
  8
_0-0_
  6
CONTINUOUS
 62
    7
 10
10.621315086879873
 20
-25.551319534525874
 11
10.246473479687999
 21
-25.651277296443709
  0
LINE
  8
_0-0_
  6
CONTINUOUS
 62
    7
 10
10.246473479687999
 20
-25.651277296443709
 11
9.7966635510577493
 21
-25.801213939320455
  0
LINE
  8
_0-0_
  6
CONTINUOUS
 62
    7
 10
9.7966635510577493
 20
-25.801213939320455
 11
9.3968325033864168
 21
-25.751235058361537
  0
LINE
  8
_0-0_
  6
CONTINUOUS
 62
    7
 10
9.3968325033864168
 20
-25.751235058361537
 11
-18.291467547853387
 21
-14.830849568838257
  0
LINE
  8
_0-0_
  6
CONTINUOUS
 62
    7
 10
-18.291467547853387
 20
-14.830849568838257
 11
-18.866224678880926
 21
-14.655923485482051
  0
LINE
  8
_0-0_
  6
CONTINUOUS
 62
    7
 10
-18.866224678880926
 20
-14.655923485482051
 11
-19.016161321757679
 21
-14.381039640208011
  0
LINE
  8
_0-0_
  6
CONTINUOUS
 62
    7
 10
-19.016161321757679
 20
-14.381039640208011
 11
-19.066140202716596
 21
-13.906240271098302
  0
LINE
  8
_0-0_
  6
CONTINUOUS
 62
    7
 10
-19.066140202716596
 20
-13.906240271098302
 11
-19.016161321757679
 21
-13.306493699591302
  0
LINE
  8
_0-0_
  6
CONTINUOUS
 62
    7
 10
-19.016161321757679
 20
-13.306493699591302
 11
-18.941193000319302
 21
-12.806704890002136
  0
LINE
  8
_0-0_
  6
CONTINUOUS
 62
    7
 10
-18.941193000319302
 20
-12.806704890002136
 11
-16.217343988058346
 21
-11.232370139796263
  0
LINE
  8
_0-0_
  6
CONTINUOUS
 62
    7
 10
-16.217343988058346
 20
-11.232370139796263
 11
-14.667998678331932
 21
-10.182813639659015
  0
LINE
  8
_0-0_
  6
CONTINUOUS
 62
    7
 10
-14.667998678331932
 20
-10.182813639659015
 11
-13.693410499633059
 21
-9.7330037110287666
  0
LINE
  8
_0-0_
  6
CONTINUOUS
 62
    7
 10
-13.693410499633059
 20
-9.7330037110287666
 11
-12.868758963810933
 21
-9.4081409847958071
  0
LINE
  8
_0-0_
  6
CONTINUOUS
 62
    7
 10
-12.868758963810933
 20
-9.4081409847958071
 11
-11.89417078511206
 21
-9.4331304252752659
  0
LINE
  8
_0-0_
  6
CONTINUOUS
 62
    7
 10
-11.89417078511206
 20
-9.4331304252752659
 11
-11.219455892166685
 21
-9.7579931515082219
  0
LINE
  8
_0-0_
  6
CONTINUOUS
 62
    7
 10
-11.219455892166685
 20
-9.7579931515082219
 11
-10.501670963571426
 21
-9.9464429320650805
  0
ENDBLK
  0
ENDSEC
  0
SECTION
  2
ENTITIES
  0
INSERT
  2
-000-1
  8
_0-0_
 10
210.02390087354979
 20
148.21731759047151
 41
1
 42
1
 50
0
  0
ENDSEC
  0
EOF
