  0
SECTION
  2
HEADER
  9
$ACADVER
  1
AC1009
  9
$INSBASE
 10
0
 20
0
 30
0
  9
$EXTMIN
 10
0
 20
0
  9
$EXTMAX
 10
420
 20
297
  9
$LIMMIN
 10
0
 20
0
  9
$LIMMAX
 10
420
 20
297
  9
$LTSCALE
 40
1
  0
ENDSEC
  0
SECTION
  2
TABLES
  0
TABLE
  2
LTYPE
 70
     9
  0
LTYPE
  2
CONTINUOUS
 70
    64
  3
実線
 72
    65
 73
     0
 40
0.0
  0
LTYPE
  2
DASHED1
 70
    64
  3
--  --  --  --  --  --  --  --  
 72
    65
 73
     2
 40
2.5
 49
1.25
 49
-1.25
  0
LTYPE
  2
DASHED2
 70
    64
  3
----    ----    ----    ----    
 72
    65
 73
     2
 40
5.0
 49
2.5
 49
-2.5
  0
LTYPE
  2
DASHED3
 70
    64
  3
------  ------  ------  ------  
 72
    65
 73
     2
 40
5.0
 49
3.75
 49
-1.25
  0
LTYPE
  2
CENTER1
 70
    64
  3
----- - ----- - ----- - ----- - 
 72
    65
 73
     4
 40
10.0
 49
6.25
 49
-1.25
 49
1.25
 49
-1.25
  0
LTYPE
  2
CENTER2
 70
    64
  3
----------  --  ----------  --  
 72
    65
 73
     4
 40
20.0
 49
12.5
 49
-2.5
 49
2.5
 49
-2.5
  0
LTYPE
  2
PHANTOM1
 70
    64
  3
--- - - --- - - --- - - --- - - 
 72
    65
 73
     6
 40
10.0
 49
3.25
 49
-1.25
 49
1.25
 49
-1.25
 49
1.25
 49
-1.25
  0
LTYPE
  2
PHANTOM2
 70
    64
  3
--------  -  -  --------  -  -  
 72
    65
 73
     6
 40
20.0
 49
10.0
 49
-2.5
 49
1.25
 49
-2.5
 49
1.25
 49
-2.5
  0
LTYPE
  2
DOT
 70
    64
  3
-   -   -   -   -   -   -   -   
 72
    65
 73
     2
 40
2.5
 49
0.625
 49
-1.875
  0
LTYPE
  2
DUMMY
 70
    64
  3
ダミー
 72
    65
 73
     0
 40
0.0
  0
LTYPE
  2
RAND1
 70
    64
  3
ランダム線1
 72
    65
 73
     4
 40
10.0
 49
1.0
 49
-2.0
 49
3.0
 49
-4.0
  0
LTYPE
  2
RAND2
 70
    64
  3
ランダム線2
 72
    65
 73
     4
 40
14.0
 49
2.0
 49
-3.0
 49
4.0
 49
-5.0
  0
LTYPE
  2
RAND3
 70
    64
  3
ランダム線3
 72
    65
 73
     4
 40
18.0
 49
3.0
 49
-4.0
 49
5.0
 49
-6.0
  0
LTYPE
  2
RAND4
 70
    64
  3
ランダム線4
 72
    65
 73
     4
 40
22.0
 49
4.0
 49
-5.0
 49
6.0
 49
-7.0
  0
LTYPE
  2
RAND5
 70
    64
  3
ランダム線5
 72
    65
 73
     4
 40
26.0
 49
5.0
 49
-6.0
 49
7.0
 49
-8.0
  0
LTYPE
  2
LONG1
 70
    64
  3
----------  --  ----------  --  
 72
    65
 73
     4
 40
40.0
 49
32.5
 49
-2.5
 49
2.5
 49
-2.5
  0
LTYPE
  2
LONG2
 70
    64
  3
--------  -  -  --------  -  -  
 72
    65
 73
     6
 40
40.0
 49
30.0
 49
-2.5
 49
1.25
 49
-2.5
 49
1.25
 49
-2.5
  0
LTYPE
  2
LONG3
 70
    64
  3
+++++++++++++++..+++++++++++++++
 72
    65
 73
     2
 40
40.0
 49
37.5
 49
-2.5
  0
LTYPE
  2
LONG4
 70
    64
  3
+++++++++++++++..+++++++++++++++
 72
    65
 73
     2
 40
80.0
 49
75.0
 49
-5.0
  0
LTYPE
  2
LONG5
 70
    64
  3
----------  --  ----------  --  
 72
    65
 73
     4
 40
60.0
 49
37.5
 49
-7.5
 49
7.5
 49
-7.5
  0
LTYPE
  2
dashed
 70
   64
  3
-------   -------------   ------
 72
   65
 73
    2
 40
7.5
 49
6
 49
-1.5
  0
LTYPE
  2
dashed_spaced
 70
   64
  3
----        --------        ----
 72
   65
 73
    2
 40
12
 49
6
 49
-6
  0
LTYPE
  2
long_dashed_dotted
 70
   64
  3
------------- --- --------------
 72
   65
 73
    4
 40
15.25
 49
12
 49
-1.5
 49
0.25
 49
-1.5
  0
LTYPE
  2
long_dashed_double-dotted
 70
   64
  3
----------- --- --- ------------
 72
   65
 73
    6
 40
17
 49
12
 49
-1.5
 49
0.25
 49
-1.5
 49
0.25
 49
-1.5
  0
LTYPE
  2
long_dashed_triplicate-dotted
 70
   64
  3
--------- --- --- --- ----------
 72
   65
 73
    8
 40
18.75
 49
12
 49
-1.5
 49
0.25
 49
-1.5
 49
0.25
 49
-1.5
 49
0.25
 49
-1.5
  0
LTYPE
  2
dotted
 70
   64
  3
   -       -       -       -    
 72
   65
 73
    2
 40
1.75
 49
0.25
 49
-1.5
  0
LTYPE
  2
chain
 70
   64
  3
-------------- -- --------------
 72
   65
 73
    4
 40
18.5
 49
12
 49
-1.5
 49
3.5
 49
-1.5
  0
LTYPE
  2
chain_double_dash
 70
   64
  3
------------ -- -- -------------
 72
   65
 73
    6
 40
23.5
 49
12
 49
-1.5
 49
3.5
 49
-1.5
 49
3.5
 49
-1.5
  0
LTYPE
  2
dashed_dotted
 70
   64
  3
-----------     -     ----------
 72
   65
 73
    4
 40
9.25
 49
6
 49
-1.5
 49
0.25
 49
-1.5
  0
LTYPE
  2
double-dashed_dotted
 70
   64
  3
------   -----------   -   -----
 72
   65
 73
    6
 40
16.75
 49
6
 49
-1.5
 49
6
 49
-1.5
 49
0.25
 49
-1.5
  0
LTYPE
  2
dashed_double-dotted
 70
   64
  3
---------    -    -    ---------
 72
   65
 73
    6
 40
11
 49
6
 49
-1.5
 49
0.25
 49
-1.5
 49
0.25
 49
-1.5
  0
LTYPE
  2
double-dashed_double-dotted
 70
   64
  3
-----   ---------   -   -   ----
 72
   65
 73
    8
 40
18.5
 49
6
 49
-1.5
 49
6
 49
-1.5
 49
0.25
 49
-1.5
 49
0.25
 49
-1.5
  0
LTYPE
  2
dashed_triplicate-dotted
 70
   64
  3
-------    -    -    -    ------
 72
   65
 73
    8
 40
12.75
 49
6
 49
-1.5
 49
0.25
 49
-1.5
 49
0.25
 49
-1.5
 49
0.25
 49
-1.5
  0
LTYPE
  2
double-dashed_triplicate-dotted
 70
   64
  3
-----  ---------  -  -  -  -----
 72
   65
 73
   10
 40
20.25
 49
6
 49
-1.5
 49
6
 49
-1.5
 49
0.25
 49
-1.5
 49
0.25
 49
-1.5
 49
0.25
 49
-1.5
  0
LTYPE
  2
undefined
 70
   64
  3
--------------------------------
 72
   65
 73
    0
 40
0
  0
LTYPE
  2
_
 70
   64
  3
                                
 72
   65
 73
    0
 40
0
  0
LTYPE
  2
__18
 70
   64
  3
                                
 72
   65
 73
    0
 40
0
  0
LTYPE
  2
__19
 70
   64
  3
                                
 72
   65
 73
    0
 40
0
  0
LTYPE
  2
__20
 70
   64
  3
                                
 72
   65
 73
    0
 40
0
  0
LTYPE
  2
__21
 70
   64
  3
                                
 72
   65
 73
    0
 40
0
  0
LTYPE
  2
__22
 70
   64
  3
                                
 72
   65
 73
    0
 40
0
  0
LTYPE
  2
__23
 70
   64
  3
                                
 72
   65
 73
    0
 40
0
  0
LTYPE
  2
__24
 70
   64
  3
                                
 72
   65
 73
    0
 40
0
  0
LTYPE
  2
__25
 70
   64
  3
                                
 72
   65
 73
    0
 40
0
  0
LTYPE
  2
__26
 70
   64
  3
                                
 72
   65
 73
    0
 40
0
  0
LTYPE
  2
__27
 70
   64
  3
                                
 72
   65
 73
    0
 40
0
  0
LTYPE
  2
__28
 70
   64
  3
                                
 72
   65
 73
    0
 40
0
  0
LTYPE
  2
__29
 70
   64
  3
                                
 72
   65
 73
    0
 40
0
  0
LTYPE
  2
__30
 70
   64
  3
                                
 72
   65
 73
    0
 40
0
  0
LTYPE
  2
__31
 70
   64
  3
                                
 72
   65
 73
    0
 40
0
  0
LTYPE
  2
__32
 70
   64
  3
                                
 72
   65
 73
    0
 40
0
  0
ENDTAB
  0
TABLE
  2
STYLE
  5
3
100
AcDbSymbolTable
 70
     1
  0
STYLE
  5
10
100
AcDbSymbolTableRecord
100
AcDbTextStyleTableRecord
  2
STANDARD
 70
     0
 40
0.0
 41
1.0
 50
0.0
 71
     0
 42
0.2
  3
txt
  4
bigfont.shx
  0
STYLE
  5
26
100
AcDbSymbolTableRecord
100
AcDbTextStyleTableRecord
  2
TATEGAKI
 70
    68
 40
0.0
 41
1.0
 50
0.0
 71
     0
 42
1.0
  3
txt
  4
bigfont.shx
  0
ENDTAB
  0
TABLE
  2
LAYER
 70
    2
  0
LAYER
  2
_0-1_ADD_LINE
 70
   64
 62
    7
  6
CONTINUOUS
  0
LAYER
  2
ADD_LINE
 70
   64
 62
    7
  6
CONTINUOUS
  0
ENDTAB
  0
ENDSEC
  0
SECTION
  2
BLOCKS
  0
BLOCK
  2
-000-1
 70
   64
 10
0
 20
0
 30
0
  0
LINE
  8
_0-1_ADD_LINE
  6
CONTINUOUS
 62
    7
 10
-11.512450062501696
 20
9.6881517159382717
 11
-10.4785149146667
 21
10.234162411985968
  0
LINE
  8
_0-1_ADD_LINE
  6
CONTINUOUS
 62
    7
 10
-9.9791163431557841
 20
9.8399003818457729
 11
-10.899061080149576
 21
9.3405018103348603
  0
LINE
  8
_0-1_ADD_LINE
  6
CONTINUOUS
 62
    7
 10
-4.7452114106307475
 20
16.768988926068769
 11
-4.074317924647505
 21
23.745873899852082
  0
LINE
  8
_0-1_ADD_LINE
  6
CONTINUOUS
 62
    7
 10
-4.074317924647505
 20
23.745873899852082
 11
-3.9089185388821361
 21
24.107685056213821
  0
LINE
  8
_0-1_ADD_LINE
  6
CONTINUOUS
 62
    7
 10
-3.9089185388821361
 20
24.107685056213821
 11
-3.7331816915064406
 21
24.397133981303213
  0
LINE
  8
_0-1_ADD_LINE
  6
CONTINUOUS
 62
    7
 10
-3.7331816915064406
 20
24.397133981303213
 11
-3.4747451512480536
 21
24.748607676054615
  0
LINE
  8
_0-1_ADD_LINE
  6
CONTINUOUS
 62
    7
 10
-3.4747451512480536
 20
24.748607676054615
 11
-2.472011375045521
 21
25.275818218181719
  0
LINE
  8
_0-1_ADD_LINE
  6
CONTINUOUS
 62
    7
 10
-2.472011375045521
 20
25.275818218181719
 11
4.1543015171794737
 21
29.131691398836825
  0
LINE
  8
_0-1_ADD_LINE
  6
CONTINUOUS
 62
    7
 10
4.1543015171794737
 20
29.131691398836825
 11
5.0226482924476459
 21
29.679576864184604
  0
LINE
  8
_0-1_ADD_LINE
  6
CONTINUOUS
 62
    7
 10
5.0226482924476459
 20
29.679576864184604
 11
5.3120972175370342
 21
29.79328894189829
  0
LINE
  8
_0-1_ADD_LINE
  6
CONTINUOUS
 62
    7
 10
5.3120972175370342
 20
29.79328894189829
 11
5.5705337577954213
 21
29.751939095456947
  0
LINE
  8
_0-1_ADD_LINE
  6
CONTINUOUS
 62
    7
 10
5.5705337577954213
 20
29.751939095456947
 11
5.766945528391795
 21
29.452152708757222
  0
LINE
  8
_0-1_ADD_LINE
  6
CONTINUOUS
 62
    7
 10
5.766945528391795
 20
29.452152708757222
 11
5.6945832971194479
 21
28.728530396033747
  0
LINE
  8
_0-1_ADD_LINE
  6
CONTINUOUS
 62
    7
 10
5.6945832971194479
 20
28.728530396033747
 11
4.5264501351515465
 21
4.4561705349662182
  0
LINE
  8
_0-1_ADD_LINE
  6
CONTINUOUS
 62
    7
 10
4.5264501351515465
 20
4.4561705349662182
 11
4.4954377503205381
 21
3.8721039539822746
  0
LINE
  8
_0-1_ADD_LINE
  6
CONTINUOUS
 62
    7
 10
4.4954377503205381
 20
3.8721039539822746
 11
4.4540879038791958
 21
2.8590327161694065
  0
LINE
  8
_0-1_ADD_LINE
  6
CONTINUOUS
 62
    7
 10
4.4540879038791958
 20
2.8590327161694065
 11
4.5574625199825549
 21
1.9286611712392192
  0
LINE
  8
_0-1_ADD_LINE
  6
CONTINUOUS
 62
    7
 10
4.5574625199825549
 20
1.9286611712392192
 11
5.1260229085509978
 21
0.4607416225715921
  0
LINE
  8
_0-1_ADD_LINE
  6
CONTINUOUS
 62
    7
 10
5.1260229085509978
 20
0.4607416225715921
 11
5.9530198373778314
 21
-0.6867166161756364
  0
LINE
  8
_0-1_ADD_LINE
  6
CONTINUOUS
 62
    7
 10
5.9530198373778314
 20
-0.6867166161756364
 11
6.7386669197633227
 21
-1.3173017744060962
  0
LINE
  8
_0-1_ADD_LINE
  6
CONTINUOUS
 62
    7
 10
6.7386669197633227
 20
-1.3173017744060962
 11
7.4002644628247873
 21
-1.6997878539885063
  0
LINE
  8
_0-1_ADD_LINE
  6
CONTINUOUS
 62
    7
 10
7.4002644628247873
 20
-1.6997878539885063
 11
7.8654502352898819
 21
-1.8651872397538716
  0
LINE
  8
_0-1_ADD_LINE
  6
CONTINUOUS
 62
    7
 10
7.8654502352898819
 20
-1.8651872397538716
 11
8.5477227015720167
 21
-1.8858621629745427
  0
LINE
  8
_0-1_ADD_LINE
  6
CONTINUOUS
 62
    7
 10
8.5477227015720167
 20
-1.8858621629745427
 11
9.0129084740371113
 21
-1.7618126236505196
  0
LINE
  8
_0-1_ADD_LINE
  6
CONTINUOUS
 62
    7
 10
9.0129084740371113
 20
-1.7618126236505196
 11
9.6331561706572337
 21
-1.3793265440681095
  0
LINE
  8
_0-1_ADD_LINE
  6
CONTINUOUS
 62
    7
 10
9.6331561706572337
 20
-1.3793265440681095
 11
10.046654635070649
 21
-0.986503002875362
  0
LINE
  8
_0-1_ADD_LINE
  6
CONTINUOUS
 62
    7
 10
10.046654635070649
 20
-0.986503002875362
 11
10.346441021770378
 21
-0.6557042313446315
  0
LINE
  8
_0-1_ADD_LINE
  6
CONTINUOUS
 62
    7
 10
10.346441021770378
 20
-0.6557042313446315
 11
10.635889946859766
 21
-0.3559178446449022
  0
LINE
  8
_0-1_ADD_LINE
  6
CONTINUOUS
 62
    7
 10
10.635889946859766
 20
-0.3559178446449022
 11
10.801289332625135
 21
-0.0044441498935006
  0
LINE
  8
_0-1_ADD_LINE
  6
CONTINUOUS
 62
    7
 10
10.801289332625135
 20
-0.0044441498935006
 11
10.904663948728487
 21
1.1843639352950701
  0
LINE
  8
_0-1_ADD_LINE
  6
CONTINUOUS
 62
    7
 10
10.904663948728487
 20
1.1843639352950701
 11
10.977026180000838
 21
11.661381277370001
  0
LINE
  8
_0-1_ADD_LINE
  6
CONTINUOUS
 62
    7
 10
10.977026180000838
 20
11.661381277370001
 11
11.349174797972911
 21
25.854716068360506
  0
LINE
  8
_0-1_ADD_LINE
  6
CONTINUOUS
 62
    7
 10
11.349174797972911
 20
25.854716068360506
 11
11.256137643479892
 21
25.999440530905201
  0
LINE
  8
_0-1_ADD_LINE
  6
CONTINUOUS
 62
    7
 10
11.256137643479892
 20
25.999440530905201
 11
5.5291839113540791
 21
29.751939095456951
  0
LINE
  8
_0-1_ADD_LINE
  6
CONTINUOUS
 62
    7
 10
-4.6222033899952804
 20
16.809437159317032
 11
-3.8572312308304673
 21
23.900935824007114
  0
LINE
  8
_0-1_ADD_LINE
  6
CONTINUOUS
 62
    7
 10
-3.8572312308304673
 20
23.900935824007114
 11
-3.609132152182414
 21
24.314434288420529
  0
LINE
  8
_0-1_ADD_LINE
  6
CONTINUOUS
 62
    7
 10
-3.609132152182414
 20
24.314434288420529
 11
-3.3817079967550354
 21
24.583208290289249
  0
LINE
  8
_0-1_ADD_LINE
  6
CONTINUOUS
 62
    7
 10
-3.3817079967550354
 20
24.583208290289249
 11
-3.1129339948863146
 21
24.727932752833944
  0
LINE
  8
_0-1_ADD_LINE
  6
CONTINUOUS
 62
    7
 10
-3.1129339948863146
 20
24.727932752833944
 11
4.9606235227856361
 21
29.297090784602194
  0
LINE
  8
_0-1_ADD_LINE
  6
CONTINUOUS
 62
    7
 10
4.9606235227856361
 20
29.297090784602194
 11
5.1880476782130147
 21
29.307428246212528
  0
LINE
  8
_0-1_ADD_LINE
  6
CONTINUOUS
 62
    7
 10
5.1880476782130147
 20
29.307428246212528
 11
5.4361467568610609
 21
29.142028860447162
  0
LINE
  8
_0-1_ADD_LINE
  6
CONTINUOUS
 62
    7
 10
5.4361467568610609
 20
29.142028860447162
 11
5.3327721407577089
 21
27.519047387624504
  0
LINE
  8
_0-1_ADD_LINE
  6
CONTINUOUS
 62
    7
 10
5.3327721407577089
 20
27.519047387624504
 11
4.8055615986306011
 21
15.910077999217847
  0
LINE
  8
_0-1_ADD_LINE
  6
CONTINUOUS
 62
    7
 10
4.8055615986306011
 20
15.910077999217847
 11
4.4851002887102043
 21
10.022893612131838
  0
LINE
  8
_0-1_ADD_LINE
  6
CONTINUOUS
 62
    7
 10
4.4851002887102043
 20
10.022893612131838
 11
4.1749764404001413
 21
3.8876101463977824
  0
LINE
  8
_0-1_ADD_LINE
  6
CONTINUOUS
 62
    7
 10
4.1749764404001413
 20
3.8876101463977824
 11
4.2886885181138341
 21
2.5540775986645139
  0
LINE
  8
_0-1_ADD_LINE
  6
CONTINUOUS
 62
    7
 10
4.2886885181138341
 20
2.5540775986645139
 11
4.5471250583722211
 21
1.7684305162790226
  0
LINE
  8
_0-1_ADD_LINE
  6
CONTINUOUS
 62
    7
 10
-3.867568692440801
 20
16.354588848462271
 11
-3.2059711493793328
 21
23.311700512217996
  0
LINE
  8
_0-1_ADD_LINE
  6
CONTINUOUS
 62
    7
 10
-3.2059711493793328
 20
23.311700512217996
 11
-3.0302343020036302
 21
23.70452405341074
  0
LINE
  8
_0-1_ADD_LINE
  6
CONTINUOUS
 62
    7
 10
-3.0302343020036302
 20
23.70452405341074
 11
-2.7511228385245756
 21
24.097347594603487
  0
LINE
  8
_0-1_ADD_LINE
  6
CONTINUOUS
 62
    7
 10
-2.7511228385245756
 20
24.097347594603487
 11
-2.110200218683782
 21
24.490171135796231
  0
LINE
  8
_0-1_ADD_LINE
  6
CONTINUOUS
 62
    7
 10
-2.110200218683782
 20
24.490171135796231
 11
5.3534470639783764
 21
28.759542780864752
  0
LINE
  8
_0-1_ADD_LINE
  6
CONTINUOUS
 62
    7
 10
-3.4850826128583874
 20
16.13750215464523
 11
-2.9682095323416204
 21
23.156638588062968
  0
LINE
  8
_0-1_ADD_LINE
  6
CONTINUOUS
 62
    7
 10
-2.9682095323416204
 20
23.156638588062968
 11
-2.8648349162382614
 21
23.50811228281437
  0
LINE
  8
_0-1_ADD_LINE
  6
CONTINUOUS
 62
    7
 10
-2.8648349162382614
 20
23.50811228281437
 11
-2.6684231456418912
 21
23.766548823072753
  0
LINE
  8
_0-1_ADD_LINE
  6
CONTINUOUS
 62
    7
 10
-2.6684231456418912
 20
23.766548823072753
 11
-2.5030237598765224
 21
23.89059836239678
  0
LINE
  8
_0-1_ADD_LINE
  6
CONTINUOUS
 62
    7
 10
-2.5030237598765224
 20
23.89059836239678
 11
5.3327721407577089
 21
28.346044316451334
  0
LINE
  8
_0-1_ADD_LINE
  6
CONTINUOUS
 62
    7
 10
-2.937197147510612
 20
15.930752922438522
 11
-2.5030237598765224
 21
22.846514739752905
  0
LINE
  8
_0-1_ADD_LINE
  6
CONTINUOUS
 62
    7
 10
-2.5030237598765224
 20
22.846514739752905
 11
-2.3272869125008269
 21
23.177313511283636
  0
LINE
  8
_0-1_ADD_LINE
  6
CONTINUOUS
 62
    7
 10
-2.3272869125008269
 20
23.177313511283636
 11
-1.9861506793597554
 21
23.528787206035041
  0
LINE
  8
_0-1_ADD_LINE
  6
CONTINUOUS
 62
    7
 10
-1.9861506793597554
 20
23.528787206035041
 11
-1.6656893694393586
 21
23.735536438241745
  0
LINE
  8
_0-1_ADD_LINE
  6
CONTINUOUS
 62
    7
 10
-1.6656893694393586
 20
23.735536438241745
 11
5.3224346791473751
 21
27.674109311779535
  0
LINE
  8
_0-1_ADD_LINE
  6
CONTINUOUS
 62
    7
 10
-0.249457128823411
 20
12.183423088691939
 11
0.3501156445760473
 21
21.011615303918372
  0
LINE
  8
_0-1_ADD_LINE
  6
CONTINUOUS
 62
    7
 10
0.3501156445760473
 20
21.011615303918372
 11
0.4948401071207415
 21
21.383763921890445
  0
LINE
  8
_0-1_ADD_LINE
  6
CONTINUOUS
 62
    7
 10
0.4948401071207415
 20
21.383763921890445
 11
0.7429391857687877
 21
21.745575078252184
  0
LINE
  8
_0-1_ADD_LINE
  6
CONTINUOUS
 62
    7
 10
0.7429391857687877
 20
21.745575078252184
 11
0.9910382644168409
 21
21.962661772069229
  0
LINE
  8
_0-1_ADD_LINE
  6
CONTINUOUS
 62
    7
 10
0.9910382644168409
 20
21.962661772069229
 11
2.6863819685118431
 21
22.913708240220085
  0
LINE
  8
_0-1_ADD_LINE
  6
CONTINUOUS
 62
    7
 10
2.6863819685118431
 20
22.913708240220085
 11
5.1363603701613387
 21
24.216228403122344
  0
LINE
  8
_0-1_ADD_LINE
  6
CONTINUOUS
 62
    7
 10
5.126022908551005
 20
23.802729938708929
 11
1.301162112726904
 21
21.776587463083192
  0
LINE
  8
_0-1_ADD_LINE
  6
CONTINUOUS
 62
    7
 10
1.301162112726904
 20
21.776587463083192
 11
1.0840754189098591
 21
21.621525538928161
  0
LINE
  8
_0-1_ADD_LINE
  6
CONTINUOUS
 62
    7
 10
1.0840754189098591
 20
21.621525538928161
 11
0.9083385715341565
 21
21.414776306721453
  0
LINE
  8
_0-1_ADD_LINE
  6
CONTINUOUS
 62
    7
 10
0.9083385715341565
 20
21.414776306721453
 11
0.7532766473791285
 21
21.259714382566422
  0
LINE
  8
_0-1_ADD_LINE
  6
CONTINUOUS
 62
    7
 10
0.7532766473791285
 20
21.259714382566422
 11
0.6809144161067779
 21
20.939253072646025
  0
LINE
  8
_0-1_ADD_LINE
  6
CONTINUOUS
 62
    7
 10
0.6809144161067779
 20
20.939253072646025
 11
0.1226914891486687
 21
12.343653743652141
  0
LINE
  8
_0-1_ADD_LINE
  6
CONTINUOUS
 62
    7
 10
0.6292271080551019
 20
12.6537775919622
 11
1.2184624198442195
 21
20.810034802516828
  0
LINE
  8
_0-1_ADD_LINE
  6
CONTINUOUS
 62
    7
 10
1.2184624198442195
 20
20.810034802516828
 11
1.3528494207785799
 21
21.047796419554544
  0
LINE
  8
_0-1_ADD_LINE
  6
CONTINUOUS
 62
    7
 10
1.3528494207785799
 20
21.047796419554544
 11
4.7331993673582575
 21
22.99640793310277
  0
LINE
  8
_0-1_ADD_LINE
  6
CONTINUOUS
 62
    7
 10
5.0846730621096627
 20
22.603584391910022
 11
2.0971466567227326
 21
20.939253072646025
  0
LINE
  8
_0-1_ADD_LINE
  6
CONTINUOUS
 62
    7
 10
2.0971466567227326
 20
20.939253072646025
 11
1.92140980934703
 21
20.784191148490994
  0
LINE
  8
_0-1_ADD_LINE
  6
CONTINUOUS
 62
    7
 10
1.92140980934703
 20
20.784191148490994
 11
1.8283726548540118
 21
20.577441916284286
  0
LINE
  8
_0-1_ADD_LINE
  6
CONTINUOUS
 62
    7
 10
1.8283726548540118
 20
20.577441916284286
 11
1.7766853468023358
 21
20.319005376025899
  0
LINE
  8
_0-1_ADD_LINE
  6
CONTINUOUS
 62
    7
 10
1.7766853468023358
 20
20.319005376025899
 11
1.2598122662855618
 21
12.798502054506898
  0
LINE
  8
_0-1_ADD_LINE
  6
CONTINUOUS
 62
    7
 10
-1.0040918263778904
 20
11.764755893473357
 11
4.1646389787898075
 21
14.214734295122845
  0
LINE
  8
_0-1_ADD_LINE
  6
CONTINUOUS
 62
    7
 10
4.1646389787898075
 20
14.214734295122845
 11
4.2886885181138341
 21
14.214734295122845
  0
LINE
  8
_0-1_ADD_LINE
  6
CONTINUOUS
 62
    7
 10
4.2886885181138341
 20
14.214734295122845
 11
4.6504996744755731
 21
13.935622831643791
  0
LINE
  8
_0-1_ADD_LINE
  6
CONTINUOUS
 62
    7
 10
4.1956513636208159
 20
14.214734295122845
 11
4.1749764404001484
 21
14.080347294188485
  0
LINE
  8
_0-1_ADD_LINE
  6
CONTINUOUS
 62
    7
 10
4.1749764404001484
 20
14.080347294188485
 11
4.0302519778554471
 21
9.0563409515654811
  0
LINE
  8
_0-1_ADD_LINE
  6
CONTINUOUS
 62
    7
 10
3.9682272081934373
 20
9.8006381875096302
 11
2.5726698907981573
 21
9.8213131107303013
  0
LINE
  8
_0-1_ADD_LINE
  6
CONTINUOUS
 62
    7
 10
3.5650662053903561
 20
10.555272885064115
 11
1.5699361145956248
 21
10.400210960909083
  0
LINE
  8
_0-1_ADD_LINE
  6
CONTINUOUS
 62
    7
 10
4.402400595827527
 20
8.7255421800347488
 11
-12.61306121478454
 21
18.039595090946943
  0
LINE
  8
_0-1_ADD_LINE
  6
CONTINUOUS
 62
    7
 10
-12.61306121478454
 20
18.039595090946943
 11
-12.757785677329242
 21
18.018920167726275
  0
LINE
  8
_0-1_ADD_LINE
  6
CONTINUOUS
 62
    7
 10
-12.757785677329242
 20
18.018920167726275
 11
-12.943859986315278
 21
17.874195705181577
  0
LINE
  8
_0-1_ADD_LINE
  6
CONTINUOUS
 62
    7
 10
-12.943859986315278
 20
17.874195705181577
 11
-13.822544223193784
 21
10.989446272698203
  0
LINE
  8
_0-1_ADD_LINE
  6
CONTINUOUS
 62
    7
 10
-13.822544223193784
 20
10.989446272698203
 11
-10.421519353393439
 21
9.0976907980068233
  0
LINE
  8
_0-1_ADD_LINE
  6
CONTINUOUS
 62
    7
 10
-10.421519353393439
 20
9.0976907980068233
 11
-10.008020888980024
 21
9.03566602834481
  0
LINE
  8
_0-1_ADD_LINE
  6
CONTINUOUS
 62
    7
 10
-10.008020888980024
 20
9.03566602834481
 11
-9.5118227316839246
 21
9.2010654141101771
  0
LINE
  8
_0-1_ADD_LINE
  6
CONTINUOUS
 62
    7
 10
-9.5118227316839246
 20
9.2010654141101771
 11
-7.8164790275889144
 21
9.6455762633545987
  0
LINE
  8
_0-1_ADD_LINE
  6
CONTINUOUS
 62
    7
 10
-7.8164790275889144
 20
9.6455762633545987
 11
-7.3512932551238235
 21
9.759288341068288
  0
LINE
  8
_0-1_ADD_LINE
  6
CONTINUOUS
 62
    7
 10
-7.3512932551238235
 20
9.759288341068288
 11
-7.0618443300344351
 21
9.7489508794579542
  0
LINE
  8
_0-1_ADD_LINE
  6
CONTINUOUS
 62
    7
 10
-7.0618443300344351
 20
9.7489508794579542
 11
2.5416575059671489
 21
5.877571506387345
  0
LINE
  8
_0-1_ADD_LINE
  6
CONTINUOUS
 62
    7
 10
2.5416575059671489
 20
5.877571506387345
 11
3.1308928177562736
 21
5.8465591215563402
  0
LINE
  8
_0-1_ADD_LINE
  6
CONTINUOUS
 62
    7
 10
3.1308928177562736
 20
5.8465591215563402
 11
3.4513541276766704
 21
6.3427572788524396
  0
LINE
  8
_0-1_ADD_LINE
  6
CONTINUOUS
 62
    7
 10
3.4513541276766704
 20
6.3427572788524396
 11
3.730465591155725
 21
6.642543665552167
  0
LINE
  8
_0-1_ADD_LINE
  6
CONTINUOUS
 62
    7
 10
3.730465591155725
 20
6.642543665552167
 11
4.0095770546347795
 21
6.911317667420886
  0
LINE
  8
_0-1_ADD_LINE
  6
CONTINUOUS
 62
    7
 10
4.0095770546347795
 20
6.911317667420886
 11
4.2163262868414906
 21
6.9940173603035705
  0
LINE
  8
_0-1_ADD_LINE
  6
CONTINUOUS
 62
    7
 10
4.2163262868414906
 20
6.9940173603035705
 11
4.2990259797241679
 21
7.0250297451345753
  0
LINE
  8
_0-1_ADD_LINE
  6
CONTINUOUS
 62
    7
 10
-14.070643301841837
 20
10.860228002569009
 11
-22.991872671561286
 21
6.2497201243594214
  0
LINE
  8
_0-1_ADD_LINE
  6
CONTINUOUS
 62
    7
 10
-22.991872671561286
 20
6.2497201243594214
 11
-22.051163665020763
 21
12.586584091495023
  0
LINE
  8
_0-1_ADD_LINE
  6
CONTINUOUS
 62
    7
 10
-22.051163665020763
 20
12.586584091495023
 11
-21.989138895358753
 21
12.762320938870722
  0
LINE
  8
_0-1_ADD_LINE
  6
CONTINUOUS
 62
    7
 10
-21.989138895358753
 20
12.762320938870722
 11
-21.865089356034726
 21
12.865695554974078
  0
LINE
  8
_0-1_ADD_LINE
  6
CONTINUOUS
 62
    7
 10
-21.865089356034726
 20
12.865695554974078
 11
-12.809472985380911
 21
18.029257629336609
  0
LINE
  8
_0-1_ADD_LINE
  6
CONTINUOUS
 62
    7
 10
-15.218101540589057
 20
16.716400004824013
 11
-15.238776463809732
 21
17.843183320350573
  0
LINE
  8
_0-1_ADD_LINE
  6
CONTINUOUS
 62
    7
 10
-15.238776463809732
 20
17.843183320350573
 11
-12.61306121478454
 21
19.983037873690002
  0
LINE
  8
_0-1_ADD_LINE
  6
CONTINUOUS
 62
    7
 10
-12.61306121478454
 20
19.983037873690002
 11
-12.209900211981459
 21
19.983037873689998
  0
LINE
  8
_0-1_ADD_LINE
  6
CONTINUOUS
 62
    7
 10
-12.209900211981459
 20
19.983037873689998
 11
-3.1336089181069751
 21
15.972102768879864
  0
LINE
  8
_0-1_ADD_LINE
  6
CONTINUOUS
 62
    7
 10
-3.1336089181069751
 20
15.972102768879864
 11
-2.7201104536935601
 21
15.724003690231815
  0
LINE
  8
_0-1_ADD_LINE
  6
CONTINUOUS
 62
    7
 10
-2.7201104536935601
 20
15.724003690231815
 11
-2.7511228385245614
 21
15.010718839118672
  0
LINE
  8
_0-1_ADD_LINE
  6
CONTINUOUS
 62
    7
 10
-2.7511228385245614
 20
15.010718839118672
 11
-2.3066119892801451
 21
14.43182098893989
  0
LINE
  8
_0-1_ADD_LINE
  6
CONTINUOUS
 62
    7
 10
-2.3066119892801451
 20
14.43182098893989
 11
-2.3893116821628224
 21
12.540065514248511
  0
LINE
  8
_0-1_ADD_LINE
  6
CONTINUOUS
 62
    7
 10
-12.61306121478454
 20
19.858988334365975
 11
-12.819810446991244
 21
18.142969707050298
  0
LINE
  8
_0-1_ADD_LINE
  6
CONTINUOUS
 62
    7
 10
-12.716435830887892
 20
18.711530095618745
 11
-4.2810671568542018
 21
14.928019146235989
  0
LINE
  8
_0-1_ADD_LINE
  6
CONTINUOUS
 62
    7
 10
-4.2810671568542018
 20
14.928019146235989
 11
-3.8779061540511206
 21
14.990043915898003
  0
LINE
  8
_0-1_ADD_LINE
  6
CONTINUOUS
 62
    7
 10
-3.8779061540511206
 20
14.990043915898003
 11
-3.288670842262003
 21
13.046601133154947
  0
LINE
  8
_0-1_ADD_LINE
  6
CONTINUOUS
 62
    7
 10
-3.7435191531167602
 20
15.083081070391021
 11
-2.97854699395194
 21
15.537929381245778
  0
LINE
  8
_0-1_ADD_LINE
  6
CONTINUOUS
 62
    7
 10
-21.359265302363408
 20
12.042009381060687
 11
-21.447025014695893
 21
12.135619740882005
  0
LINE
  8
_0-1_ADD_LINE
  6
CONTINUOUS
 62
    7
 10
-21.447025014695893
 20
12.135619740882005
 11
-21.43532371971823
 21
12.334541755502302
  0
LINE
  8
_0-1_ADD_LINE
  6
CONTINUOUS
 62
    7
 10
-21.43532371971823
 20
12.334541755502302
 11
-21.35341465487458
 21
12.51006118016727
  0
LINE
  8
_0-1_ADD_LINE
  6
CONTINUOUS
 62
    7
 10
-21.35341465487458
 20
12.51006118016727
 11
-21.236401705097936
 21
12.603671539988586
  0
LINE
  8
_0-1_ADD_LINE
  6
CONTINUOUS
 62
    7
 10
-21.236401705097936
 20
12.603671539988586
 11
-21.107687460343623
 21
12.609522187477419
  0
LINE
  8
_0-1_ADD_LINE
  6
CONTINUOUS
 62
    7
 10
-21.107687460343623
 20
12.609522187477419
 11
-21.066732927921795
 21
12.463256000256612
  0
LINE
  8
_0-1_ADD_LINE
  6
CONTINUOUS
 62
    7
 10
-21.066732927921795
 20
12.463256000256612
 11
-21.078434222899464
 21
12.235080748192154
  0
LINE
  8
_0-1_ADD_LINE
  6
CONTINUOUS
 62
    7
 10
-21.078434222899464
 20
12.235080748192154
 11
-21.183745877698446
 21
12.106366503437844
  0
LINE
  8
_0-1_ADD_LINE
  6
CONTINUOUS
 62
    7
 10
-21.183745877698446
 20
12.106366503437844
 11
-21.27150559003093
 21
12.059561323527184
  0
LINE
  8
_0-1_ADD_LINE
  6
CONTINUOUS
 62
    7
 10
-21.27150559003093
 20
12.059561323527184
 11
-21.359265302363408
 21
12.042009381060687
  0
LINE
  8
_0-1_ADD_LINE
  6
CONTINUOUS
 62
    7
 10
-18.012694938751348
 20
13.359575195545716
 11
-18.100454651083833
 21
13.453185555367032
  0
LINE
  8
_0-1_ADD_LINE
  6
CONTINUOUS
 62
    7
 10
-18.100454651083833
 20
13.453185555367032
 11
-18.088753356106171
 21
13.652107569987329
  0
LINE
  8
_0-1_ADD_LINE
  6
CONTINUOUS
 62
    7
 10
-18.088753356106171
 20
13.652107569987329
 11
-18.006844291262521
 21
13.827626994652299
  0
LINE
  8
_0-1_ADD_LINE
  6
CONTINUOUS
 62
    7
 10
-18.006844291262521
 20
13.827626994652299
 11
-17.889831341485877
 21
13.921237354473615
  0
LINE
  8
_0-1_ADD_LINE
  6
CONTINUOUS
 62
    7
 10
-17.889831341485877
 20
13.921237354473615
 11
-17.761117096731564
 21
13.927088001962446
  0
LINE
  8
_0-1_ADD_LINE
  6
CONTINUOUS
 62
    7
 10
-17.761117096731564
 20
13.927088001962446
 11
-17.720162564309735
 21
13.780821814741639
  0
LINE
  8
_0-1_ADD_LINE
  6
CONTINUOUS
 62
    7
 10
-17.720162564309735
 20
13.780821814741639
 11
-17.731863859287404
 21
13.552646562677182
  0
LINE
  8
_0-1_ADD_LINE
  6
CONTINUOUS
 62
    7
 10
-17.731863859287404
 20
13.552646562677182
 11
-17.837175514086386
 21
13.423932317922871
  0
LINE
  8
_0-1_ADD_LINE
  6
CONTINUOUS
 62
    7
 10
-17.837175514086386
 20
13.423932317922871
 11
-17.924935226418871
 21
13.377127138012213
  0
LINE
  8
_0-1_ADD_LINE
  6
CONTINUOUS
 62
    7
 10
-17.924935226418871
 20
13.377127138012213
 11
-18.012694938751348
 21
13.359575195545716
  0
LINE
  8
_0-1_ADD_LINE
  6
CONTINUOUS
 62
    7
 10
-14.31508572580935
 20
16.050873040408561
 11
-14.402845438141835
 21
16.144483400229877
  0
LINE
  8
_0-1_ADD_LINE
  6
CONTINUOUS
 62
    7
 10
-14.402845438141835
 20
16.144483400229877
 11
-14.391144143164173
 21
16.343405414850174
  0
LINE
  8
_0-1_ADD_LINE
  6
CONTINUOUS
 62
    7
 10
-14.391144143164173
 20
16.343405414850174
 11
-14.309235078320523
 21
16.518924839515144
  0
LINE
  8
_0-1_ADD_LINE
  6
CONTINUOUS
 62
    7
 10
-14.309235078320523
 20
16.518924839515144
 11
-14.192222128543879
 21
16.61253519933646
  0
LINE
  8
_0-1_ADD_LINE
  6
CONTINUOUS
 62
    7
 10
-14.192222128543879
 20
16.61253519933646
 11
-14.063507883789566
 21
16.618385846825291
  0
LINE
  8
_0-1_ADD_LINE
  6
CONTINUOUS
 62
    7
 10
-14.063507883789566
 20
16.618385846825291
 11
-14.022553351367737
 21
16.472119659604484
  0
LINE
  8
_0-1_ADD_LINE
  6
CONTINUOUS
 62
    7
 10
-14.022553351367737
 20
16.472119659604484
 11
-14.034254646345406
 21
16.243944407540027
  0
LINE
  8
_0-1_ADD_LINE
  6
CONTINUOUS
 62
    7
 10
-14.034254646345406
 20
16.243944407540027
 11
-14.139566301144388
 21
16.115230162785718
  0
LINE
  8
_0-1_ADD_LINE
  6
CONTINUOUS
 62
    7
 10
-14.139566301144388
 20
16.115230162785718
 11
-14.227326013476873
 21
16.068424982875058
  0
LINE
  8
_0-1_ADD_LINE
  6
CONTINUOUS
 62
    7
 10
-14.227326013476873
 20
16.068424982875058
 11
-14.31508572580935
 21
16.050873040408561
  0
LINE
  8
_0-1_ADD_LINE
  6
CONTINUOUS
 62
    7
 10
-18.474896090369096
 20
10.071511306821979
 11
-18.562655802701581
 21
10.165121666643294
  0
LINE
  8
_0-1_ADD_LINE
  6
CONTINUOUS
 62
    7
 10
-18.562655802701581
 20
10.165121666643294
 11
-18.550954507723919
 21
10.364043681263592
  0
LINE
  8
_0-1_ADD_LINE
  6
CONTINUOUS
 62
    7
 10
-18.550954507723919
 20
10.364043681263592
 11
-18.469045442880269
 21
10.539563105928561
  0
LINE
  8
_0-1_ADD_LINE
  6
CONTINUOUS
 62
    7
 10
-18.469045442880269
 20
10.539563105928561
 11
-18.352032493103625
 21
10.633173465749877
  0
LINE
  8
_0-1_ADD_LINE
  6
CONTINUOUS
 62
    7
 10
-18.352032493103625
 20
10.633173465749877
 11
-18.223318248349312
 21
10.639024113238708
  0
LINE
  8
_0-1_ADD_LINE
  6
CONTINUOUS
 62
    7
 10
-18.223318248349312
 20
10.639024113238708
 11
-18.182363715927483
 21
10.492757926017902
  0
LINE
  8
_0-1_ADD_LINE
  6
CONTINUOUS
 62
    7
 10
-18.182363715927483
 20
10.492757926017902
 11
-18.194065010905152
 21
10.264582673953445
  0
LINE
  8
_0-1_ADD_LINE
  6
CONTINUOUS
 62
    7
 10
-18.194065010905152
 20
10.264582673953445
 11
-18.299376665704134
 21
10.135868429199135
  0
LINE
  8
_0-1_ADD_LINE
  6
CONTINUOUS
 62
    7
 10
-18.299376665704134
 20
10.135868429199135
 11
-18.387136378036619
 21
10.089063249288476
  0
LINE
  8
_0-1_ADD_LINE
  6
CONTINUOUS
 62
    7
 10
-18.387136378036619
 20
10.089063249288476
 11
-18.474896090369096
 21
10.071511306821979
  0
LINE
  8
_0-1_ADD_LINE
  6
CONTINUOUS
 62
    7
 10
10.949869329738721
 20
10.389276921666415
 11
18.335711361031713
 21
6.1838152668376649
  0
LINE
  8
_0-1_ADD_LINE
  6
CONTINUOUS
 62
    7
 10
18.335711361031713
 20
6.1838152668376649
 11
18.32256929336037
 21
1.294966093099247
  0
LINE
  8
_0-1_ADD_LINE
  6
CONTINUOUS
 62
    7
 10
10.936727262067379
 20
5.3164388005292382
 11
23.106281925728073
 21
-1.4911522532247998
  0
LINE
  8
_0-1_ADD_LINE
  6
CONTINUOUS
 62
    7
 10
23.106281925728073
 20
-1.4911522532247998
 11
23.23770260244147
 21
-8.8572811830107803
  0
LINE
  8
_0-1_ADD_LINE
  6
CONTINUOUS
 62
    7
 10
23.23770260244147
 20
-8.8572811830107803
 11
23.014287452028693
 21
-9.3435376868503539
  0
LINE
  8
_0-1_ADD_LINE
  6
CONTINUOUS
 62
    7
 10
23.014287452028693
 20
-9.3435376868503539
 11
22.449178542161079
 21
-9.7903679876759071
  0
LINE
  8
_0-1_ADD_LINE
  6
CONTINUOUS
 62
    7
 10
22.449178542161079
 20
-9.7903679876759071
 11
20.911556624614317
 21
-10.447471371242901
  0
LINE
  8
_0-1_ADD_LINE
  6
CONTINUOUS
 62
    7
 10
20.911556624614317
 20
-10.447471371242901
 11
13.433720119621949
 21
-13.351868326609004
  0
LINE
  8
_0-1_ADD_LINE
  6
CONTINUOUS
 62
    7
 10
13.433720119621949
 20
-13.351868326609004
 11
12.789758803726297
 21
-13.483289003322405
  0
LINE
  8
_0-1_ADD_LINE
  6
CONTINUOUS
 62
    7
 10
12.789758803726297
 20
-13.483289003322405
 11
12.277218164544042
 21
-13.378152461951686
  0
LINE
  8
_0-1_ADD_LINE
  6
CONTINUOUS
 62
    7
 10
12.277218164544042
 20
-13.378152461951686
 11
11.593830645634373
 21
-13.338726258937665
  0
LINE
  8
_0-1_ADD_LINE
  6
CONTINUOUS
 62
    7
 10
23.18513433175611
 20
-7.3985116714920549
 11
21.739506887908728
 21
-6.5968455435403248
  0
LINE
  8
_0-1_ADD_LINE
  6
CONTINUOUS
 62
    7
 10
21.739506887908728
 20
-6.5968455435403248
 11
21.200682113383795
 21
-6.6231296788830063
  0
LINE
  8
_0-1_ADD_LINE
  6
CONTINUOUS
 62
    7
 10
21.200682113383795
 20
-6.6231296788830063
 11
19.413360910081575
 21
-3.94214787392968
  0
LINE
  8
_0-1_ADD_LINE
  6
CONTINUOUS
 62
    7
 10
19.413360910081575
 20
-3.94214787392968
 11
19.150519556654778
 21
-3.7318747911882424
  0
LINE
  8
_0-1_ADD_LINE
  6
CONTINUOUS
 62
    7
 10
19.150519556654778
 20
-3.7318747911882424
 11
14.077681435517601
 21
-0.3937896026679217
  0
LINE
  8
_0-1_ADD_LINE
  6
CONTINUOUS
 62
    7
 10
14.077681435517601
 20
-0.3937896026679217
 11
10.884158991382019
 21
1.6957991570751121
  0
LINE
  8
_0-1_ADD_LINE
  6
CONTINUOUS
 62
    7
 10
12.145797487830652
 20
-13.102169040853546
 11
11.567546510291702
 21
-13.325584191266326
  0
LINE
  8
_0-1_ADD_LINE
  6
CONTINUOUS
 62
    7
 10
11.567546510291702
 20
-13.325584191266326
 11
11.01557966809543
 21
-13.286157988252306
  0
LINE
  8
_0-1_ADD_LINE
  6
CONTINUOUS
 62
    7
 10
11.01557966809543
 20
-13.286157988252306
 11
10.476754893570497
 21
-13.194163514552926
  0
LINE
  8
_0-1_ADD_LINE
  6
CONTINUOUS
 62
    7
 10
10.476754893570497
 20
-13.194163514552926
 11
9.9773563220595811
 21
-13.062742837839529
  0
LINE
  8
_0-1_ADD_LINE
  6
CONTINUOUS
 62
    7
 10
9.9773563220595811
 20
-13.062742837839529
 11
-17.266149960627903
 21
-1.5240074224031472
  0
LINE
  8
_0-1_ADD_LINE
  6
CONTINUOUS
 62
    7
 10
-17.266149960627903
 20
-1.5240074224031472
 11
-17.476423043369341
 21
-1.3005922719903706
  0
LINE
  8
_0-1_ADD_LINE
  6
CONTINUOUS
 62
    7
 10
-17.476423043369341
 20
-1.3005922719903706
 11
-17.371286501998622
 21
-1.077177121577594
  0
LINE
  8
_0-1_ADD_LINE
  6
CONTINUOUS
 62
    7
 10
-17.371286501998622
 20
-1.077177121577594
 11
-17.055876877886465
 21
-0.7617674974654375
  0
LINE
  8
_0-1_ADD_LINE
  6
CONTINUOUS
 62
    7
 10
-17.055876877886465
 20
-0.7617674974654375
 11
-16.490767968018854
 21
-0.472642008695959
  0
LINE
  8
_0-1_ADD_LINE
  6
CONTINUOUS
 62
    7
 10
-16.490767968018854
 20
-0.472642008695959
 11
-11.3259353731823
 21
1.8797881044738718
  0
LINE
  8
_0-1_ADD_LINE
  6
CONTINUOUS
 62
    7
 10
-11.3259353731823
 20
1.8797881044738718
 11
-10.48484304221655
 21
2.0900611872153076
  0
LINE
  8
_0-1_ADD_LINE
  6
CONTINUOUS
 62
    7
 10
-10.48484304221655
 20
2.0900611872153076
 11
-10.116865147419031
 21
2.050634984201289
  0
LINE
  8
_0-1_ADD_LINE
  6
CONTINUOUS
 62
    7
 10
-10.116865147419031
 20
2.050634984201289
 11
-9.5648983052227585
 21
1.9980667135159296
  0
LINE
  8
_0-1_ADD_LINE
  6
CONTINUOUS
 62
    7
 10
-9.5648983052227585
 20
1.9980667135159296
 11
-9.1312100720685443
 21
1.8797881044738718
  0
LINE
  8
_0-1_ADD_LINE
  6
CONTINUOUS
 62
    7
 10
-9.1312100720685443
 20
1.8797881044738718
 11
13.118310495509796
 21
-8.384166746842542
  0
LINE
  8
_0-1_ADD_LINE
  6
CONTINUOUS
 62
    7
 10
13.118310495509796
 20
-8.384166746842542
 11
17.92830726322018
 21
-10.644602386312997
  0
LINE
  8
_0-1_ADD_LINE
  6
CONTINUOUS
 62
    7
 10
17.92830726322018
 20
-10.644602386312997
 11
18.375137564045737
 21
-10.841733401383095
  0
LINE
  8
_0-1_ADD_LINE
  6
CONTINUOUS
 62
    7
 10
18.375137564045737
 20
-10.841733401383095
 11
18.375137564045737
 21
-11.052006484124533
  0
LINE
  8
_0-1_ADD_LINE
  6
CONTINUOUS
 62
    7
 10
18.375137564045737
 20
-11.052006484124533
 11
18.15172241363296
 21
-11.18342716083793
  0
LINE
  8
_0-1_ADD_LINE
  6
CONTINUOUS
 62
    7
 10
18.15172241363296
 20
-11.18342716083793
 11
12.145797487830652
 21
-13.102169040853546
  0
LINE
  8
_0-1_ADD_LINE
  6
CONTINUOUS
 62
    7
 10
17.757460383492763
 20
-11.380558175908028
 11
19.176803691997467
 21
-10.631460318641658
  0
LINE
  8
_0-1_ADD_LINE
  6
CONTINUOUS
 62
    7
 10
19.176803691997467
 20
-10.631460318641658
 11
19.255656098025504
 21
-10.302908626858162
  0
LINE
  8
_0-1_ADD_LINE
  6
CONTINUOUS
 62
    7
 10
19.255656098025504
 20
-10.302908626858162
 11
19.058525082955409
 21
-10.079493476445386
  0
LINE
  8
_0-1_ADD_LINE
  6
CONTINUOUS
 62
    7
 10
19.058525082955409
 20
-10.079493476445386
 11
-9.1706362750825683
 21
2.9705797211950786
  0
LINE
  8
_0-1_ADD_LINE
  6
CONTINUOUS
 62
    7
 10
-9.1706362750825683
 20
2.9705797211950786
 11
-9.6963189819361624
 21
3.0757162625657957
  0
LINE
  8
_0-1_ADD_LINE
  6
CONTINUOUS
 62
    7
 10
-9.6963189819361624
 20
3.0757162625657957
 11
-10.182575485775732
 21
3.1151424655798161
  0
LINE
  8
_0-1_ADD_LINE
  6
CONTINUOUS
 62
    7
 10
-10.182575485775732
 20
3.1151424655798161
 11
-10.563695448244591
 21
3.1414266009224958
  0
LINE
  8
_0-1_ADD_LINE
  6
CONTINUOUS
 62
    7
 10
-10.563695448244591
 20
3.1414266009224958
 11
-11.010525749070144
 21
3.0625741948944567
  0
LINE
  8
_0-1_ADD_LINE
  6
CONTINUOUS
 62
    7
 10
-11.010525749070144
 20
3.0625741948944567
 11
-11.444213982224358
 21
2.9180114505097192
  0
LINE
  8
_0-1_ADD_LINE
  6
CONTINUOUS
 62
    7
 10
-11.444213982224358
 20
2.9180114505097192
 11
-17.6604119907681
 21
0.1318931041856723
  0
LINE
  8
_0-1_ADD_LINE
  6
CONTINUOUS
 62
    7
 10
-17.6604119907681
 20
0.1318931041856723
 11
-17.962679547208918
 21
-0.0915220462271042
  0
LINE
  8
_0-1_ADD_LINE
  6
CONTINUOUS
 62
    7
 10
-17.962679547208918
 20
-0.0915220462271042
 11
-18.054674020908298
 21
-0.2492268582831824
  0
LINE
  8
_0-1_ADD_LINE
  6
CONTINUOUS
 62
    7
 10
-18.054674020908298
 20
-0.2492268582831824
 11
-18.054674020908298
 21
-0.6172047530806983
  0
LINE
  8
_0-1_ADD_LINE
  6
CONTINUOUS
 62
    7
 10
-18.054674020908298
 20
-0.6172047530806983
 11
-17.765548532138819
 21
-0.9720405802068752
  0
LINE
  8
_0-1_ADD_LINE
  6
CONTINUOUS
 62
    7
 10
-17.765548532138819
 20
-0.9720405802068752
 11
-17.555275449397381
 21
-0.9983247155495531
  0
LINE
  8
_0-1_ADD_LINE
  6
CONTINUOUS
 62
    7
 10
-17.502707178712026
 20
-1.2348819336336723
 11
-17.423854772683985
 21
-0.196658587597823
  0
LINE
  8
_0-1_ADD_LINE
  6
CONTINUOUS
 62
    7
 10
-17.423854772683985
 20
-0.196658587597823
 11
-16.582762441718234
 21
0.263313780899069
  0
LINE
  8
_0-1_ADD_LINE
  6
CONTINUOUS
 62
    7
 10
-16.582762441718234
 20
0.263313780899069
 11
-11.549350523595077
 21
2.5763176910548813
  0
LINE
  8
_0-1_ADD_LINE
  6
CONTINUOUS
 62
    7
 10
-11.549350523595077
 20
2.5763176910548813
 11
-10.97109954605612
 21
2.8260169768103394
  0
LINE
  8
_0-1_ADD_LINE
  6
CONTINUOUS
 62
    7
 10
-10.97109954605612
 20
2.8260169768103394
 11
-10.366564433174492
 21
2.8785852474956988
  0
LINE
  8
_0-1_ADD_LINE
  6
CONTINUOUS
 62
    7
 10
-10.366564433174492
 20
2.8785852474956988
 11
-9.7488872526215182
 21
2.8785852474956988
  0
LINE
  8
_0-1_ADD_LINE
  6
CONTINUOUS
 62
    7
 10
-9.7488872526215182
 20
2.8785852474956988
 11
-9.2100624780965852
 21
2.7997328414676597
  0
LINE
  8
_0-1_ADD_LINE
  6
CONTINUOUS
 62
    7
 10
-9.2100624780965852
 20
2.7997328414676597
 11
-8.9866473276838086
 21
2.7208804354396205
  0
LINE
  8
_0-1_ADD_LINE
  6
CONTINUOUS
 62
    7
 10
-8.9866473276838086
 20
2.7208804354396205
 11
14.45880139798647
 21
-8.1870357317724505
  0
LINE
  8
_0-1_ADD_LINE
  6
CONTINUOUS
 62
    7
 10
14.45880139798647
 20
-8.1870357317724505
 11
18.480274105416456
 21
-10.066351408774043
  0
LINE
  8
_0-1_ADD_LINE
  6
CONTINUOUS
 62
    7
 10
18.480274105416456
 20
-10.066351408774043
 11
18.664263052815212
 21
-10.28976655918682
  0
LINE
  8
_0-1_ADD_LINE
  6
CONTINUOUS
 62
    7
 10
18.664263052815212
 20
-10.28976655918682
 11
18.651120985143873
 21
-10.394903100557539
  0
LINE
  8
_0-1_ADD_LINE
  6
CONTINUOUS
 62
    7
 10
18.559126511444493
 20
-10.447471371242901
 11
18.467132037745117
 21
-10.802307198369075
  0
LINE
  8
_0-1_ADD_LINE
  6
CONTINUOUS
 62
    7
 10
-10.787110598657367
 20
2.6551700970829204
 11
-10.800252666328706
 21
2.3529025406421047
  0
LINE
  8
_0-1_ADD_LINE
  6
CONTINUOUS
 62
    7
 10
-9.854023793992237
 20
2.7208804354396205
 11
-9.9328762000202779
 21
2.313476337628086
  0
LINE
  8
_0-1_ADD_LINE
  6
CONTINUOUS
 62
    7
 10
-9.0917838690545274
 20
2.5237494203695219
 11
-9.0786418013831884
 21
2.1426294579006671
  0
LINE
  8
_0-1_ADD_LINE
  6
CONTINUOUS
 62
    7
 10
-17.463280975698002
 20
-0.3937896026679217
 11
-17.726122329124802
 21
-0.1572323845838061
  0
LINE
  8
_0-1_ADD_LINE
  6
CONTINUOUS
 62
    7
 10
-17.726122329124802
 20
-0.1572323845838061
 11
-17.6604119907681
 21
0.0661827658289739
  0
LINE
  8
_0-1_ADD_LINE
  6
CONTINUOUS
 62
    7
 10
-17.6604119907681
 20
0.0661827658289739
 11
-17.528991314054704
 21
0.1976034425423707
  0
LINE
  8
_0-1_ADD_LINE
  6
CONTINUOUS
 62
    7
 10
-17.515849246383365
 20
-1.2085977982909908
 11
-17.93639541186624
 21
-1.0377509185635736
  0
LINE
  8
_0-1_ADD_LINE
  6
CONTINUOUS
 62
    7
 10
-17.93639541186624
 20
-1.0377509185635736
 11
-22.982949397660729
 21
4.2650733868220501
  0
LINE
  8
_0-1_ADD_LINE
  6
CONTINUOUS
 62
    7
 10
-22.982949397660729
 20
4.2650733868220501
 11
-23.06180180368877
 21
4.4227781988781301
  0
LINE
  8
_0-1_ADD_LINE
  6
CONTINUOUS
 62
    7
 10
-23.06180180368877
 20
4.4227781988781301
 11
-23.140654209716811
 21
4.6461933492909067
  0
LINE
  8
_0-1_ADD_LINE
  6
CONTINUOUS
 62
    7
 10
-23.140654209716811
 20
4.6461933492909067
 11
-23.140654209716811
 21
6.1443890638236498
  0
LINE
  8
_0-1_ADD_LINE
  6
CONTINUOUS
 62
    7
 10
-23.140654209716811
 20
6.1443890638236498
 11
-22.991872671561286
 21
6.2497201243594214
  0
LINE
  8
_0-1_ADD_LINE
  6
CONTINUOUS
 62
    7
 10
-19.119181502286818
 20
1.8206487999528411
 11
-13.625797215666761
 21
4.5016306049061692
  0
LINE
  8
_0-1_ADD_LINE
  6
CONTINUOUS
 62
    7
 10
-13.625797215666761
 20
4.5016306049061692
 11
-13.323529659225944
 21
4.606767146276888
  0
LINE
  8
_0-1_ADD_LINE
  6
CONTINUOUS
 62
    7
 10
-13.323529659225944
 20
4.606767146276888
 11
-13.113256576484506
 21
4.606767146276888
  0
LINE
  8
_0-1_ADD_LINE
  6
CONTINUOUS
 62
    7
 10
-13.113256576484506
 20
4.606767146276888
 11
-12.022464959763301
 21
4.1862209807940127
  0
LINE
  8
_0-1_ADD_LINE
  6
CONTINUOUS
 62
    7
 10
-12.022464959763301
 20
4.1862209807940127
 11
-11.904186350721243
 21
3.883953424353197
  0
LINE
  8
_0-1_ADD_LINE
  6
CONTINUOUS
 62
    7
 10
-11.904186350721243
 20
3.883953424353197
 11
-11.930470486063921
 21
3.6868224092830983
  0
LINE
  8
_0-1_ADD_LINE
  6
CONTINUOUS
 62
    7
 10
-11.930470486063921
 20
3.6868224092830983
 11
-12.048749095105979
 21
3.5159755295556812
  0
LINE
  8
_0-1_ADD_LINE
  6
CONTINUOUS
 62
    7
 10
-12.048749095105979
 20
3.5159755295556812
 11
-18.422651915705803
 21
0.5327261681615373
  0
LINE
  8
_0-1_ADD_LINE
  6
CONTINUOUS
 62
    7
 10
-18.422651915705803
 20
0.5327261681615373
 11
-18.63292499844724
 21
0.6641468448749359
  0
LINE
  8
_0-1_ADD_LINE
  6
CONTINUOUS
 62
    7
 10
-18.63292499844724
 20
0.6641468448749359
 11
-18.90890841954538
 21
1.0452668073437907
  0
LINE
  8
_0-1_ADD_LINE
  6
CONTINUOUS
 62
    7
 10
-18.90890841954538
 20
1.0452668073437907
 11
-19.158607705300835
 21
1.4001026344699676
  0
LINE
  8
_0-1_ADD_LINE
  6
CONTINUOUS
 62
    7
 10
-19.158607705300835
 20
1.4001026344699676
 11
-19.119181502286818
 21
1.8206487999528411
  0
LINE
  8
_0-1_ADD_LINE
  6
CONTINUOUS
 62
    7
 10
-18.593498795433224
 20
0.9401302659730719
 11
-18.580356727761885
 21
0.6904309802176156
  0
LINE
  8
_0-1_ADD_LINE
  6
CONTINUOUS
 62
    7
 10
-11.983038756749284
 20
3.9496637627098954
 11
-12.548147666616895
 21
3.6605382739404186
  0
LINE
  8
_0-1_ADD_LINE
  6
CONTINUOUS
 62
    7
 10
-12.548147666616895
 20
3.6605382739404186
 11
-12.732136614015655
 21
3.7262486122971188
  0
LINE
  8
_0-1_ADD_LINE
  6
CONTINUOUS
 62
    7
 10
-12.732136614015655
 20
3.7262486122971188
 11
-13.257819320869249
 21
4.4753464695634895
  0
LINE
  8
_0-1_ADD_LINE
  6
CONTINUOUS
 62
    7
 10
-14.020059245806959
 20
4.2387892514793721
 11
-13.678365486352124
 21
4.2387892514793721
  0
LINE
  8
_0-1_ADD_LINE
  6
CONTINUOUS
 62
    7
 10
-13.678365486352124
 20
4.2387892514793721
 11
-13.257819320869249
 21
3.5159755295556812
  0
LINE
  8
_0-1_ADD_LINE
  6
CONTINUOUS
 62
    7
 10
-13.257819320869249
 20
3.5159755295556812
 11
-13.362955862239968
 21
3.3976969205136216
  0
LINE
  8
_0-1_ADD_LINE
  6
CONTINUOUS
 62
    7
 10
-13.362955862239968
 20
3.3976969205136216
 11
-14.230332328548396
 21
3.0034348903734278
  0
LINE
  8
_0-1_ADD_LINE
  6
CONTINUOUS
 62
    7
 10
-14.230332328548396
 20
3.0034348903734278
 11
-14.466889546632512
 21
3.0822872964014669
  0
LINE
  8
_0-1_ADD_LINE
  6
CONTINUOUS
 62
    7
 10
-14.466889546632512
 20
3.0822872964014669
 11
-14.66402056170261
 21
3.4634072588703217
  0
LINE
  8
_0-1_ADD_LINE
  6
CONTINUOUS
 62
    7
 10
-14.66402056170261
 20
3.4634072588703217
 11
-14.690304697045288
 21
3.8051010183251579
  0
LINE
  8
_0-1_ADD_LINE
  6
CONTINUOUS
 62
    7
 10
-14.690304697045288
 20
3.8051010183251579
 11
-14.598310223345909
 21
3.9233796273672157
  0
LINE
  8
_0-1_ADD_LINE
  6
CONTINUOUS
 62
    7
 10
-15.42626048664032
 20
3.5159755295556812
 11
-14.953146050472089
 21
2.911440416674048
  0
LINE
  8
_0-1_ADD_LINE
  6
CONTINUOUS
 62
    7
 10
-14.953146050472089
 20
2.911440416674048
 11
-14.926861915129411
 21
2.6880252662612714
  0
LINE
  8
_0-1_ADD_LINE
  6
CONTINUOUS
 62
    7
 10
-14.926861915129411
 20
2.6880252662612714
 11
-15.058282591842808
 21
2.5697466572192118
  0
LINE
  8
_0-1_ADD_LINE
  6
CONTINUOUS
 62
    7
 10
-15.058282591842808
 20
2.5697466572192118
 11
-15.833664584451856
 21
2.2543370331070571
  0
LINE
  8
_0-1_ADD_LINE
  6
CONTINUOUS
 62
    7
 10
-15.833664584451856
 20
2.2543370331070571
 11
-15.965085261165253
 21
2.3463315068064352
  0
LINE
  8
_0-1_ADD_LINE
  6
CONTINUOUS
 62
    7
 10
-15.965085261165253
 20
2.3463315068064352
 11
-16.175358343906691
 21
2.5828887248905525
  0
LINE
  8
_0-1_ADD_LINE
  6
CONTINUOUS
 62
    7
 10
-16.175358343906691
 20
2.5828887248905525
 11
-16.556478306375549
 21
3.0560031610587872
  0
LINE
  8
_0-1_ADD_LINE
  6
CONTINUOUS
 62
    7
 10
-17.055876877886458
 20
2.7931618076319902
 11
-16.45134176500483
 21
2.0834901533796382
  0
LINE
  8
_0-1_ADD_LINE
  6
CONTINUOUS
 62
    7
 10
-16.45134176500483
 20
2.0834901533796382
 11
-16.425057629662152
 21
1.8337908676241819
  0
LINE
  8
_0-1_ADD_LINE
  6
CONTINUOUS
 62
    7
 10
-16.425057629662152
 20
1.8337908676241819
 11
-17.30557616364192
 21
1.4395288374839863
  0
LINE
  8
_0-1_ADD_LINE
  6
CONTINUOUS
 62
    7
 10
-17.30557616364192
 20
1.4395288374839863
 11
-17.515849246383357
 21
1.4395288374839863
  0
LINE
  8
_0-1_ADD_LINE
  6
CONTINUOUS
 62
    7
 10
-17.515849246383357
 20
1.4395288374839863
 11
-18.080958156250968
 21
2.2543370331070571
  0
LINE
  8
_0-1_ADD_LINE
  6
CONTINUOUS
 62
    7
 10
-19.027187028587438
 20
1.8469329352955208
 11
-18.606640863104563
 21
1.9520694766662396
  0
LINE
  8
_0-1_ADD_LINE
  6
CONTINUOUS
 62
    7
 10
-18.606640863104563
 20
1.9520694766662396
 11
-18.14666849460767
 21
1.3606764314559472
  0
LINE
  8
_0-1_ADD_LINE
  6
CONTINUOUS
 62
    7
 10
-18.14666849460767
 20
1.3606764314559472
 11
-18.120384359264985
 21
1.0715509426864704
  0
LINE
  8
_0-1_ADD_LINE
  6
CONTINUOUS
 62
    7
 10
-18.120384359264985
 20
1.0715509426864704
 11
-18.488362254062505
 21
0.9007040629590532
  0
LINE
  8
_0-1_ADD_LINE
  6
CONTINUOUS
 62
    7
 10
-18.488362254062505
 20
0.9007040629590532
 11
-18.659209133789926
 21
0.9795564689870923
  0
LINE
  8
_0-1_ADD_LINE
  6
CONTINUOUS
 62
    7
 10
-18.659209133789926
 20
0.9795564689870923
 11
-19.040329096258777
 21
1.4132447021413066
  0
LINE
  8
_0-1_ADD_LINE
  6
CONTINUOUS
 62
    7
 10
-18.488362254062505
 20
1.1635454163858503
 11
-18.488362254062505
 21
0.9926985366584313
  0
LINE
  8
_0-1_ADD_LINE
  6
CONTINUOUS
 62
    7
 10
-17.279292028299242
 20
2.4251839128344743
 11
-17.3975706373413
 21
1.5578074465260441
  0
LINE
  8
_0-1_ADD_LINE
  6
CONTINUOUS
 62
    7
 10
-15.741670110752477
 20
3.2531341761288841
 11
-15.781096313766501
 21
2.4777521835198337
  0
LINE
  8
_0-1_ADD_LINE
  6
CONTINUOUS
 62
    7
 10
-14.085769584163661
 20
4.0022320333952548
 11
-14.230332328548396
 21
3.2137079731148654
  0
LINE
  8
_0-1_ADD_LINE
  6
CONTINUOUS
 62
    7
 10
-12.495579395931539
 20
4.2519313191507129
 11
-12.495579395931539
 21
3.9628058303812361
  0
LINE
  8
_0-1_ADD_LINE
  6
CONTINUOUS
 62
    7
 10
7.6117841412184122
 20
4.1730789131226738
 11
8.8339964346530131
 21
4.6724774846335864
  0
LINE
  8
_0-1_ADD_LINE
  6
CONTINUOUS
 62
    7
 10
8.8339964346530131
 20
4.6724774846335864
 11
9.3465370738352682
 21
4.7513298906616255
  0
LINE
  8
_0-1_ADD_LINE
  6
CONTINUOUS
 62
    7
 10
9.3465370738352682
 20
4.7513298906616255
 11
9.6882308332901026
 21
4.7119036876476068
  0
LINE
  8
_0-1_ADD_LINE
  6
CONTINUOUS
 62
    7
 10
9.6882308332901026
 20
4.7119036876476068
 11
10.135061134115656
 21
4.2519313191507129
  0
LINE
  8
_0-1_ADD_LINE
  6
CONTINUOUS
 62
    7
 10
10.135061134115656
 20
4.2519313191507129
 11
10.424186622885134
 21
3.713106544625778
  0
LINE
  8
_0-1_ADD_LINE
  6
CONTINUOUS
 62
    7
 10
10.424186622885134
 20
3.713106544625778
 11
10.529323164255853
 21
3.0165769580447668
  0
LINE
  8
_0-1_ADD_LINE
  6
CONTINUOUS
 62
    7
 10
10.529323164255853
 20
3.0165769580447668
 11
10.450470758227812
 21
2.5434625218765321
  0
LINE
  8
_0-1_ADD_LINE
  6
CONTINUOUS
 62
    7
 10
10.450470758227812
 20
2.5434625218765321
 11
10.358476284528432
 21
2.175484627079018
  0
LINE
  8
_0-1_ADD_LINE
  6
CONTINUOUS
 62
    7
 10
10.358476284528432
 20
2.175484627079018
 11
10.200771472472358
 21
2.0046377473515991
  0
LINE
  8
_0-1_ADD_LINE
  6
CONTINUOUS
 62
    7
 10
10.200771472472358
 20
2.0046377473515991
 11
9.8459356453461844
 21
2.0177798150229398
  0
LINE
  8
_0-1_ADD_LINE
  6
CONTINUOUS
 62
    7
 10
9.8459356453461844
 20
2.0177798150229398
 11
9.4253894798633091
 21
2.175484627079018
  0
LINE
  8
_0-1_ADD_LINE
  6
CONTINUOUS
 62
    7
 10
9.4253894798633091
 20
2.175484627079018
 11
8.9522750436950709
 21
2.7537356046179697
  0
LINE
  8
_0-1_ADD_LINE
  6
CONTINUOUS
 62
    7
 10
8.9522750436950709
 20
2.7537356046179697
 11
8.7420019609536332
 21
3.2662762438002249
  0
LINE
  8
_0-1_ADD_LINE
  6
CONTINUOUS
 62
    7
 10
8.7420019609536332
 20
3.2662762438002249
 11
8.6368654195829144
 21
4.0153741010665955
  0
LINE
  8
_0-1_ADD_LINE
  6
CONTINUOUS
 62
    7
 10
8.6368654195829144
 20
4.0153741010665955
 11
8.7420019609536332
 21
4.3570678605214299
  0
LINE
  8
_0-1_ADD_LINE
  6
CONTINUOUS
 62
    7
 10
8.7420019609536332
 20
4.3570678605214299
 11
8.9259909083523929
 21
4.6724774846335864
  0
LINE
  8
_0-1_ADD_LINE
  6
CONTINUOUS
 62
    7
 10
10.200771472472358
 20
2.0046377473515991
 11
9.1756901941078475
 21
1.3738184991272879
  0
LINE
  8
_0-1_ADD_LINE
  6
CONTINUOUS
 62
    7
 10
9.1756901941078475
 20
1.3738184991272879
 11
8.8077122993103352
 21
1.3738184991272879
  0
LINE
  8
_0-1_ADD_LINE
  6
CONTINUOUS
 62
    7
 10
8.8077122993103352
 20
1.3738184991272879
 11
8.1768930510860223
 21
1.6760860555681036
  0
LINE
  8
_0-1_ADD_LINE
  6
CONTINUOUS
 62
    7
 10
8.1768930510860223
 20
1.6760860555681036
 11
7.7826310209458258
 21
1.9257853413235599
  0
LINE
  8
_0-1_ADD_LINE
  6
CONTINUOUS
 62
    7
 10
7.7826310209458258
 20
1.9257853413235599
 11
7.5986420735470697
 21
2.2543370331070571
  0
LINE
  8
_0-1_ADD_LINE
  6
CONTINUOUS
 62
    7
 10
7.5986420735470697
 20
2.2543370331070571
 11
7.4672213968336694
 21
2.7668776722893105
  0
LINE
  8
_0-1_ADD_LINE
  6
CONTINUOUS
 62
    7
 10
7.4672213968336694
 20
2.7668776722893105
 11
7.3489427877916116
 21
3.2925603791429046
  0
LINE
  8
_0-1_ADD_LINE
  6
CONTINUOUS
 62
    7
 10
7.3489427877916116
 20
3.2925603791429046
 11
7.4409372614909914
 21
3.6079700032550592
  0
LINE
  8
_0-1_ADD_LINE
  6
CONTINUOUS
 62
    7
 10
7.4409372614909914
 20
3.6079700032550592
 11
7.5066475998476934
 21
3.9496637627098954
  0
LINE
  8
_0-1_ADD_LINE
  6
CONTINUOUS
 62
    7
 10
7.5066475998476934
 20
3.9496637627098954
 11
7.6117841412184122
 21
4.1730789131226738
  0
LINE
  8
_0-1_ADD_LINE
  6
CONTINUOUS
 62
    7
 10
7.8351992916311888
 20
4.330783725178752
 11
7.5066475998476934
 21
4.4227781988781301
  0
LINE
  8
_0-1_ADD_LINE
  6
CONTINUOUS
 62
    7
 10
7.5066475998476934
 20
4.4227781988781301
 11
7.0466752313507977
 21
4.0548003040806142
  0
LINE
  8
_0-1_ADD_LINE
  6
CONTINUOUS
 62
    7
 10
7.0466752313507977
 20
4.0548003040806142
 11
6.8101180132666785
 21
3.5816858679123795
  0
LINE
  8
_0-1_ADD_LINE
  6
CONTINUOUS
 62
    7
 10
6.8101180132666785
 20
3.5816858679123795
 11
6.7969759455953396
 21
3.161139702429506
  0
LINE
  8
_0-1_ADD_LINE
  6
CONTINUOUS
 62
    7
 10
6.7969759455953396
 20
3.161139702429506
 11
6.849544216280699
 21
2.5566045895478728
  0
LINE
  8
_0-1_ADD_LINE
  6
CONTINUOUS
 62
    7
 10
6.849544216280699
 20
2.5566045895478728
 11
7.0335331636794587
 21
2.0966322210509789
  0
LINE
  8
_0-1_ADD_LINE
  6
CONTINUOUS
 62
    7
 10
7.0335331636794587
 20
2.0966322210509789
 11
7.2306641787495538
 21
1.741796393924802
  0
LINE
  8
_0-1_ADD_LINE
  6
CONTINUOUS
 62
    7
 10
7.2306641787495538
 20
1.741796393924802
 11
7.4935055321763508
 21
1.465812972826666
  0
LINE
  8
_0-1_ADD_LINE
  6
CONTINUOUS
 62
    7
 10
7.4935055321763508
 20
1.465812972826666
 11
7.8483413593025277
 21
1.1766874840571893
  0
LINE
  8
_0-1_ADD_LINE
  6
CONTINUOUS
 62
    7
 10
7.8483413593025277
 20
1.1766874840571893
 11
8.2688875247854021
 21
1.0584088750151315
  0
LINE
  8
_0-1_ADD_LINE
  6
CONTINUOUS
 62
    7
 10
8.2688875247854021
 20
1.0584088750151315
 11
8.5842971488975586
 21
0.9926985366584313
  0
LINE
  8
_0-1_ADD_LINE
  6
CONTINUOUS
 62
    7
 10
8.5842971488975586
 20
0.9926985366584313
 11
9.1756901941078475
 21
1.3738184991272879
  0
LINE
  8
_0-1_ADD_LINE
  6
CONTINUOUS
 62
    7
 10
-13.047546238127818
 20
16.349204610619037
 11
-12.561289734288248
 21
16.099505324863578
  0
LINE
  8
_0-1_ADD_LINE
  6
CONTINUOUS
 62
    7
 10
-12.561289734288248
 20
16.099505324863578
 11
-12.337874583875465
 21
15.90237430979348
  0
LINE
  8
_0-1_ADD_LINE
  6
CONTINUOUS
 62
    7
 10
-12.337874583875465
 20
15.90237430979348
 11
-12.27216424551877
 21
15.613248821024005
  0
LINE
  8
_0-1_ADD_LINE
  6
CONTINUOUS
 62
    7
 10
-12.27216424551877
 20
15.613248821024005
 11
-12.416726989903506
 21
15.442401941296588
  0
LINE
  8
_0-1_ADD_LINE
  6
CONTINUOUS
 62
    7
 10
-12.416726989903506
 20
15.442401941296588
 11
-12.574431801959587
 21
15.363549535268547
  0
LINE
  8
_0-1_ADD_LINE
  6
CONTINUOUS
 62
    7
 10
-12.574431801959587
 20
15.363549535268547
 11
-12.902983493743083
 21
15.284697129240508
  0
LINE
  8
_0-1_ADD_LINE
  6
CONTINUOUS
 62
    7
 10
-12.902983493743083
 20
15.284697129240508
 11
-13.2052510501839
 21
15.337265399925867
  0
LINE
  8
_0-1_ADD_LINE
  6
CONTINUOUS
 62
    7
 10
-13.376097929911314
 20
13.037403557441396
 11
-13.402382065253992
 21
13.221392504840153
  0
LINE
  8
_0-1_ADD_LINE
  6
CONTINUOUS
 62
    7
 10
-13.402382065253992
 20
13.221392504840153
 11
-13.284103456211934
 21
13.339671113882211
  0
LINE
  8
_0-1_ADD_LINE
  6
CONTINUOUS
 62
    7
 10
-13.284103456211934
 20
13.339671113882211
 11
-13.139540711827198
 21
13.339671113882211
  0
LINE
  8
_0-1_ADD_LINE
  6
CONTINUOUS
 62
    7
 10
-13.139540711827198
 20
13.339671113882211
 11
-11.220798831811582
 21
12.393442241545744
  0
LINE
  8
_0-1_ADD_LINE
  6
CONTINUOUS
 62
    7
 10
-11.220798831811582
 20
12.393442241545744
 11
-11.207656764140243
 21
12.222595361818325
  0
LINE
  8
_0-1_ADD_LINE
  6
CONTINUOUS
 62
    7
 10
-11.207656764140243
 20
12.222595361818325
 11
-11.24708296715426
 21
12.117458820447606
  0
LINE
  8
_0-1_ADD_LINE
  6
CONTINUOUS
 62
    7
 10
-11.24708296715426
 20
12.117458820447606
 11
-11.50992432058106
 21
12.091174685104928
  0
LINE
  8
_0-1_ADD_LINE
  6
CONTINUOUS
 62
    7
 10
-11.50992432058106
 20
12.091174685104928
 11
-11.733339470993837
 21
12.130600888118945
  0
LINE
  8
_0-1_ADD_LINE
  6
CONTINUOUS
 62
    7
 10
-11.733339470993837
 20
12.130600888118945
 11
-13.376097929911314
 21
13.037403557441396
  0
LINE
  8
_0-1_ADD_LINE
  6
CONTINUOUS
 62
    7
 10
-13.717791689366148
 20
11.512923707565974
 11
-13.336671726897297
 21
11.670628519622053
  0
LINE
  8
_0-1_ADD_LINE
  6
CONTINUOUS
 62
    7
 10
-13.336671726897297
 20
11.670628519622053
 11
-12.955551764428439
 21
11.723196790307412
  0
LINE
  8
_0-1_ADD_LINE
  6
CONTINUOUS
 62
    7
 10
-12.955551764428439
 20
11.723196790307412
 11
-12.797846952372364
 21
11.710054722636073
  0
LINE
  8
_0-1_ADD_LINE
  6
CONTINUOUS
 62
    7
 10
-12.797846952372364
 20
11.710054722636073
 11
-12.653284207987621
 21
11.539207842908652
  0
LINE
  8
_0-1_ADD_LINE
  6
CONTINUOUS
 62
    7
 10
-12.653284207987621
 20
11.539207842908652
 11
-12.771562817029686
 21
11.394645098523917
  0
LINE
  8
_0-1_ADD_LINE
  6
CONTINUOUS
 62
    7
 10
-12.771562817029686
 20
11.394645098523917
 11
-13.546944809638735
 21
10.94781479769836
  0
LINE
  8
_0-1_ADD_LINE
  6
CONTINUOUS
 62
    7
 10
-11.917328418392589
 20
14.049342768134562
 11
-10.747684395643351
 21
14.667019948687535
  0
LINE
  8
_0-1_ADD_LINE
  6
CONTINUOUS
 62
    7
 10
-10.747684395643351
 20
14.667019948687535
 11
-10.497985109887889
 21
14.732730287044234
  0
LINE
  8
_0-1_ADD_LINE
  6
CONTINUOUS
 62
    7
 10
-10.497985109887889
 20
14.732730287044234
 11
-10.261427891803773
 21
14.706446151701556
  0
LINE
  8
_0-1_ADD_LINE
  6
CONTINUOUS
 62
    7
 10
-10.261427891803773
 20
14.706446151701556
 11
-10.130007215090377
 21
14.601309610330837
  0
LINE
  8
_0-1_ADD_LINE
  6
CONTINUOUS
 62
    7
 10
-10.130007215090377
 20
14.601309610330837
 11
-10.077438944405014
 21
14.391036527589399
  0
LINE
  8
_0-1_ADD_LINE
  6
CONTINUOUS
 62
    7
 10
-10.077438944405014
 20
14.391036527589399
 11
-10.248285824132434
 21
14.272757918547342
  0
LINE
  8
_0-1_ADD_LINE
  6
CONTINUOUS
 62
    7
 10
-10.248285824132434
 20
14.272757918547342
 11
-11.168230561126226
 21
13.773359347036426
  0
LINE
  8
_0-1_ADD_LINE
  6
CONTINUOUS
 62
    7
 10
-11.168230561126226
 20
13.773359347036426
 11
-11.365361576196317
 21
13.707649008679727
  0
LINE
  8
_0-1_ADD_LINE
  6
CONTINUOUS
 62
    7
 10
-11.365361576196317
 20
13.707649008679727
 11
-11.549350523595077
 21
13.681364873337047
  0
LINE
  8
_0-1_ADD_LINE
  6
CONTINUOUS
 62
    7
 10
-11.549350523595077
 20
13.681364873337047
 11
-11.707055335651159
 21
13.760217279365087
  0
LINE
  8
_0-1_ADD_LINE
  6
CONTINUOUS
 62
    7
 10
-11.707055335651159
 20
13.760217279365087
 11
-11.851618080035895
 21
13.917922091421165
  0
LINE
  8
_0-1_ADD_LINE
  6
CONTINUOUS
 62
    7
 10
-11.851618080035895
 20
13.917922091421165
 11
-11.917328418392589
 21
14.049342768134562
  0
LINE
  8
_0-1_ADD_LINE
  6
CONTINUOUS
 62
    7
 10
-10.474534881213241
 20
11.540014738501817
 11
-10.500819016555919
 21
11.724003685900573
  0
LINE
  8
_0-1_ADD_LINE
  6
CONTINUOUS
 62
    7
 10
-10.500819016555919
 20
11.724003685900573
 11
-10.382540407513861
 21
11.842282294942631
  0
LINE
  8
_0-1_ADD_LINE
  6
CONTINUOUS
 62
    7
 10
-10.382540407513861
 20
11.842282294942631
 11
-10.237977663129126
 21
11.842282294942631
  0
LINE
  8
_0-1_ADD_LINE
  6
CONTINUOUS
 62
    7
 10
-10.237977663129126
 20
11.842282294942631
 11
-8.3192357831135091
 21
10.896053422606165
  0
LINE
  8
_0-1_ADD_LINE
  6
CONTINUOUS
 62
    7
 10
-8.3192357831135091
 20
10.896053422606165
 11
-8.3060937154421701
 21
10.725206542878745
  0
LINE
  8
_0-1_ADD_LINE
  6
CONTINUOUS
 62
    7
 10
-8.3060937154421701
 20
10.725206542878745
 11
-8.345519918456187
 21
10.620070001508026
  0
LINE
  8
_0-1_ADD_LINE
  6
CONTINUOUS
 62
    7
 10
-8.345519918456187
 20
10.620070001508026
 11
-8.6083612718829876
 21
10.593785866165348
  0
LINE
  8
_0-1_ADD_LINE
  6
CONTINUOUS
 62
    7
 10
-8.6083612718829876
 20
10.593785866165348
 11
-8.8317764222957642
 21
10.633212069179368
  0
LINE
  8
_0-1_ADD_LINE
  6
CONTINUOUS
 62
    7
 10
-8.8317764222957642
 20
10.633212069179368
 11
-10.474534881213241
 21
11.540014738501817
  0
LINE
  8
_0-1_ADD_LINE
  6
CONTINUOUS
 62
    7
 10
-7.7607691037515449
 20
10.220614802498343
 11
-7.7870532390942229
 21
10.404603749897099
  0
LINE
  8
_0-1_ADD_LINE
  6
CONTINUOUS
 62
    7
 10
-7.7870532390942229
 20
10.404603749897099
 11
-7.6687746300521651
 21
10.522882358939157
  0
LINE
  8
_0-1_ADD_LINE
  6
CONTINUOUS
 62
    7
 10
-7.6687746300521651
 20
10.522882358939157
 11
-7.5242118856674294
 21
10.522882358939157
  0
LINE
  8
_0-1_ADD_LINE
  6
CONTINUOUS
 62
    7
 10
-7.5242118856674294
 20
10.522882358939157
 11
-5.6054700056518127
 21
9.5766534866026909
  0
LINE
  8
_0-1_ADD_LINE
  6
CONTINUOUS
 62
    7
 10
-5.6054700056518127
 20
9.5766534866026909
 11
-5.5923279379804738
 21
9.4058066068752701
  0
LINE
  8
_0-1_ADD_LINE
  6
CONTINUOUS
 62
    7
 10
-5.5923279379804738
 20
9.4058066068752701
 11
-5.6317541409944907
 21
9.3006700655045513
  0
LINE
  8
_0-1_ADD_LINE
  6
CONTINUOUS
 62
    7
 10
-5.6317541409944907
 20
9.3006700655045513
 11
-5.8945954944212913
 21
9.2743859301618734
  0
LINE
  8
_0-1_ADD_LINE
  6
CONTINUOUS
 62
    7
 10
-5.8945954944212913
 20
9.2743859301618734
 11
-6.1180106448340679
 21
9.3138121331758938
  0
LINE
  8
_0-1_ADD_LINE
  6
CONTINUOUS
 62
    7
 10
-6.1180106448340679
 20
9.3138121331758938
 11
-7.7607691037515449
 21
10.220614802498343
  0
LINE
  8
_0-1_ADD_LINE
  6
CONTINUOUS
 62
    7
 10
-10.471194221776482
 20
13.252331645988026
 11
-9.3015501990272433
 21
13.870008826540998
  0
LINE
  8
_0-1_ADD_LINE
  6
CONTINUOUS
 62
    7
 10
-9.3015501990272433
 20
13.870008826540998
 11
-9.0518509132717817
 21
13.935719164897698
  0
LINE
  8
_0-1_ADD_LINE
  6
CONTINUOUS
 62
    7
 10
-9.0518509132717817
 20
13.935719164897698
 11
-8.8152936951876661
 21
13.909435029555016
  0
LINE
  8
_0-1_ADD_LINE
  6
CONTINUOUS
 62
    7
 10
-8.8152936951876661
 20
13.909435029555016
 11
-8.6838730184742694
 21
13.804298488184298
  0
LINE
  8
_0-1_ADD_LINE
  6
CONTINUOUS
 62
    7
 10
-8.6838730184742694
 20
13.804298488184298
 11
-8.6313047477889064
 21
13.59402540544286
  0
LINE
  8
_0-1_ADD_LINE
  6
CONTINUOUS
 62
    7
 10
-8.6313047477889064
 20
13.59402540544286
 11
-8.8021516275163272
 21
13.475746796400802
  0
LINE
  8
_0-1_ADD_LINE
  6
CONTINUOUS
 62
    7
 10
-8.8021516275163272
 20
13.475746796400802
 11
-9.7220963645101186
 21
12.97634822488989
  0
LINE
  8
_0-1_ADD_LINE
  6
CONTINUOUS
 62
    7
 10
-9.7220963645101186
 20
12.97634822488989
 11
-9.9192273795802102
 21
12.910637886533189
  0
LINE
  8
_0-1_ADD_LINE
  6
CONTINUOUS
 62
    7
 10
-9.9192273795802102
 20
12.910637886533189
 11
-10.10321632697897
 21
12.88435375119051
  0
LINE
  8
_0-1_ADD_LINE
  6
CONTINUOUS
 62
    7
 10
-10.10321632697897
 20
12.88435375119051
 11
-10.260921139035052
 21
12.963206157218549
  0
LINE
  8
_0-1_ADD_LINE
  6
CONTINUOUS
 62
    7
 10
-10.260921139035052
 20
12.963206157218549
 11
-10.405483883419787
 21
13.120910969274627
  0
LINE
  8
_0-1_ADD_LINE
  6
CONTINUOUS
 62
    7
 10
-10.405483883419787
 20
13.120910969274627
 11
-10.471194221776482
 21
13.252331645988026
  0
LINE
  8
_0-1_ADD_LINE
  6
CONTINUOUS
 62
    7
 10
-9.0543386086818423
 20
12.517665772531544
 11
-7.8846945859326025
 21
13.135342953084518
  0
LINE
  8
_0-1_ADD_LINE
  6
CONTINUOUS
 62
    7
 10
-7.8846945859326025
 20
13.135342953084518
 11
-7.6349953001771409
 21
13.201053291441216
  0
LINE
  8
_0-1_ADD_LINE
  6
CONTINUOUS
 62
    7
 10
-7.6349953001771409
 20
13.201053291441216
 11
-7.3984380820930253
 21
13.174769156098538
  0
LINE
  8
_0-1_ADD_LINE
  6
CONTINUOUS
 62
    7
 10
-7.3984380820930253
 20
13.174769156098538
 11
-7.2670174053796286
 21
13.069632614727819
  0
LINE
  8
_0-1_ADD_LINE
  6
CONTINUOUS
 62
    7
 10
-7.2670174053796286
 20
13.069632614727819
 11
-7.2144491346942656
 21
12.859359531986382
  0
LINE
  8
_0-1_ADD_LINE
  6
CONTINUOUS
 62
    7
 10
-7.2144491346942656
 20
12.859359531986382
 11
-7.3852960144216864
 21
12.741080922944324
  0
LINE
  8
_0-1_ADD_LINE
  6
CONTINUOUS
 62
    7
 10
-7.3852960144216864
 20
12.741080922944324
 11
-8.3052407514154787
 21
12.241682351433408
  0
LINE
  8
_0-1_ADD_LINE
  6
CONTINUOUS
 62
    7
 10
-8.3052407514154787
 20
12.241682351433408
 11
-8.5023717664855702
 21
12.175972013076709
  0
LINE
  8
_0-1_ADD_LINE
  6
CONTINUOUS
 62
    7
 10
-8.5023717664855702
 20
12.175972013076709
 11
-8.68636071388433
 21
12.14968787773403
  0
LINE
  8
_0-1_ADD_LINE
  6
CONTINUOUS
 62
    7
 10
-8.68636071388433
 20
12.14968787773403
 11
-8.8440655259404117
 21
12.228540283762069
  0
LINE
  8
_0-1_ADD_LINE
  6
CONTINUOUS
 62
    7
 10
-8.8440655259404117
 20
12.228540283762069
 11
-8.9886282703251474
 21
12.386245095818147
  0
LINE
  8
_0-1_ADD_LINE
  6
CONTINUOUS
 62
    7
 10
-8.9886282703251474
 20
12.386245095818147
 11
-9.0543386086818423
 21
12.517665772531544
  0
LINE
  8
_0-1_ADD_LINE
  6
CONTINUOUS
 62
    7
 10
-7.5925034523143564
 20
11.745516946347692
 11
-6.4228594295651176
 21
12.363194126900666
  0
LINE
  8
_0-1_ADD_LINE
  6
CONTINUOUS
 62
    7
 10
-6.4228594295651176
 20
12.363194126900666
 11
-6.1731601438096559
 21
12.428904465257364
  0
LINE
  8
_0-1_ADD_LINE
  6
CONTINUOUS
 62
    7
 10
-6.1731601438096559
 20
12.428904465257364
 11
-5.9366029257255404
 21
12.402620329914686
  0
LINE
  8
_0-1_ADD_LINE
  6
CONTINUOUS
 62
    7
 10
-5.9366029257255404
 20
12.402620329914686
 11
-5.8051822490121436
 21
12.297483788543968
  0
LINE
  8
_0-1_ADD_LINE
  6
CONTINUOUS
 62
    7
 10
-5.8051822490121436
 20
12.297483788543968
 11
-5.7526139783267807
 21
12.08721070580253
  0
LINE
  8
_0-1_ADD_LINE
  6
CONTINUOUS
 62
    7
 10
-5.7526139783267807
 20
12.08721070580253
 11
-5.9234608580542014
 21
11.968932096760472
  0
LINE
  8
_0-1_ADD_LINE
  6
CONTINUOUS
 62
    7
 10
-5.9234608580542014
 20
11.968932096760472
 11
-6.8434055950479928
 21
11.469533525249556
  0
LINE
  8
_0-1_ADD_LINE
  6
CONTINUOUS
 62
    7
 10
-6.8434055950479928
 20
11.469533525249556
 11
-7.0405366101180844
 21
11.403823186892858
  0
LINE
  8
_0-1_ADD_LINE
  6
CONTINUOUS
 62
    7
 10
-7.0405366101180844
 20
11.403823186892858
 11
-7.2245255575168441
 21
11.377539051550178
  0
LINE
  8
_0-1_ADD_LINE
  6
CONTINUOUS
 62
    7
 10
-7.2245255575168441
 20
11.377539051550178
 11
-7.3822303695729259
 21
11.456391457578217
  0
LINE
  8
_0-1_ADD_LINE
  6
CONTINUOUS
 62
    7
 10
-7.3822303695729259
 20
11.456391457578217
 11
-7.5267931139576616
 21
11.614096269634295
  0
LINE
  8
_0-1_ADD_LINE
  6
CONTINUOUS
 62
    7
 10
-7.5267931139576616
 20
11.614096269634295
 11
-7.5925034523143564
 21
11.745516946347692
  0
LINE
  8
_0-1_ADD_LINE
  6
CONTINUOUS
 62
    7
 10
-6.1306682959468715
 20
11.010851072891214
 11
-4.9610242731976326
 21
11.628528253444186
  0
LINE
  8
_0-1_ADD_LINE
  6
CONTINUOUS
 62
    7
 10
-4.9610242731976326
 20
11.628528253444186
 11
-4.711324987442171
 21
11.694238591800886
  0
LINE
  8
_0-1_ADD_LINE
  6
CONTINUOUS
 62
    7
 10
-4.711324987442171
 20
11.694238591800886
 11
-4.4747677693580554
 21
11.667954456458205
  0
LINE
  8
_0-1_ADD_LINE
  6
CONTINUOUS
 62
    7
 10
-4.4747677693580554
 20
11.667954456458205
 11
-4.3433470926446587
 21
11.562817915087486
  0
LINE
  8
_0-1_ADD_LINE
  6
CONTINUOUS
 62
    7
 10
-4.3433470926446587
 20
11.562817915087486
 11
-4.2907788219592957
 21
11.352544832346048
  0
LINE
  8
_0-1_ADD_LINE
  6
CONTINUOUS
 62
    7
 10
-4.2907788219592957
 20
11.352544832346048
 11
-4.4616257016867165
 21
11.23426622330399
  0
LINE
  8
_0-1_ADD_LINE
  6
CONTINUOUS
 62
    7
 10
-4.4616257016867165
 20
11.23426622330399
 11
-5.3815704386805079
 21
10.734867651793078
  0
LINE
  8
_0-1_ADD_LINE
  6
CONTINUOUS
 62
    7
 10
-5.3815704386805079
 20
10.734867651793078
 11
-5.5787014537505994
 21
10.669157313436378
  0
LINE
  8
_0-1_ADD_LINE
  6
CONTINUOUS
 62
    7
 10
-5.5787014537505994
 20
10.669157313436378
 11
-5.7626904011493592
 21
10.642873178093698
  0
LINE
  8
_0-1_ADD_LINE
  6
CONTINUOUS
 62
    7
 10
-5.7626904011493592
 20
10.642873178093698
 11
-5.9203952132054409
 21
10.721725584121737
  0
LINE
  8
_0-1_ADD_LINE
  6
CONTINUOUS
 62
    7
 10
-5.9203952132054409
 20
10.721725584121737
 11
-6.0649579575901766
 21
10.879430396177815
  0
LINE
  8
_0-1_ADD_LINE
  6
CONTINUOUS
 62
    7
 10
-6.0649579575901766
 20
10.879430396177815
 11
-6.1306682959468715
 21
11.010851072891214
  0
LINE
  8
_0-1_ADD_LINE
  6
CONTINUOUS
 62
    7
 10
-4.9162206275800342
 20
10.343654514344003
 11
-3.7465766048307954
 21
10.961331694896973
  0
LINE
  8
_0-1_ADD_LINE
  6
CONTINUOUS
 62
    7
 10
-3.7465766048307954
 20
10.961331694896973
 11
-3.4968773190753337
 21
11.027042033253673
  0
LINE
  8
_0-1_ADD_LINE
  6
CONTINUOUS
 62
    7
 10
-3.4968773190753337
 20
11.027042033253673
 11
-3.2603201009912182
 21
11.000757897910994
  0
LINE
  8
_0-1_ADD_LINE
  6
CONTINUOUS
 62
    7
 10
-3.2603201009912182
 20
11.000757897910994
 11
-3.1288994242778214
 21
10.895621356540275
  0
LINE
  8
_0-1_ADD_LINE
  6
CONTINUOUS
 62
    7
 10
-3.1288994242778214
 20
10.895621356540275
 11
-3.0763311535924585
 21
10.685348273798837
  0
LINE
  8
_0-1_ADD_LINE
  6
CONTINUOUS
 62
    7
 10
-3.0763311535924585
 20
10.685348273798837
 11
-3.2471780333198792
 21
10.567069664756779
  0
LINE
  8
_0-1_ADD_LINE
  6
CONTINUOUS
 62
    7
 10
-3.2471780333198792
 20
10.567069664756779
 11
-4.1671227703136706
 21
10.067671093245865
  0
LINE
  8
_0-1_ADD_LINE
  6
CONTINUOUS
 62
    7
 10
-4.1671227703136706
 20
10.067671093245865
 11
-4.3642537853837622
 21
10.001960754889165
  0
LINE
  8
_0-1_ADD_LINE
  6
CONTINUOUS
 62
    7
 10
-4.3642537853837622
 20
10.001960754889165
 11
-4.5482427327825219
 21
9.975676619546487
  0
LINE
  8
_0-1_ADD_LINE
  6
CONTINUOUS
 62
    7
 10
-4.5482427327825219
 20
9.975676619546487
 11
-4.7059475448386037
 21
10.054529025574524
  0
LINE
  8
_0-1_ADD_LINE
  6
CONTINUOUS
 62
    7
 10
-4.7059475448386037
 20
10.054529025574524
 11
-4.8505102892233394
 21
10.212233837630603
  0
LINE
  8
_0-1_ADD_LINE
  6
CONTINUOUS
 62
    7
 10
-4.8505102892233394
 20
10.212233837630603
 11
-4.9162206275800342
 21
10.343654514344003
  0
LINE
  8
_0-1_ADD_LINE
  6
CONTINUOUS
 62
    7
 10
-3.5743309199401336
 20
9.6239818219784716
 11
-2.4046868971908948
 21
10.241659002531442
  0
LINE
  8
_0-1_ADD_LINE
  6
CONTINUOUS
 62
    7
 10
-2.4046868971908948
 20
10.241659002531442
 11
-2.1549876114354332
 21
10.307369340888142
  0
LINE
  8
_0-1_ADD_LINE
  6
CONTINUOUS
 62
    7
 10
-2.1549876114354332
 20
10.307369340888142
 11
-1.9184303933513176
 21
10.281085205545462
  0
LINE
  8
_0-1_ADD_LINE
  6
CONTINUOUS
 62
    7
 10
-1.9184303933513176
 20
10.281085205545462
 11
-1.7870097166379209
 21
10.175948664174744
  0
LINE
  8
_0-1_ADD_LINE
  6
CONTINUOUS
 62
    7
 10
-1.7870097166379209
 20
10.175948664174744
 11
-1.7344414459525579
 21
9.965675581433306
  0
LINE
  8
_0-1_ADD_LINE
  6
CONTINUOUS
 62
    7
 10
-1.7344414459525579
 20
9.965675581433306
 11
-1.9052883256799786
 21
9.8473969723912482
  0
LINE
  8
_0-1_ADD_LINE
  6
CONTINUOUS
 62
    7
 10
-1.9052883256799786
 20
9.8473969723912482
 11
-2.8252330626737701
 21
9.3479984008803338
  0
LINE
  8
_0-1_ADD_LINE
  6
CONTINUOUS
 62
    7
 10
-2.8252330626737701
 20
9.3479984008803338
 11
-3.0223640777438616
 21
9.2822880625236337
  0
LINE
  8
_0-1_ADD_LINE
  6
CONTINUOUS
 62
    7
 10
-3.0223640777438616
 20
9.2822880625236337
 11
-3.2063530251426213
 21
9.2560039271809558
  0
LINE
  8
_0-1_ADD_LINE
  6
CONTINUOUS
 62
    7
 10
-3.2063530251426213
 20
9.2560039271809558
 11
-3.3640578371987031
 21
9.3348563332089931
  0
LINE
  8
_0-1_ADD_LINE
  6
CONTINUOUS
 62
    7
 10
-3.3640578371987031
 20
9.3348563332089931
 11
-3.5086205815834388
 21
9.4925611452650713
  0
LINE
  8
_0-1_ADD_LINE
  6
CONTINUOUS
 62
    7
 10
-3.5086205815834388
 20
9.4925611452650713
 11
-3.5743309199401336
 21
9.6239818219784716
  0
LINE
  8
_0-1_ADD_LINE
  6
CONTINUOUS
 62
    7
 10
-2.2024548501183387
 20
8.9642818539767326
 11
-1.0328108273690999
 21
9.5819590345297065
  0
LINE
  8
_0-1_ADD_LINE
  6
CONTINUOUS
 62
    7
 10
-1.0328108273690999
 20
9.5819590345297065
 11
-0.7831115416136382
 21
9.6476693728864049
  0
LINE
  8
_0-1_ADD_LINE
  6
CONTINUOUS
 62
    7
 10
-0.7831115416136382
 20
9.6476693728864049
 11
-0.5465543235295227
 21
9.6213852375437252
  0
LINE
  8
_0-1_ADD_LINE
  6
CONTINUOUS
 62
    7
 10
-0.5465543235295227
 20
9.6213852375437252
 11
-0.4151336468161259
 21
9.5162486961730064
  0
LINE
  8
_0-1_ADD_LINE
  6
CONTINUOUS
 62
    7
 10
-0.4151336468161259
 20
9.5162486961730064
 11
-0.362565376130763
 21
9.3059756134315688
  0
LINE
  8
_0-1_ADD_LINE
  6
CONTINUOUS
 62
    7
 10
-0.362565376130763
 20
9.3059756134315688
 11
-0.5334122558581837
 21
9.1876970043895092
  0
LINE
  8
_0-1_ADD_LINE
  6
CONTINUOUS
 62
    7
 10
-0.5334122558581837
 20
9.1876970043895092
 11
-1.4533569928519752
 21
8.6882984328785966
  0
LINE
  8
_0-1_ADD_LINE
  6
CONTINUOUS
 62
    7
 10
-1.4533569928519752
 20
8.6882984328785966
 11
-1.6504880079220667
 21
8.6225880945218982
  0
LINE
  8
_0-1_ADD_LINE
  6
CONTINUOUS
 62
    7
 10
-1.6504880079220667
 20
8.6225880945218982
 11
-1.8344769553208264
 21
8.5963039591792167
  0
LINE
  8
_0-1_ADD_LINE
  6
CONTINUOUS
 62
    7
 10
-1.8344769553208264
 20
8.5963039591792167
 11
-1.9921817673769082
 21
8.6751563652072576
  0
LINE
  8
_0-1_ADD_LINE
  6
CONTINUOUS
 62
    7
 10
-1.9921817673769082
 20
8.6751563652072576
 11
-2.1367445117616439
 21
8.8328611772633359
  0
LINE
  8
_0-1_ADD_LINE
  6
CONTINUOUS
 62
    7
 10
-2.1367445117616439
 20
8.8328611772633359
 11
-2.2024548501183387
 21
8.9642818539767326
  0
LINE
  8
_0-1_ADD_LINE
  6
CONTINUOUS
 62
    7
 10
-0.9280344573877128
 20
8.2296159805202542
 11
0.241609565361526
 21
8.8472931610732246
  0
LINE
  8
_0-1_ADD_LINE
  6
CONTINUOUS
 62
    7
 10
0.241609565361526
 20
8.8472931610732246
 11
0.4913088511169876
 21
8.9130034994299248
  0
LINE
  8
_0-1_ADD_LINE
  6
CONTINUOUS
 62
    7
 10
0.4913088511169876
 20
8.9130034994299248
 11
0.7278660692011031
 21
8.8867193640872451
  0
LINE
  8
_0-1_ADD_LINE
  6
CONTINUOUS
 62
    7
 10
0.7278660692011031
 20
8.8867193640872451
 11
0.8592867459144999
 21
8.7815828227165262
  0
LINE
  8
_0-1_ADD_LINE
  6
CONTINUOUS
 62
    7
 10
0.8592867459144999
 20
8.7815828227165262
 11
0.9118550165998629
 21
8.5713097399750886
  0
LINE
  8
_0-1_ADD_LINE
  6
CONTINUOUS
 62
    7
 10
0.9118550165998629
 20
8.5713097399750886
 11
0.7410081368724421
 21
8.4530311309330308
  0
LINE
  8
_0-1_ADD_LINE
  6
CONTINUOUS
 62
    7
 10
0.7410081368724421
 20
8.4530311309330308
 11
-0.1789366001213492
 21
7.9536325594221164
  0
LINE
  8
_0-1_ADD_LINE
  6
CONTINUOUS
 62
    7
 10
-0.1789366001213492
 20
7.9536325594221164
 11
-0.3760676151914408
 21
7.8879222210654172
  0
LINE
  8
_0-1_ADD_LINE
  6
CONTINUOUS
 62
    7
 10
-0.3760676151914408
 20
7.8879222210654172
 11
-0.5600565625902005
 21
7.8616380857227375
  0
LINE
  8
_0-1_ADD_LINE
  6
CONTINUOUS
 62
    7
 10
-0.5600565625902005
 20
7.8616380857227375
 11
-0.7177613746462823
 21
7.9404904917507766
  0
LINE
  8
_0-1_ADD_LINE
  6
CONTINUOUS
 62
    7
 10
-0.7177613746462823
 20
7.9404904917507766
 11
-0.862324119031018
 21
8.0981953038068539
  0
LINE
  8
_0-1_ADD_LINE
  6
CONTINUOUS
 62
    7
 10
-0.862324119031018
 20
8.0981953038068539
 11
-0.9280344573877128
 21
8.2296159805202542
  0
LINE
  8
_0-1_ADD_LINE
  6
CONTINUOUS
 62
    7
 10
0.3613791164338708
 20
7.5924057841549386
 11
1.5310231391831097
 21
8.2100829647079117
  0
LINE
  8
_0-1_ADD_LINE
  6
CONTINUOUS
 62
    7
 10
1.5310231391831097
 20
8.2100829647079117
 11
1.7807224249385714
 21
8.27579330306461
  0
LINE
  8
_0-1_ADD_LINE
  6
CONTINUOUS
 62
    7
 10
1.7807224249385714
 20
8.27579330306461
 11
2.0172796430226869
 21
8.2495091677219303
  0
LINE
  8
_0-1_ADD_LINE
  6
CONTINUOUS
 62
    7
 10
2.0172796430226869
 20
8.2495091677219303
 11
2.1487003197360837
 21
8.1443726263512115
  0
LINE
  8
_0-1_ADD_LINE
  6
CONTINUOUS
 62
    7
 10
2.1487003197360837
 20
8.1443726263512115
 11
2.2012685904214466
 21
7.9340995436097739
  0
LINE
  8
_0-1_ADD_LINE
  6
CONTINUOUS
 62
    7
 10
2.2012685904214466
 20
7.9340995436097739
 11
2.0304217106940259
 21
7.8158209345677152
  0
LINE
  8
_0-1_ADD_LINE
  6
CONTINUOUS
 62
    7
 10
2.0304217106940259
 20
7.8158209345677152
 11
1.1104769737002345
 21
7.3164223630568026
  0
LINE
  8
_0-1_ADD_LINE
  6
CONTINUOUS
 62
    7
 10
1.1104769737002345
 20
7.3164223630568026
 11
0.9133459586301429
 21
7.2507120247001025
  0
LINE
  8
_0-1_ADD_LINE
  6
CONTINUOUS
 62
    7
 10
0.9133459586301429
 20
7.2507120247001025
 11
0.7293570112313831
 21
7.2244278893574227
  0
LINE
  8
_0-1_ADD_LINE
  6
CONTINUOUS
 62
    7
 10
0.7293570112313831
 20
7.2244278893574227
 11
0.5716521991753014
 21
7.3032802953854619
  0
LINE
  8
_0-1_ADD_LINE
  6
CONTINUOUS
 62
    7
 10
0.5716521991753014
 20
7.3032802953854619
 11
0.4270894547905657
 21
7.4609851074415401
  0
LINE
  8
_0-1_ADD_LINE
  6
CONTINUOUS
 62
    7
 10
0.4270894547905657
 20
7.4609851074415401
 11
0.3613791164338708
 21
7.5924057841549386
  0
LINE
  8
_0-1_ADD_LINE
  6
CONTINUOUS
 62
    7
 10
1.67328246189187
 20
6.9402024066986767
 11
2.8429264846411089
 21
7.5578795872516489
  0
LINE
  8
_0-1_ADD_LINE
  6
CONTINUOUS
 62
    7
 10
2.8429264846411089
 20
7.5578795872516489
 11
3.0926257703965705
 21
7.6235899256083473
  0
LINE
  8
_0-1_ADD_LINE
  6
CONTINUOUS
 62
    7
 10
3.0926257703965705
 20
7.6235899256083473
 11
3.3291829884806861
 21
7.5973057902656693
  0
LINE
  8
_0-1_ADD_LINE
  6
CONTINUOUS
 62
    7
 10
3.3291829884806861
 20
7.5973057902656693
 11
3.4606036651940828
 21
7.4921692488949505
  0
LINE
  8
_0-1_ADD_LINE
  6
CONTINUOUS
 62
    7
 10
3.4606036651940828
 20
7.4921692488949505
 11
3.5131719358794458
 21
7.2818961661535129
  0
LINE
  8
_0-1_ADD_LINE
  6
CONTINUOUS
 62
    7
 10
3.5131719358794458
 20
7.2818961661535129
 11
3.342325056152025
 21
7.1636175571114533
  0
LINE
  8
_0-1_ADD_LINE
  6
CONTINUOUS
 62
    7
 10
3.342325056152025
 20
7.1636175571114533
 11
2.4223803191582336
 21
6.6642189856005389
  0
LINE
  8
_0-1_ADD_LINE
  6
CONTINUOUS
 62
    7
 10
2.4223803191582336
 20
6.6642189856005389
 11
2.225249304088142
 21
6.5985086472438406
  0
LINE
  8
_0-1_ADD_LINE
  6
CONTINUOUS
 62
    7
 10
2.225249304088142
 20
6.5985086472438406
 11
2.0412603566893823
 21
6.5722245119011609
  0
LINE
  8
_0-1_ADD_LINE
  6
CONTINUOUS
 62
    7
 10
2.0412603566893823
 20
6.5722245119011609
 11
1.8835555446333005
 21
6.6510769179292
  0
LINE
  8
_0-1_ADD_LINE
  6
CONTINUOUS
 62
    7
 10
1.8835555446333005
 20
6.6510769179292
 11
1.7389928002485648
 21
6.8087817299852782
  0
LINE
  8
_0-1_ADD_LINE
  6
CONTINUOUS
 62
    7
 10
1.7389928002485648
 20
6.8087817299852782
 11
1.67328246189187
 21
6.9402024066986767
  0
LINE
  8
_0-1_ADD_LINE
  6
CONTINUOUS
 62
    7
 10
-10.4785149146667
 20
10.234162411985968
 11
-10.228815628911239
 21
10.299872750342669
  0
LINE
  8
_0-1_ADD_LINE
  6
CONTINUOUS
 62
    7
 10
-10.228815628911239
 20
10.299872750342669
 11
-9.9922584108271231
 21
10.273588614999987
  0
LINE
  8
_0-1_ADD_LINE
  6
CONTINUOUS
 62
    7
 10
-9.9922584108271231
 20
10.273588614999987
 11
-9.8608377341137263
 21
10.168452073629268
  0
LINE
  8
_0-1_ADD_LINE
  6
CONTINUOUS
 62
    7
 10
-9.8608377341137263
 20
10.168452073629268
 11
-9.8082694634283634
 21
9.9581789908878307
  0
LINE
  8
_0-1_ADD_LINE
  6
CONTINUOUS
 62
    7
 10
-9.8082694634283634
 20
9.9581789908878307
 11
-9.9791163431557841
 21
9.8399003818457729
  0
LINE
  8
_0-1_ADD_LINE
  6
CONTINUOUS
 62
    7
 10
-12.07528870085272
 20
10.968828285442449
 11
-11.825589415097259
 21
11.034538623799147
  0
LINE
  8
_0-1_ADD_LINE
  6
CONTINUOUS
 62
    7
 10
-11.825589415097259
 20
11.034538623799147
 11
-11.589032197013143
 21
11.008254488456469
  0
LINE
  8
_0-1_ADD_LINE
  6
CONTINUOUS
 62
    7
 10
-11.589032197013143
 20
11.008254488456469
 11
-11.457611520299746
 21
10.90311794708575
  0
LINE
  8
_0-1_ADD_LINE
  6
CONTINUOUS
 62
    7
 10
-11.457611520299746
 20
10.90311794708575
 11
-11.405043249614383
 21
10.692844864344313
  0
LINE
  8
_0-1_ADD_LINE
  6
CONTINUOUS
 62
    7
 10
-11.405043249614383
 20
10.692844864344313
 11
-11.575890129341804
 21
10.574566255302255
  0
LINE
  8
_0-1_ADD_LINE
  6
CONTINUOUS
 62
    7
 10
-12.952574855420689
 20
10.505542338648125
 11
-12.07528870085272
 21
10.968828285442449
  0
LINE
  8
_0-1_ADD_LINE
  6
CONTINUOUS
 62
    7
 10
-11.575890129341804
 20
10.574566255302255
 11
-12.325755764327322
 21
10.167496339167258
  0
LINE
  8
_0-1_ADD_LINE
  6
CONTINUOUS
 62
    7
 10
11.613575348283423
 20
1.9417814222738139
 11
12.60201079629336
 21
2.4650707771026044
  0
LINE
  8
_0-1_ADD_LINE
  6
CONTINUOUS
 62
    7
 10
12.60201079629336
 20
2.4650707771026044
 11
12.787012083354043
 21
2.5020710345147412
  0
LINE
  8
_0-1_ADD_LINE
  6
CONTINUOUS
 62
    7
 10
12.787012083354043
 20
2.5020710345147412
 11
12.93501311300259
 21
2.4809280302792347
  0
LINE
  8
_0-1_ADD_LINE
  6
CONTINUOUS
 62
    7
 10
12.93501311300259
 20
2.4809280302792347
 11
13.056585387356751
 21
2.3857845112194545
  0
LINE
  8
_0-1_ADD_LINE
  6
CONTINUOUS
 62
    7
 10
13.056585387356751
 20
2.3857845112194545
 11
13.061871138415629
 21
2.2800694900419218
  0
LINE
  8
_0-1_ADD_LINE
  6
CONTINUOUS
 62
    7
 10
13.061871138415629
 20
2.2800694900419218
 11
13.030156632062369
 21
2.1743544688643874
  0
LINE
  8
_0-1_ADD_LINE
  6
CONTINUOUS
 62
    7
 10
13.030156632062369
 20
2.1743544688643874
 11
12.020578179816926
 21
1.7144941267421183
  0
LINE
  8
_0-1_ADD_LINE
  6
CONTINUOUS
 62
    7
 10
12.020578179816926
 20
1.7144941267421183
 11
11.888434403345009
 21
1.6827796203888576
  0
LINE
  8
_0-1_ADD_LINE
  6
CONTINUOUS
 62
    7
 10
11.888434403345009
 20
1.6827796203888576
 11
11.682290112048818
 21
1.6880653714477338
  0
LINE
  8
_0-1_ADD_LINE
  6
CONTINUOUS
 62
    7
 10
11.682290112048818
 20
1.6880653714477338
 11
11.592432344047914
 21
1.7250656288598707
  0
LINE
  8
_0-1_ADD_LINE
  6
CONTINUOUS
 62
    7
 10
11.592432344047914
 20
1.7250656288598707
 11
11.571289339812409
 21
1.8360664010962813
  0
LINE
  8
_0-1_ADD_LINE
  6
CONTINUOUS
 62
    7
 10
11.571289339812409
 20
1.8360664010962813
 11
11.613575348283423
 21
1.9417814222738139
  0
LINE
  8
_0-1_ADD_LINE
  6
CONTINUOUS
 62
    7
 10
12.741202240843776
 20
1.3400867600716859
 11
13.729637688853714
 21
1.8633761149004764
  0
LINE
  8
_0-1_ADD_LINE
  6
CONTINUOUS
 62
    7
 10
13.729637688853714
 20
1.8633761149004764
 11
13.914638975914396
 21
1.9003763723126132
  0
LINE
  8
_0-1_ADD_LINE
  6
CONTINUOUS
 62
    7
 10
13.914638975914396
 20
1.9003763723126132
 11
14.062640005562944
 21
1.8792333680771067
  0
LINE
  8
_0-1_ADD_LINE
  6
CONTINUOUS
 62
    7
 10
14.062640005562944
 20
1.8792333680771067
 11
14.184212279917105
 21
1.7840898490173265
  0
LINE
  8
_0-1_ADD_LINE
  6
CONTINUOUS
 62
    7
 10
14.184212279917105
 20
1.7840898490173265
 11
14.189498030975983
 21
1.6783748278397939
  0
LINE
  8
_0-1_ADD_LINE
  6
CONTINUOUS
 62
    7
 10
14.189498030975983
 20
1.6783748278397939
 11
14.157783524622722
 21
1.5726598066622595
  0
LINE
  8
_0-1_ADD_LINE
  6
CONTINUOUS
 62
    7
 10
14.157783524622722
 20
1.5726598066622595
 11
13.14820507237728
 21
1.1127994645399903
  0
LINE
  8
_0-1_ADD_LINE
  6
CONTINUOUS
 62
    7
 10
13.14820507237728
 20
1.1127994645399903
 11
13.016061295905363
 21
1.0810849581867297
  0
LINE
  8
_0-1_ADD_LINE
  6
CONTINUOUS
 62
    7
 10
13.016061295905363
 20
1.0810849581867297
 11
12.809917004609172
 21
1.0863707092456059
  0
LINE
  8
_0-1_ADD_LINE
  6
CONTINUOUS
 62
    7
 10
12.809917004609172
 20
1.0863707092456059
 11
12.720059236608268
 21
1.1233709666577427
  0
LINE
  8
_0-1_ADD_LINE
  6
CONTINUOUS
 62
    7
 10
12.720059236608268
 20
1.1233709666577427
 11
12.698916232372763
 21
1.2343717388941533
  0
LINE
  8
_0-1_ADD_LINE
  6
CONTINUOUS
 62
    7
 10
12.698916232372763
 20
1.2343717388941533
 11
12.741202240843776
 21
1.3400867600716859
  0
LINE
  8
_0-1_ADD_LINE
  6
CONTINUOUS
 62
    7
 10
13.835352710031248
 20
0.7745113967718824
 11
14.823788158041186
 21
1.2978007516006729
  0
LINE
  8
_0-1_ADD_LINE
  6
CONTINUOUS
 62
    7
 10
14.823788158041186
 20
1.2978007516006729
 11
15.008789445101868
 21
1.3348010090128097
  0
LINE
  8
_0-1_ADD_LINE
  6
CONTINUOUS
 62
    7
 10
15.008789445101868
 20
1.3348010090128097
 11
15.156790474750416
 21
1.3136580047773032
  0
LINE
  8
_0-1_ADD_LINE
  6
CONTINUOUS
 62
    7
 10
15.156790474750416
 20
1.3136580047773032
 11
15.278362749104577
 21
1.218514485717523
  0
LINE
  8
_0-1_ADD_LINE
  6
CONTINUOUS
 62
    7
 10
15.278362749104577
 20
1.218514485717523
 11
15.283648500163455
 21
1.1127994645399903
  0
LINE
  8
_0-1_ADD_LINE
  6
CONTINUOUS
 62
    7
 10
15.283648500163455
 20
1.1127994645399903
 11
15.251933993810194
 21
1.0070844433624559
  0
LINE
  8
_0-1_ADD_LINE
  6
CONTINUOUS
 62
    7
 10
15.251933993810194
 20
1.0070844433624559
 11
14.242355541564752
 21
0.5472241012401868
  0
LINE
  8
_0-1_ADD_LINE
  6
CONTINUOUS
 62
    7
 10
14.242355541564752
 20
0.5472241012401868
 11
14.110211765092835
 21
0.5155095948869261
  0
LINE
  8
_0-1_ADD_LINE
  6
CONTINUOUS
 62
    7
 10
14.110211765092835
 20
0.5155095948869261
 11
13.904067473796644
 21
0.5207953459458023
  0
LINE
  8
_0-1_ADD_LINE
  6
CONTINUOUS
 62
    7
 10
13.904067473796644
 20
0.5207953459458023
 11
13.81420970579574
 21
0.5577956033579392
  0
LINE
  8
_0-1_ADD_LINE
  6
CONTINUOUS
 62
    7
 10
13.81420970579574
 20
0.5577956033579392
 11
13.793066701560235
 21
0.6687963755943497
  0
LINE
  8
_0-1_ADD_LINE
  6
CONTINUOUS
 62
    7
 10
13.793066701560235
 20
0.6687963755943497
 11
13.835352710031248
 21
0.7745113967718824
  0
LINE
  8
_0-1_ADD_LINE
  6
CONTINUOUS
 62
    7
 10
14.855502664394447
 20
0.1983645313543265
 11
15.843938112404384
 21
0.7216538861831169
  0
LINE
  8
_0-1_ADD_LINE
  6
CONTINUOUS
 62
    7
 10
15.843938112404384
 20
0.7216538861831169
 11
16.028939399465067
 21
0.7586541435952538
  0
LINE
  8
_0-1_ADD_LINE
  6
CONTINUOUS
 62
    7
 10
16.028939399465067
 20
0.7586541435952538
 11
16.176940429113614
 21
0.7375111393597473
  0
LINE
  8
_0-1_ADD_LINE
  6
CONTINUOUS
 62
    7
 10
16.176940429113614
 20
0.7375111393597473
 11
16.298512703467775
 21
0.642367620299967
  0
LINE
  8
_0-1_ADD_LINE
  6
CONTINUOUS
 62
    7
 10
16.298512703467775
 20
0.642367620299967
 11
16.303798454526653
 21
0.5366525991224344
  0
LINE
  8
_0-1_ADD_LINE
  6
CONTINUOUS
 62
    7
 10
16.303798454526653
 20
0.5366525991224344
 11
16.272083948173393
 21
0.4309375779449
  0
LINE
  8
_0-1_ADD_LINE
  6
CONTINUOUS
 62
    7
 10
16.272083948173393
 20
0.4309375779449
 11
15.26250549592795
 21
-0.028922764177369
  0
LINE
  8
_0-1_ADD_LINE
  6
CONTINUOUS
 62
    7
 10
15.26250549592795
 20
-0.028922764177369
 11
15.130361719456033
 21
-0.0606372705306297
  0
LINE
  8
_0-1_ADD_LINE
  6
CONTINUOUS
 62
    7
 10
15.130361719456033
 20
-0.0606372705306297
 11
14.924217428159842
 21
-0.0553515194717535
  0
LINE
  8
_0-1_ADD_LINE
  6
CONTINUOUS
 62
    7
 10
14.924217428159842
 20
-0.0553515194717535
 11
14.834359660158938
 21
-0.0183512620596166
  0
LINE
  8
_0-1_ADD_LINE
  6
CONTINUOUS
 62
    7
 10
14.834359660158938
 20
-0.0183512620596166
 11
14.813216655923434
 21
0.0926495101767939
  0
LINE
  8
_0-1_ADD_LINE
  6
CONTINUOUS
 62
    7
 10
14.813216655923434
 20
0.0926495101767939
 11
14.855502664394447
 21
0.1983645313543265
  0
LINE
  8
_0-1_ADD_LINE
  6
CONTINUOUS
 62
    7
 10
15.759366095462354
 20
-0.3566393298277246
 11
16.747801543472292
 21
0.1666500250010658
  0
LINE
  8
_0-1_ADD_LINE
  6
CONTINUOUS
 62
    7
 10
16.747801543472292
 20
0.1666500250010658
 11
16.932802830532975
 21
0.2036502824132027
  0
LINE
  8
_0-1_ADD_LINE
  6
CONTINUOUS
 62
    7
 10
16.932802830532975
 20
0.2036502824132027
 11
17.080803860181522
 21
0.1825072781776961
  0
LINE
  8
_0-1_ADD_LINE
  6
CONTINUOUS
 62
    7
 10
17.080803860181522
 20
0.1825072781776961
 11
17.202376134535683
 21
0.0873637591179159
  0
LINE
  8
_0-1_ADD_LINE
  6
CONTINUOUS
 62
    7
 10
17.202376134535683
 20
0.0873637591179159
 11
17.207661885594561
 21
-0.0183512620596166
  0
LINE
  8
_0-1_ADD_LINE
  6
CONTINUOUS
 62
    7
 10
17.207661885594561
 20
-0.0183512620596166
 11
17.1759473792413
 21
-0.124066283237151
  0
LINE
  8
_0-1_ADD_LINE
  6
CONTINUOUS
 62
    7
 10
17.1759473792413
 20
-0.124066283237151
 11
16.166368926995858
 21
-0.5839266253594201
  0
LINE
  8
_0-1_ADD_LINE
  6
CONTINUOUS
 62
    7
 10
16.166368926995858
 20
-0.5839266253594201
 11
16.034225150523941
 21
-0.6156411317126808
  0
LINE
  8
_0-1_ADD_LINE
  6
CONTINUOUS
 62
    7
 10
16.034225150523941
 20
-0.6156411317126808
 11
15.82808085922775
 21
-0.6103553806538029
  0
LINE
  8
_0-1_ADD_LINE
  6
CONTINUOUS
 62
    7
 10
15.82808085922775
 20
-0.6103553806538029
 11
15.738223091226846
 21
-0.5733551232416678
  0
LINE
  8
_0-1_ADD_LINE
  6
CONTINUOUS
 62
    7
 10
15.738223091226846
 20
-0.5733551232416678
 11
15.717080086991341
 21
-0.4623543510052554
  0
LINE
  8
_0-1_ADD_LINE
  6
CONTINUOUS
 62
    7
 10
15.717080086991341
 20
-0.4623543510052554
 11
15.759366095462354
 21
-0.3566393298277246
  0
LINE
  8
_0-1_ADD_LINE
  6
CONTINUOUS
 62
    7
 10
16.689658281824649
 20
-0.9486434484219143
 11
17.678093729834586
 21
-0.4253540935931239
  0
LINE
  8
_0-1_ADD_LINE
  6
CONTINUOUS
 62
    7
 10
17.678093729834586
 20
-0.4253540935931239
 11
17.863095016895269
 21
-0.3883538361809852
  0
LINE
  8
_0-1_ADD_LINE
  6
CONTINUOUS
 62
    7
 10
17.863095016895269
 20
-0.3883538361809852
 11
18.011096046543816
 21
-0.40949684041649
  0
LINE
  8
_0-1_ADD_LINE
  6
CONTINUOUS
 62
    7
 10
18.011096046543816
 20
-0.40949684041649
 11
18.132668320897977
 21
-0.504640359476272
  0
LINE
  8
_0-1_ADD_LINE
  6
CONTINUOUS
 62
    7
 10
18.132668320897977
 20
-0.504640359476272
 11
18.137954071956855
 21
-0.6103553806538029
  0
LINE
  8
_0-1_ADD_LINE
  6
CONTINUOUS
 62
    7
 10
18.137954071956855
 20
-0.6103553806538029
 11
18.106239565603595
 21
-0.7160704018313408
  0
LINE
  8
_0-1_ADD_LINE
  6
CONTINUOUS
 62
    7
 10
18.106239565603595
 20
-0.7160704018313408
 11
17.096661113358152
 21
-1.17593074395361
  0
LINE
  8
_0-1_ADD_LINE
  6
CONTINUOUS
 62
    7
 10
17.096661113358152
 20
-1.17593074395361
 11
16.964517336886235
 21
-1.2076452503068706
  0
LINE
  8
_0-1_ADD_LINE
  6
CONTINUOUS
 62
    7
 10
16.964517336886235
 20
-1.2076452503068706
 11
16.758373045590044
 21
-1.2023594992479927
  0
LINE
  8
_0-1_ADD_LINE
  6
CONTINUOUS
 62
    7
 10
16.758373045590044
 20
-1.2023594992479927
 11
16.66851527758914
 21
-1.165359241835854
  0
LINE
  8
_0-1_ADD_LINE
  6
CONTINUOUS
 62
    7
 10
16.66851527758914
 20
-1.165359241835854
 11
16.647372273353636
 21
-1.0543584695994452
  0
LINE
  8
_0-1_ADD_LINE
  6
CONTINUOUS
 62
    7
 10
16.647372273353636
 20
-1.0543584695994452
 11
16.689658281824649
 21
-0.9486434484219143
  0
LINE
  8
_0-1_ADD_LINE
  6
CONTINUOUS
 62
    7
 10
18.828625543650073
 20
-1.4040989979951162
 11
19.203913868830316
 21
-1.2138119598755557
  0
LINE
  8
_0-1_ADD_LINE
  6
CONTINUOUS
 62
    7
 10
19.203913868830316
 20
-1.2138119598755557
 11
19.621488202481576
 21
-1.1292399429335296
  0
LINE
  8
_0-1_ADD_LINE
  6
CONTINUOUS
 62
    7
 10
19.621488202481576
 20
-1.1292399429335296
 11
19.954490519190802
 21
-1.1450971961101599
  0
LINE
  8
_0-1_ADD_LINE
  6
CONTINUOUS
 62
    7
 10
19.954490519190802
 20
-1.1450971961101599
 11
20.27692133378228
 21
-1.2402407151699384
  0
LINE
  8
_0-1_ADD_LINE
  6
CONTINUOUS
 62
    7
 10
20.27692133378228
 20
-1.2402407151699384
 11
20.419636612371949
 21
-1.3353842342297204
  0
LINE
  8
_0-1_ADD_LINE
  6
CONTINUOUS
 62
    7
 10
20.419636612371949
 20
-1.3353842342297204
 11
20.509494380372853
 21
-1.4516707575250072
  0
LINE
  8
_0-1_ADD_LINE
  6
CONTINUOUS
 62
    7
 10
20.509494380372853
 20
-1.4516707575250072
 11
20.514780131431731
 21
-1.5996717871735511
  0
LINE
  8
_0-1_ADD_LINE
  6
CONTINUOUS
 62
    7
 10
20.514780131431731
 20
-1.5996717871735511
 11
20.477779874019593
 21
-1.6948153062333331
  0
LINE
  8
_0-1_ADD_LINE
  6
CONTINUOUS
 62
    7
 10
20.477779874019593
 20
-1.6948153062333331
 11
20.324493093312171
 21
-1.7793873231753592
  0
LINE
  8
_0-1_ADD_LINE
  6
CONTINUOUS
 62
    7
 10
20.324493093312171
 20
-1.7793873231753592
 11
20.017919531897324
 21
-1.8798165932940156
  0
LINE
  8
_0-1_ADD_LINE
  6
CONTINUOUS
 62
    7
 10
20.017919531897324
 20
-1.8798165932940156
 11
19.716631721541354
 21
-1.9115310996472763
  0
LINE
  8
_0-1_ADD_LINE
  6
CONTINUOUS
 62
    7
 10
19.716631721541354
 20
-1.9115310996472763
 11
19.351914898478864
 21
-1.895673846470646
  0
LINE
  8
_0-1_ADD_LINE
  6
CONTINUOUS
 62
    7
 10
19.351914898478864
 20
-1.895673846470646
 11
19.129913354006046
 21
-1.8692450911762633
  0
LINE
  8
_0-1_ADD_LINE
  6
CONTINUOUS
 62
    7
 10
19.129913354006046
 20
-1.8692450911762633
 11
18.881483054238839
 21
-1.7582443189398544
  0
LINE
  8
_0-1_ADD_LINE
  6
CONTINUOUS
 62
    7
 10
18.881483054238839
 20
-1.7582443189398544
 11
18.807482539414568
 21
-1.6683865509389504
  0
LINE
  8
_0-1_ADD_LINE
  6
CONTINUOUS
 62
    7
 10
18.807482539414568
 20
-1.6683865509389504
 11
18.791625286237938
 21
-1.4886710149371423
  0
LINE
  8
_0-1_ADD_LINE
  6
CONTINUOUS
 62
    7
 10
18.791625286237938
 20
-1.4886710149371423
 11
18.828625543650073
 21
-1.4040989979951162
  0
LINE
  8
_0-1_ADD_LINE
  6
CONTINUOUS
 62
    7
 10
18.358193699410052
 20
-3.0373960751880089
 11
22.935654116397245
 21
-1.610243289291307
  0
LINE
  8
_0-1_ADD_LINE
  6
CONTINUOUS
 62
    7
 10
-22.299803445469284
 20
4.404941415710339
 11
-15.787758140933224
 21
7.8723941103334338
  0
LINE
  8
_0-1_ADD_LINE
  6
CONTINUOUS
 62
    7
 10
-14.730607929157895
 20
8.4221122204566079
 11
-14.054031793621679
 21
10.282696593181193
  0
LINE
  8
_0-1_ADD_LINE
  6
CONTINUOUS
 62
    7
 10
-14.054031793621679
 20
8.0415381442174869
 11
-10.079146997346424
 21
6.9421019239711415
  0
LINE
  8
_0-1_ADD_LINE
  6
CONTINUOUS
 62
    7
 10
-8.9374247686290609
 20
6.8575299070291136
 11
2.1415094507764296
 21
4.0666533479422329
  0
LINE
  8
_0-1_ADD_LINE
  6
CONTINUOUS
 62
    7
 10
11.359859297457341
 20
-1.5573857787025416
 11
20.705067169551288
 21
-6.6739928036951559
  0
LINE
  8
_0-1_ADD_LINE
  6
CONTINUOUS
 62
    7
 10
-9.8254309465203455
 20
8.4221122204566079
 11
-9.8254309465203455
 21
7.6609640679783668
  0
LINE
  8
_0-1_ADD_LINE
  6
CONTINUOUS
 62
    7
 10
-11.699086520078868
 20
-0.6601084810445128
 11
-11.221623852091316
 21
-0.5934857831857831
  0
LINE
  8
_0-1_ADD_LINE
  6
CONTINUOUS
 62
    7
 10
-11.221623852091316
 20
-0.5934857831857831
 11
-10.633123354339215
 21
-0.6379009150916017
  0
LINE
  8
_0-1_ADD_LINE
  6
CONTINUOUS
 62
    7
 10
-10.633123354339215
 20
-0.6379009150916017
 11
-10.133453120398752
 21
-0.8488727916442426
  0
LINE
  8
_0-1_ADD_LINE
  6
CONTINUOUS
 62
    7
 10
-10.133453120398752
 20
-0.8488727916442426
 11
-9.7892358481286585
 21
-1.2152976298672504
  0
LINE
  8
_0-1_ADD_LINE
  6
CONTINUOUS
 62
    7
 10
-9.7892358481286585
 20
-1.2152976298672504
 11
-9.822547197058018
 21
-1.6483451659489843
  0
LINE
  8
_0-1_ADD_LINE
  6
CONTINUOUS
 62
    7
 10
-9.822547197058018
 20
-1.6483451659489843
 11
-10.100141771469385
 21
-2.0258737871484476
  0
LINE
  8
_0-1_ADD_LINE
  6
CONTINUOUS
 62
    7
 10
-10.100141771469385
 20
-2.0258737871484476
 11
-10.932925494703493
 21
-2.1480153998894478
  0
LINE
  8
_0-1_ADD_LINE
  6
CONTINUOUS
 62
    7
 10
-10.932925494703493
 20
-2.1480153998894478
 11
-11.765709217937601
 21
-1.9592510892897179
  0
LINE
  8
_0-1_ADD_LINE
  6
CONTINUOUS
 62
    7
 10
-11.765709217937601
 20
-1.9592510892897179
 11
-12.032200009372513
 21
-1.7926943446428956
  0
LINE
  8
_0-1_ADD_LINE
  6
CONTINUOUS
 62
    7
 10
-12.032200009372513
 20
-1.7926943446428956
 11
-12.220964319972243
 21
-1.5262035532079841
  0
LINE
  8
_0-1_ADD_LINE
  6
CONTINUOUS
 62
    7
 10
-12.220964319972243
 20
-1.5262035532079841
 11
-12.30979458378388
 21
-1.2041938468907949
  0
LINE
  8
_0-1_ADD_LINE
  6
CONTINUOUS
 62
    7
 10
-12.30979458378388
 20
-1.2041938468907949
 11
-12.243171885925154
 21
-0.9043917065265167
  0
LINE
  8
_0-1_ADD_LINE
  6
CONTINUOUS
 62
    7
 10
-12.243171885925154
 20
-0.9043917065265167
 11
-11.987784877466698
 21
-0.7045236129503313
  0
LINE
  8
_0-1_ADD_LINE
  6
CONTINUOUS
 62
    7
 10
-11.987784877466698
 20
-0.7045236129503313
 11
-11.699086520078868
 21
-0.6601084810445128
  0
LINE
  8
_0-1_ADD_LINE
  6
CONTINUOUS
 62
    7
 10
-11.68798273710242
 20
-0.8710803575971537
 11
-11.643567605196598
 21
-1.0931560171262467
  0
LINE
  8
_0-1_ADD_LINE
  6
CONTINUOUS
 62
    7
 10
-11.643567605196598
 20
-1.0931560171262467
 11
-11.232727635067771
 21
-1.2930241107024321
  0
LINE
  8
_0-1_ADD_LINE
  6
CONTINUOUS
 62
    7
 10
-11.232727635067771
 20
-1.2930241107024321
 11
-10.866302796844767
 21
-1.3485430255847062
  0
LINE
  8
_0-1_ADD_LINE
  6
CONTINUOUS
 62
    7
 10
-10.866302796844767
 20
-1.3485430255847062
 11
-10.633123354339215
 21
-1.259712761773069
  0
LINE
  8
_0-1_ADD_LINE
  6
CONTINUOUS
 62
    7
 10
-10.633123354339215
 20
-1.259712761773069
 11
-10.522085524574667
 21
-1.1708824979614318
  0
LINE
  8
_0-1_ADD_LINE
  6
CONTINUOUS
 62
    7
 10
-10.522085524574667
 20
-1.1708824979614318
 11
-10.388840128857215
 21
-0.9043917065265167
  0
LINE
  8
_0-1_ADD_LINE
  6
CONTINUOUS
 62
    7
 10
-10.388840128857215
 20
-0.9043917065265167
 11
-10.522085524574667
 21
-0.7267311789032424
  0
LINE
  8
_0-1_ADD_LINE
  6
CONTINUOUS
 62
    7
 10
-14.798892601005821
 20
-0.8163545700703407
 11
-14.321429933018269
 21
-0.749731872211611
  0
LINE
  8
_0-1_ADD_LINE
  6
CONTINUOUS
 62
    7
 10
-14.321429933018269
 20
-0.749731872211611
 11
-13.732929435266168
 21
-0.7941470041174296
  0
LINE
  8
_0-1_ADD_LINE
  6
CONTINUOUS
 62
    7
 10
-13.732929435266168
 20
-0.7941470041174296
 11
-13.233259201325705
 21
-1.0051188806700706
  0
LINE
  8
_0-1_ADD_LINE
  6
CONTINUOUS
 62
    7
 10
-13.233259201325705
 20
-1.0051188806700706
 11
-12.889041929055612
 21
-1.3715437188930784
  0
LINE
  8
_0-1_ADD_LINE
  6
CONTINUOUS
 62
    7
 10
-12.889041929055612
 20
-1.3715437188930784
 11
-12.922353277984971
 21
-1.8045912549748122
  0
LINE
  8
_0-1_ADD_LINE
  6
CONTINUOUS
 62
    7
 10
-12.922353277984971
 20
-1.8045912549748122
 11
-13.199947852396338
 21
-2.1821198761742755
  0
LINE
  8
_0-1_ADD_LINE
  6
CONTINUOUS
 62
    7
 10
-13.199947852396338
 20
-2.1821198761742755
 11
-14.032731575630446
 21
-2.3042614889152757
  0
LINE
  8
_0-1_ADD_LINE
  6
CONTINUOUS
 62
    7
 10
-14.032731575630446
 20
-2.3042614889152757
 11
-14.865515298864555
 21
-2.1154971783155458
  0
LINE
  8
_0-1_ADD_LINE
  6
CONTINUOUS
 62
    7
 10
-14.865515298864555
 20
-2.1154971783155458
 11
-15.132006090299466
 21
-1.9489404336687235
  0
LINE
  8
_0-1_ADD_LINE
  6
CONTINUOUS
 62
    7
 10
-15.132006090299466
 20
-1.9489404336687235
 11
-15.320770400899196
 21
-1.682449642233812
  0
LINE
  8
_0-1_ADD_LINE
  6
CONTINUOUS
 62
    7
 10
-15.320770400899196
 20
-1.682449642233812
 11
-15.409600664710833
 21
-1.3604399359166228
  0
LINE
  8
_0-1_ADD_LINE
  6
CONTINUOUS
 62
    7
 10
-15.409600664710833
 20
-1.3604399359166228
 11
-15.342977966852107
 21
-1.0606377955523447
  0
LINE
  8
_0-1_ADD_LINE
  6
CONTINUOUS
 62
    7
 10
-15.342977966852107
 20
-1.0606377955523447
 11
-15.087590958393651
 21
-0.8607697019761593
  0
LINE
  8
_0-1_ADD_LINE
  6
CONTINUOUS
 62
    7
 10
-15.087590958393651
 20
-0.8607697019761593
 11
-14.798892601005821
 21
-0.8163545700703407
  0
LINE
  8
_0-1_ADD_LINE
  6
CONTINUOUS
 62
    7
 10
-14.787788818029373
 20
-1.0273264466229817
 11
-14.743373686123551
 21
-1.2494021061520746
  0
LINE
  8
_0-1_ADD_LINE
  6
CONTINUOUS
 62
    7
 10
-14.743373686123551
 20
-1.2494021061520746
 11
-14.332533715994725
 21
-1.44927019972826
  0
LINE
  8
_0-1_ADD_LINE
  6
CONTINUOUS
 62
    7
 10
-14.332533715994725
 20
-1.44927019972826
 11
-13.96610887777172
 21
-1.5047891146105341
  0
LINE
  8
_0-1_ADD_LINE
  6
CONTINUOUS
 62
    7
 10
-13.96610887777172
 20
-1.5047891146105341
 11
-13.732929435266168
 21
-1.4159588507988969
  0
LINE
  8
_0-1_ADD_LINE
  6
CONTINUOUS
 62
    7
 10
-13.732929435266168
 20
-1.4159588507988969
 11
-13.62189160550162
 21
-1.3271285869872598
  0
LINE
  8
_0-1_ADD_LINE
  6
CONTINUOUS
 62
    7
 10
-13.62189160550162
 20
-1.3271285869872598
 11
-13.488646209784168
 21
-1.0606377955523447
  0
LINE
  8
_0-1_ADD_LINE
  6
CONTINUOUS
 62
    7
 10
-13.488646209784168
 20
-1.0606377955523447
 11
-13.62189160550162
 21
-0.8829772679290703
  0
LINE
  8
_0-1_ADD_LINE
  6
CONTINUOUS
 62
    7
 10
-10.035369704106738
 20
1.548751203914521
 11
-9.557907036119186
 21
1.6153739017732507
  0
LINE
  8
_0-1_ADD_LINE
  6
CONTINUOUS
 62
    7
 10
-9.557907036119186
 20
1.6153739017732507
 11
-8.9694065383670853
 21
1.5709587698674321
  0
LINE
  8
_0-1_ADD_LINE
  6
CONTINUOUS
 62
    7
 10
-8.9694065383670853
 20
1.5709587698674321
 11
-8.4697363044266218
 21
1.3599868933147912
  0
LINE
  8
_0-1_ADD_LINE
  6
CONTINUOUS
 62
    7
 10
-8.4697363044266218
 20
1.3599868933147912
 11
-8.1255190321565287
 21
0.9935620550917834
  0
LINE
  8
_0-1_ADD_LINE
  6
CONTINUOUS
 62
    7
 10
-8.1255190321565287
 20
0.9935620550917834
 11
-8.1588303810858882
 21
0.5605145190100495
  0
LINE
  8
_0-1_ADD_LINE
  6
CONTINUOUS
 62
    7
 10
-8.1588303810858882
 20
0.5605145190100495
 11
-8.4364249554972552
 21
0.1829858978105862
  0
LINE
  8
_0-1_ADD_LINE
  6
CONTINUOUS
 62
    7
 10
-8.4364249554972552
 20
0.1829858978105862
 11
-9.2692086787313634
 21
0.060844285069586
  0
LINE
  8
_0-1_ADD_LINE
  6
CONTINUOUS
 62
    7
 10
-9.2692086787313634
 20
0.060844285069586
 11
-10.101992401965472
 21
0.2496085956693159
  0
LINE
  8
_0-1_ADD_LINE
  6
CONTINUOUS
 62
    7
 10
-10.101992401965472
 20
0.2496085956693159
 11
-10.368483193400383
 21
0.4161653403161382
  0
LINE
  8
_0-1_ADD_LINE
  6
CONTINUOUS
 62
    7
 10
-10.368483193400383
 20
0.4161653403161382
 11
-10.557247504000113
 21
0.6826561317510497
  0
LINE
  8
_0-1_ADD_LINE
  6
CONTINUOUS
 62
    7
 10
-10.557247504000113
 20
0.6826561317510497
 11
-10.64607776781175
 21
1.0046658380682389
  0
LINE
  8
_0-1_ADD_LINE
  6
CONTINUOUS
 62
    7
 10
-10.64607776781175
 20
1.0046658380682389
 11
-10.579455069953024
 21
1.3044679784325171
  0
LINE
  8
_0-1_ADD_LINE
  6
CONTINUOUS
 62
    7
 10
-10.579455069953024
 20
1.3044679784325171
 11
-10.324068061494568
 21
1.5043360720087025
  0
LINE
  8
_0-1_ADD_LINE
  6
CONTINUOUS
 62
    7
 10
-10.324068061494568
 20
1.5043360720087025
 11
-10.035369704106738
 21
1.548751203914521
  0
LINE
  8
_0-1_ADD_LINE
  6
CONTINUOUS
 62
    7
 10
-10.02426592113029
 20
1.3377793273618801
 11
-9.9798507892244679
 21
1.1157036678327872
  0
LINE
  8
_0-1_ADD_LINE
  6
CONTINUOUS
 62
    7
 10
-9.9798507892244679
 20
1.1157036678327872
 11
-9.5690108190956416
 21
0.9158355742566017
  0
LINE
  8
_0-1_ADD_LINE
  6
CONTINUOUS
 62
    7
 10
-9.5690108190956416
 20
0.9158355742566017
 11
-9.2025859808726374
 21
0.8603166593743276
  0
LINE
  8
_0-1_ADD_LINE
  6
CONTINUOUS
 62
    7
 10
-9.2025859808726374
 20
0.8603166593743276
 11
-8.9694065383670853
 21
0.9491469231859648
  0
LINE
  8
_0-1_ADD_LINE
  6
CONTINUOUS
 62
    7
 10
-8.9694065383670853
 20
0.9491469231859648
 11
-8.8583687086025371
 21
1.037977186997602
  0
LINE
  8
_0-1_ADD_LINE
  6
CONTINUOUS
 62
    7
 10
-8.8583687086025371
 20
1.037977186997602
 11
-8.7251233128850849
 21
1.3044679784325171
  0
LINE
  8
_0-1_ADD_LINE
  6
CONTINUOUS
 62
    7
 10
-8.7251233128850849
 20
1.3044679784325171
 11
-8.8583687086025371
 21
1.4821285060557914
  0
LINE
  8
_0-1_ADD_LINE
  6
CONTINUOUS
 62
    7
 10
-9.4912843382604528
 20
0.060844285069586
 11
-9.0138216702729004
 21
0.1274669829283157
  0
LINE
  8
_0-1_ADD_LINE
  6
CONTINUOUS
 62
    7
 10
-9.0138216702729004
 20
0.1274669829283157
 11
-8.4253211725207997
 21
0.0830518510224971
  0
LINE
  8
_0-1_ADD_LINE
  6
CONTINUOUS
 62
    7
 10
-8.4253211725207997
 20
0.0830518510224971
 11
-7.9256509385803353
 21
-0.1279200255301438
  0
LINE
  8
_0-1_ADD_LINE
  6
CONTINUOUS
 62
    7
 10
-7.9256509385803353
 20
-0.1279200255301438
 11
-7.5814336663102422
 21
-0.4943448637531515
  0
LINE
  8
_0-1_ADD_LINE
  6
CONTINUOUS
 62
    7
 10
-7.5814336663102422
 20
-0.4943448637531515
 11
-7.6147450152396017
 21
-0.9273923998348854
  0
LINE
  8
_0-1_ADD_LINE
  6
CONTINUOUS
 62
    7
 10
-7.6147450152396017
 20
-0.9273923998348854
 11
-7.8923395896509687
 21
-1.3049210210343487
  0
LINE
  8
_0-1_ADD_LINE
  6
CONTINUOUS
 62
    7
 10
-7.8923395896509687
 20
-1.3049210210343487
 11
-8.7251233128850778
 21
-1.4270626337753489
  0
LINE
  8
_0-1_ADD_LINE
  6
CONTINUOUS
 62
    7
 10
-8.7251233128850778
 20
-1.4270626337753489
 11
-9.557907036119186
 21
-1.2382983231756191
  0
LINE
  8
_0-1_ADD_LINE
  6
CONTINUOUS
 62
    7
 10
-9.557907036119186
 20
-1.2382983231756191
 11
-9.8243978275540975
 21
-1.0717415785287967
  0
LINE
  8
_0-1_ADD_LINE
  6
CONTINUOUS
 62
    7
 10
-9.8243978275540975
 20
-1.0717415785287967
 11
-10.013162138153827
 21
-0.8052507870938852
  0
LINE
  8
_0-1_ADD_LINE
  6
CONTINUOUS
 62
    7
 10
-10.013162138153827
 20
-0.8052507870938852
 11
-10.101992401965465
 21
-0.483241080776696
  0
LINE
  8
_0-1_ADD_LINE
  6
CONTINUOUS
 62
    7
 10
-10.101992401965465
 20
-0.483241080776696
 11
-10.035369704106738
 21
-0.1834389404124179
  0
LINE
  8
_0-1_ADD_LINE
  6
CONTINUOUS
 62
    7
 10
-10.035369704106738
 20
-0.1834389404124179
 11
-9.7799826956482825
 21
0.0164291531637674
  0
LINE
  8
_0-1_ADD_LINE
  6
CONTINUOUS
 62
    7
 10
-9.7799826956482825
 20
0.0164291531637674
 11
-9.4912843382604528
 21
0.060844285069586
  0
LINE
  8
_0-1_ADD_LINE
  6
CONTINUOUS
 62
    7
 10
-9.4801805552840044
 20
-0.1501275914830548
 11
-9.4357654233781822
 21
-0.3722032510121478
  0
LINE
  8
_0-1_ADD_LINE
  6
CONTINUOUS
 62
    7
 10
-9.4357654233781822
 20
-0.3722032510121478
 11
-9.0249254532493559
 21
-0.5720713445883332
  0
LINE
  8
_0-1_ADD_LINE
  6
CONTINUOUS
 62
    7
 10
-9.0249254532493559
 20
-0.5720713445883332
 11
-8.6585006150263517
 21
-0.6275902594706073
  0
LINE
  8
_0-1_ADD_LINE
  6
CONTINUOUS
 62
    7
 10
-8.6585006150263517
 20
-0.6275902594706073
 11
-8.4253211725207997
 21
-0.5387599956589701
  0
LINE
  8
_0-1_ADD_LINE
  6
CONTINUOUS
 62
    7
 10
-8.4253211725207997
 20
-0.5387599956589701
 11
-8.3142833427562515
 21
-0.4499297318473329
  0
LINE
  8
_0-1_ADD_LINE
  6
CONTINUOUS
 62
    7
 10
-8.3142833427562515
 20
-0.4499297318473329
 11
-8.1810379470387993
 21
-0.1834389404124179
  0
LINE
  8
_0-1_ADD_LINE
  6
CONTINUOUS
 62
    7
 10
-8.1810379470387993
 20
-0.1834389404124179
 11
-8.3142833427562515
 21
-0.0057784127891435
  0
LINE
  8
_0-1_ADD_LINE
  6
CONTINUOUS
 62
    7
 10
-6.6154045473586747
 20
0.0941556339989491
 11
-6.1379418793711222
 21
0.1607783318576787
  0
LINE
  8
_0-1_ADD_LINE
  6
CONTINUOUS
 62
    7
 10
-6.1379418793711222
 20
0.1607783318576787
 11
-5.5494413816190216
 21
0.1163631999518601
  0
LINE
  8
_0-1_ADD_LINE
  6
CONTINUOUS
 62
    7
 10
-5.5494413816190216
 20
0.1163631999518601
 11
-5.0497711476785581
 21
-0.0946086766007807
  0
LINE
  8
_0-1_ADD_LINE
  6
CONTINUOUS
 62
    7
 10
-5.0497711476785581
 20
-0.0946086766007807
 11
-4.7055538754084649
 21
-0.4610335148237885
  0
LINE
  8
_0-1_ADD_LINE
  6
CONTINUOUS
 62
    7
 10
-4.7055538754084649
 20
-0.4610335148237885
 11
-4.7388652243378244
 21
-0.8940810509055223
  0
LINE
  8
_0-1_ADD_LINE
  6
CONTINUOUS
 62
    7
 10
-4.7388652243378244
 20
-0.8940810509055223
 11
-5.0164597987491915
 21
-1.2716096721049857
  0
LINE
  8
_0-1_ADD_LINE
  6
CONTINUOUS
 62
    7
 10
-5.0164597987491915
 20
-1.2716096721049857
 11
-5.8492435219832997
 21
-1.3937512848459859
  0
LINE
  8
_0-1_ADD_LINE
  6
CONTINUOUS
 62
    7
 10
-5.8492435219832997
 20
-1.3937512848459859
 11
-6.6820272452174079
 21
-1.204986974246256
  0
LINE
  8
_0-1_ADD_LINE
  6
CONTINUOUS
 62
    7
 10
-6.6820272452174079
 20
-1.204986974246256
 11
-6.9485180366523194
 21
-1.0384302295994337
  0
LINE
  8
_0-1_ADD_LINE
  6
CONTINUOUS
 62
    7
 10
-6.9485180366523194
 20
-1.0384302295994337
 11
-7.1372823472520492
 21
-0.7719394381645221
  0
LINE
  8
_0-1_ADD_LINE
  6
CONTINUOUS
 62
    7
 10
-7.1372823472520492
 20
-0.7719394381645221
 11
-7.2261126110636864
 21
-0.4499297318473329
  0
LINE
  8
_0-1_ADD_LINE
  6
CONTINUOUS
 62
    7
 10
-7.2261126110636864
 20
-0.4499297318473329
 11
-7.1594899132049603
 21
-0.1501275914830548
  0
LINE
  8
_0-1_ADD_LINE
  6
CONTINUOUS
 62
    7
 10
-7.1594899132049603
 20
-0.1501275914830548
 11
-6.9041029047465043
 21
0.0497405020931305
  0
LINE
  8
_0-1_ADD_LINE
  6
CONTINUOUS
 62
    7
 10
-6.9041029047465043
 20
0.0497405020931305
 11
-6.6154045473586747
 21
0.0941556339989491
  0
LINE
  8
_0-1_ADD_LINE
  6
CONTINUOUS
 62
    7
 10
-6.6043007643822262
 20
-0.1168162425536918
 11
-6.5598856324764041
 21
-0.3388919020827847
  0
LINE
  8
_0-1_ADD_LINE
  6
CONTINUOUS
 62
    7
 10
-6.5598856324764041
 20
-0.3388919020827847
 11
-6.1490456623475778
 21
-0.5387599956589701
  0
LINE
  8
_0-1_ADD_LINE
  6
CONTINUOUS
 62
    7
 10
-6.1490456623475778
 20
-0.5387599956589701
 11
-5.7826208241245736
 21
-0.5942789105412442
  0
LINE
  8
_0-1_ADD_LINE
  6
CONTINUOUS
 62
    7
 10
-5.7826208241245736
 20
-0.5942789105412442
 11
-5.5494413816190216
 21
-0.5054486467296071
  0
LINE
  8
_0-1_ADD_LINE
  6
CONTINUOUS
 62
    7
 10
-5.5494413816190216
 20
-0.5054486467296071
 11
-5.4384035518544733
 21
-0.4166183829179699
  0
LINE
  8
_0-1_ADD_LINE
  6
CONTINUOUS
 62
    7
 10
-5.4384035518544733
 20
-0.4166183829179699
 11
-5.3051581561370211
 21
-0.1501275914830548
  0
LINE
  8
_0-1_ADD_LINE
  6
CONTINUOUS
 62
    7
 10
-5.3051581561370211
 20
-0.1501275914830548
 11
-5.4384035518544733
 21
0.0275329361402194
  0
LINE
  8
_0-1_ADD_LINE
  6
CONTINUOUS
 62
    7
 10
-6.4821591516412154
 20
-1.4381664167518045
 11
-6.0046964836536629
 21
-1.3715437188930748
  0
LINE
  8
_0-1_ADD_LINE
  6
CONTINUOUS
 62
    7
 10
-6.0046964836536629
 20
-1.3715437188930748
 11
-5.4161959859015623
 21
-1.4159588507988934
  0
LINE
  8
_0-1_ADD_LINE
  6
CONTINUOUS
 62
    7
 10
-5.4161959859015623
 20
-1.4159588507988934
 11
-4.9165257519610988
 21
-1.6269307273515343
  0
LINE
  8
_0-1_ADD_LINE
  6
CONTINUOUS
 62
    7
 10
-4.9165257519610988
 20
-1.6269307273515343
 11
-4.5723084796910056
 21
-1.9933555655745421
  0
LINE
  8
_0-1_ADD_LINE
  6
CONTINUOUS
 62
    7
 10
-4.5723084796910056
 20
-1.9933555655745421
 11
-4.6056198286203651
 21
-2.4264031016562759
  0
LINE
  8
_0-1_ADD_LINE
  6
CONTINUOUS
 62
    7
 10
-4.6056198286203651
 20
-2.4264031016562759
 11
-4.8832144030317322
 21
-2.8039317228557392
  0
LINE
  8
_0-1_ADD_LINE
  6
CONTINUOUS
 62
    7
 10
-4.8832144030317322
 20
-2.8039317228557392
 11
-5.7159981262658404
 21
-2.9260733355967394
  0
LINE
  8
_0-1_ADD_LINE
  6
CONTINUOUS
 62
    7
 10
-5.7159981262658404
 20
-2.9260733355967394
 11
-6.5487818494999486
 21
-2.7373090249970096
  0
LINE
  8
_0-1_ADD_LINE
  6
CONTINUOUS
 62
    7
 10
-6.5487818494999486
 20
-2.7373090249970096
 11
-6.8152726409348601
 21
-2.5707522803501872
  0
LINE
  8
_0-1_ADD_LINE
  6
CONTINUOUS
 62
    7
 10
-6.8152726409348601
 20
-2.5707522803501872
 11
-7.0040369515345899
 21
-2.3042614889152757
  0
LINE
  8
_0-1_ADD_LINE
  6
CONTINUOUS
 62
    7
 10
-7.0040369515345899
 20
-2.3042614889152757
 11
-7.0928672153462271
 21
-1.9822517825980865
  0
LINE
  8
_0-1_ADD_LINE
  6
CONTINUOUS
 62
    7
 10
-7.0928672153462271
 20
-1.9822517825980865
 11
-7.026244517487501
 21
-1.6824496422338084
  0
LINE
  8
_0-1_ADD_LINE
  6
CONTINUOUS
 62
    7
 10
-7.026244517487501
 20
-1.6824496422338084
 11
-6.770857509029045
 21
-1.482581548657623
  0
LINE
  8
_0-1_ADD_LINE
  6
CONTINUOUS
 62
    7
 10
-6.770857509029045
 20
-1.482581548657623
 11
-6.4821591516412154
 21
-1.4381664167518045
  0
LINE
  8
_0-1_ADD_LINE
  6
CONTINUOUS
 62
    7
 10
-6.4710553686647669
 20
-1.6491382933044454
 11
-6.4266402367589448
 21
-1.8712139528335383
  0
LINE
  8
_0-1_ADD_LINE
  6
CONTINUOUS
 62
    7
 10
-6.4266402367589448
 20
-1.8712139528335383
 11
-6.0158002666301185
 21
-2.0710820464097237
  0
LINE
  8
_0-1_ADD_LINE
  6
CONTINUOUS
 62
    7
 10
-6.0158002666301185
 20
-2.0710820464097237
 11
-5.6493754284071143
 21
-2.1266009612919978
  0
LINE
  8
_0-1_ADD_LINE
  6
CONTINUOUS
 62
    7
 10
-5.6493754284071143
 20
-2.1266009612919978
 11
-5.4161959859015623
 21
-2.0377706974803607
  0
LINE
  8
_0-1_ADD_LINE
  6
CONTINUOUS
 62
    7
 10
-5.4161959859015623
 20
-2.0377706974803607
 11
-5.305158156137014
 21
-1.9489404336687235
  0
LINE
  8
_0-1_ADD_LINE
  6
CONTINUOUS
 62
    7
 10
-5.305158156137014
 20
-1.9489404336687235
 11
-5.1719127604195618
 21
-1.6824496422338084
  0
LINE
  8
_0-1_ADD_LINE
  6
CONTINUOUS
 62
    7
 10
-5.1719127604195618
 20
-1.6824496422338084
 11
-5.305158156137014
 21
-1.5047891146105341
  0
LINE
  8
_0-1_ADD_LINE
  6
CONTINUOUS
 62
    7
 10
-11.734248499504314
 20
-2.2709501399859127
 11
-11.256785831516762
 21
-2.204327442127183
  0
LINE
  8
_0-1_ADD_LINE
  6
CONTINUOUS
 62
    7
 10
-11.256785831516762
 20
-2.204327442127183
 11
-10.668285333764661
 21
-2.2487425740330016
  0
LINE
  8
_0-1_ADD_LINE
  6
CONTINUOUS
 62
    7
 10
-10.668285333764661
 20
-2.2487425740330016
 11
-10.168615099824198
 21
-2.4597144505856425
  0
LINE
  8
_0-1_ADD_LINE
  6
CONTINUOUS
 62
    7
 10
-10.168615099824198
 20
-2.4597144505856425
 11
-9.8243978275541046
 21
-2.8261392888086503
  0
LINE
  8
_0-1_ADD_LINE
  6
CONTINUOUS
 62
    7
 10
-9.8243978275541046
 20
-2.8261392888086503
 11
-9.8577091764834641
 21
-3.2591868248903841
  0
LINE
  8
_0-1_ADD_LINE
  6
CONTINUOUS
 62
    7
 10
-9.8577091764834641
 20
-3.2591868248903841
 11
-10.135303750894831
 21
-3.6367154460898474
  0
LINE
  8
_0-1_ADD_LINE
  6
CONTINUOUS
 62
    7
 10
-10.135303750894831
 20
-3.6367154460898474
 11
-10.968087474128939
 21
-3.7588570588308476
  0
LINE
  8
_0-1_ADD_LINE
  6
CONTINUOUS
 62
    7
 10
-10.968087474128939
 20
-3.7588570588308476
 11
-11.800871197363048
 21
-3.5700927482311178
  0
LINE
  8
_0-1_ADD_LINE
  6
CONTINUOUS
 62
    7
 10
-11.800871197363048
 20
-3.5700927482311178
 11
-12.067361988797959
 21
-3.4035360035842954
  0
LINE
  8
_0-1_ADD_LINE
  6
CONTINUOUS
 62
    7
 10
-12.067361988797959
 20
-3.4035360035842954
 11
-12.256126299397689
 21
-3.1370452121493839
  0
LINE
  8
_0-1_ADD_LINE
  6
CONTINUOUS
 62
    7
 10
-12.256126299397689
 20
-3.1370452121493839
 11
-12.344956563209326
 21
-2.8150355058321948
  0
LINE
  8
_0-1_ADD_LINE
  6
CONTINUOUS
 62
    7
 10
-12.344956563209326
 20
-2.8150355058321948
 11
-12.2783338653506
 21
-2.5152333654679166
  0
LINE
  8
_0-1_ADD_LINE
  6
CONTINUOUS
 62
    7
 10
-12.2783338653506
 20
-2.5152333654679166
 11
-12.022946856892144
 21
-2.3153652718917312
  0
LINE
  8
_0-1_ADD_LINE
  6
CONTINUOUS
 62
    7
 10
-12.022946856892144
 20
-2.3153652718917312
 11
-11.734248499504314
 21
-2.2709501399859127
  0
LINE
  8
_0-1_ADD_LINE
  6
CONTINUOUS
 62
    7
 10
-11.723144716527866
 20
-2.4819220165385536
 11
-11.678729584622044
 21
-2.7039976760676465
  0
LINE
  8
_0-1_ADD_LINE
  6
CONTINUOUS
 62
    7
 10
-11.678729584622044
 20
-2.7039976760676465
 11
-11.267889614493217
 21
-2.9038657696438319
  0
LINE
  8
_0-1_ADD_LINE
  6
CONTINUOUS
 62
    7
 10
-11.267889614493217
 20
-2.9038657696438319
 11
-10.901464776270213
 21
-2.959384684526106
  0
LINE
  8
_0-1_ADD_LINE
  6
CONTINUOUS
 62
    7
 10
-10.901464776270213
 20
-2.959384684526106
 11
-10.668285333764661
 21
-2.8705544207144689
  0
LINE
  8
_0-1_ADD_LINE
  6
CONTINUOUS
 62
    7
 10
-10.668285333764661
 20
-2.8705544207144689
 11
-10.557247504000113
 21
-2.7817241569028317
  0
LINE
  8
_0-1_ADD_LINE
  6
CONTINUOUS
 62
    7
 10
-10.557247504000113
 20
-2.7817241569028317
 11
-10.424002108282661
 21
-2.5152333654679166
  0
LINE
  8
_0-1_ADD_LINE
  6
CONTINUOUS
 62
    7
 10
-10.424002108282661
 20
-2.5152333654679166
 11
-10.557247504000113
 21
-2.3375728378446423
  0
LINE
  8
_0-1_ADD_LINE
  6
CONTINUOUS
 62
    7
 10
-8.813953576696715
 20
-2.0266669145039087
 11
-8.3364909087091625
 21
-1.960044216645179
  0
LINE
  8
_0-1_ADD_LINE
  6
CONTINUOUS
 62
    7
 10
-8.3364909087091625
 20
-1.960044216645179
 11
-7.747990410957061
 21
-2.0044593485509976
  0
LINE
  8
_0-1_ADD_LINE
  6
CONTINUOUS
 62
    7
 10
-7.747990410957061
 20
-2.0044593485509976
 11
-7.2483201770165975
 21
-2.2154312251036385
  0
LINE
  8
_0-1_ADD_LINE
  6
CONTINUOUS
 62
    7
 10
-7.2483201770165975
 20
-2.2154312251036385
 11
-6.9041029047465043
 21
-2.5818560633266463
  0
LINE
  8
_0-1_ADD_LINE
  6
CONTINUOUS
 62
    7
 10
-6.9041029047465043
 20
-2.5818560633266463
 11
-6.9374142536758638
 21
-3.0149035994083802
  0
LINE
  8
_0-1_ADD_LINE
  6
CONTINUOUS
 62
    7
 10
-6.9374142536758638
 20
-3.0149035994083802
 11
-7.2150088280872309
 21
-3.3924322206078434
  0
LINE
  8
_0-1_ADD_LINE
  6
CONTINUOUS
 62
    7
 10
-7.2150088280872309
 20
-3.3924322206078434
 11
-8.04779255132134
 21
-3.5145738333488437
  0
LINE
  8
_0-1_ADD_LINE
  6
CONTINUOUS
 62
    7
 10
-8.04779255132134
 20
-3.5145738333488437
 11
-8.8805762745554482
 21
-3.3258095227491138
  0
LINE
  8
_0-1_ADD_LINE
  6
CONTINUOUS
 62
    7
 10
-8.8805762745554482
 20
-3.3258095227491138
 11
-9.1470670659903597
 21
-3.1592527781022914
  0
LINE
  8
_0-1_ADD_LINE
  6
CONTINUOUS
 62
    7
 10
-9.1470670659903597
 20
-3.1592527781022914
 11
-9.3358313765900895
 21
-2.8927619866673799
  0
LINE
  8
_0-1_ADD_LINE
  6
CONTINUOUS
 62
    7
 10
-9.3358313765900895
 20
-2.8927619866673799
 11
-9.4246616404017267
 21
-2.5707522803501908
  0
LINE
  8
_0-1_ADD_LINE
  6
CONTINUOUS
 62
    7
 10
-9.4246616404017267
 20
-2.5707522803501908
 11
-9.3580389425430006
 21
-2.2709501399859127
  0
LINE
  8
_0-1_ADD_LINE
  6
CONTINUOUS
 62
    7
 10
-9.3580389425430006
 20
-2.2709501399859127
 11
-9.1026519340845446
 21
-2.0710820464097273
  0
LINE
  8
_0-1_ADD_LINE
  6
CONTINUOUS
 62
    7
 10
-9.1026519340845446
 20
-2.0710820464097273
 11
-8.813953576696715
 21
-2.0266669145039087
  0
LINE
  8
_0-1_ADD_LINE
  6
CONTINUOUS
 62
    7
 10
-8.8028497937202665
 20
-2.2376387910565496
 11
-8.7584346618144444
 21
-2.4597144505856425
  0
LINE
  8
_0-1_ADD_LINE
  6
CONTINUOUS
 62
    7
 10
-8.7584346618144444
 20
-2.4597144505856425
 11
-8.3475946916856181
 21
-2.6595825441618279
  0
LINE
  8
_0-1_ADD_LINE
  6
CONTINUOUS
 62
    7
 10
-8.3475946916856181
 20
-2.6595825441618279
 11
-7.981169853462613
 21
-2.7151014590441021
  0
LINE
  8
_0-1_ADD_LINE
  6
CONTINUOUS
 62
    7
 10
-7.981169853462613
 20
-2.7151014590441021
 11
-7.747990410957061
 21
-2.6262711952324649
  0
LINE
  8
_0-1_ADD_LINE
  6
CONTINUOUS
 62
    7
 10
-7.747990410957061
 20
-2.6262711952324649
 11
-7.6369525811925127
 21
-2.5374409314208277
  0
LINE
  8
_0-1_ADD_LINE
  6
CONTINUOUS
 62
    7
 10
-7.6369525811925127
 20
-2.5374409314208277
 11
-7.5037071854750605
 21
-2.2709501399859127
  0
LINE
  8
_0-1_ADD_LINE
  6
CONTINUOUS
 62
    7
 10
-7.5037071854750605
 20
-2.2709501399859127
 11
-7.6369525811925127
 21
-2.0932896123626383
  0
LINE
  8
_0-1_ADD_LINE
  6
CONTINUOUS
 62
    7
 10
-8.3698022576385291
 20
-3.6367154460898439
 11
-7.8923395896509758
 21
-3.5700927482311142
  0
LINE
  8
_0-1_ADD_LINE
  6
CONTINUOUS
 62
    7
 10
-7.8923395896509758
 20
-3.5700927482311142
 11
-7.3038390918988751
 21
-3.6145078801369328
  0
LINE
  8
_0-1_ADD_LINE
  6
CONTINUOUS
 62
    7
 10
-7.3038390918988751
 20
-3.6145078801369328
 11
-6.8041688579584116
 21
-3.8254797566895737
  0
LINE
  8
_0-1_ADD_LINE
  6
CONTINUOUS
 62
    7
 10
-6.8041688579584116
 20
-3.8254797566895737
 11
-6.4599515856883185
 21
-4.1919045949125815
  0
LINE
  8
_0-1_ADD_LINE
  6
CONTINUOUS
 62
    7
 10
-6.4599515856883185
 20
-4.1919045949125815
 11
-6.493262934617678
 21
-4.6249521309943153
  0
LINE
  8
_0-1_ADD_LINE
  6
CONTINUOUS
 62
    7
 10
-6.493262934617678
 20
-4.6249521309943153
 11
-6.770857509029045
 21
-5.0024807521937786
  0
LINE
  8
_0-1_ADD_LINE
  6
CONTINUOUS
 62
    7
 10
-6.770857509029045
 20
-5.0024807521937786
 11
-7.6036412322631532
 21
-5.1246223649347789
  0
LINE
  8
_0-1_ADD_LINE
  6
CONTINUOUS
 62
    7
 10
-7.6036412322631532
 20
-5.1246223649347789
 11
-8.4364249554972623
 21
-4.935858054335049
  0
LINE
  8
_0-1_ADD_LINE
  6
CONTINUOUS
 62
    7
 10
-8.4364249554972623
 20
-4.935858054335049
 11
-8.7029157469321738
 21
-4.7693013096882266
  0
LINE
  8
_0-1_ADD_LINE
  6
CONTINUOUS
 62
    7
 10
-8.7029157469321738
 20
-4.7693013096882266
 11
-8.8916800575319037
 21
-4.5028105182533151
  0
LINE
  8
_0-1_ADD_LINE
  6
CONTINUOUS
 62
    7
 10
-8.8916800575319037
 20
-4.5028105182533151
 11
-8.9805103213435409
 21
-4.180800811936126
  0
LINE
  8
_0-1_ADD_LINE
  6
CONTINUOUS
 62
    7
 10
-8.9805103213435409
 20
-4.180800811936126
 11
-8.9138876234848148
 21
-3.8809986715718479
  0
LINE
  8
_0-1_ADD_LINE
  6
CONTINUOUS
 62
    7
 10
-8.9138876234848148
 20
-3.8809986715718479
 11
-8.6585006150263588
 21
-3.6811305779956625
  0
LINE
  8
_0-1_ADD_LINE
  6
CONTINUOUS
 62
    7
 10
-8.6585006150263588
 20
-3.6811305779956625
 11
-8.3698022576385291
 21
-3.6367154460898439
  0
LINE
  8
_0-1_ADD_LINE
  6
CONTINUOUS
 62
    7
 10
-8.3586984746620807
 20
-3.8476873226424848
 11
-8.3142833427562586
 21
-4.0697629821715777
  0
LINE
  8
_0-1_ADD_LINE
  6
CONTINUOUS
 62
    7
 10
-8.3142833427562586
 20
-4.0697629821715777
 11
-7.9034433726274314
 21
-4.2696310757477631
  0
LINE
  8
_0-1_ADD_LINE
  6
CONTINUOUS
 62
    7
 10
-7.9034433726274314
 20
-4.2696310757477631
 11
-7.5370185344044272
 21
-4.3251499906300372
  0
LINE
  8
_0-1_ADD_LINE
  6
CONTINUOUS
 62
    7
 10
-7.5370185344044272
 20
-4.3251499906300372
 11
-7.3038390918988751
 21
-4.2363197268184001
  0
LINE
  8
_0-1_ADD_LINE
  6
CONTINUOUS
 62
    7
 10
-7.3038390918988751
 20
-4.2363197268184001
 11
-7.1928012621343269
 21
-4.1474894630067629
  0
LINE
  8
_0-1_ADD_LINE
  6
CONTINUOUS
 62
    7
 10
-7.1928012621343269
 20
-4.1474894630067629
 11
-7.0595558664168747
 21
-3.8809986715718479
  0
LINE
  8
_0-1_ADD_LINE
  6
CONTINUOUS
 62
    7
 10
-7.0595558664168747
 20
-3.8809986715718479
 11
-7.1928012621343269
 21
-3.7033381439485735
  0
LINE
  8
_0-1_ADD_LINE
  6
CONTINUOUS
 62
    7
 10
-5.8159321730539331
 20
-3.414639786560751
 11
-5.3384695050663806
 21
-3.3480170887020213
  0
LINE
  8
_0-1_ADD_LINE
  6
CONTINUOUS
 62
    7
 10
-5.3384695050663806
 20
-3.3480170887020213
 11
-4.74996900731428
 21
-3.3924322206078399
  0
LINE
  8
_0-1_ADD_LINE
  6
CONTINUOUS
 62
    7
 10
-4.74996900731428
 20
-3.3924322206078399
 11
-4.2502987733738165
 21
-3.6034040971604808
  0
LINE
  8
_0-1_ADD_LINE
  6
CONTINUOUS
 62
    7
 10
-4.2502987733738165
 20
-3.6034040971604808
 11
-3.9060815011037233
 21
-3.9698289353834886
  0
LINE
  8
_0-1_ADD_LINE
  6
CONTINUOUS
 62
    7
 10
-3.9060815011037233
 20
-3.9698289353834886
 11
-3.9393928500330828
 21
-4.4028764714652224
  0
LINE
  8
_0-1_ADD_LINE
  6
CONTINUOUS
 62
    7
 10
-3.9393928500330828
 20
-4.4028764714652224
 11
-4.2169874244444499
 21
-4.7804050926646857
  0
LINE
  8
_0-1_ADD_LINE
  6
CONTINUOUS
 62
    7
 10
-4.2169874244444499
 20
-4.7804050926646857
 11
-5.0497711476785581
 21
-4.9025467054056859
  0
LINE
  8
_0-1_ADD_LINE
  6
CONTINUOUS
 62
    7
 10
-5.0497711476785581
 20
-4.9025467054056859
 11
-5.8825548709126663
 21
-4.7137823948059561
  0
LINE
  8
_0-1_ADD_LINE
  6
CONTINUOUS
 62
    7
 10
-5.8825548709126663
 20
-4.7137823948059561
 11
-6.1490456623475778
 21
-4.5472256501591337
  0
LINE
  8
_0-1_ADD_LINE
  6
CONTINUOUS
 62
    7
 10
-6.1490456623475778
 20
-4.5472256501591337
 11
-6.3378099729473076
 21
-4.2807348587242222
  0
LINE
  8
_0-1_ADD_LINE
  6
CONTINUOUS
 62
    7
 10
-6.3378099729473076
 20
-4.2807348587242222
 11
-6.4266402367589448
 21
-3.958725152407033
  0
LINE
  8
_0-1_ADD_LINE
  6
CONTINUOUS
 62
    7
 10
-6.4266402367589448
 20
-3.958725152407033
 11
-6.3600175389002187
 21
-3.6589230120427549
  0
LINE
  8
_0-1_ADD_LINE
  6
CONTINUOUS
 62
    7
 10
-6.3600175389002187
 20
-3.6589230120427549
 11
-6.1046305304417627
 21
-3.4590549184665695
  0
LINE
  8
_0-1_ADD_LINE
  6
CONTINUOUS
 62
    7
 10
-6.1046305304417627
 20
-3.4590549184665695
 11
-5.8159321730539331
 21
-3.414639786560751
  0
LINE
  8
_0-1_ADD_LINE
  6
CONTINUOUS
 62
    7
 10
-5.8048283900774846
 20
-3.6256116631133919
 11
-5.7604132581716625
 21
-3.8476873226424848
  0
LINE
  8
_0-1_ADD_LINE
  6
CONTINUOUS
 62
    7
 10
-5.7604132581716625
 20
-3.8476873226424848
 11
-5.3495732880428362
 21
-4.0475554162186702
  0
LINE
  8
_0-1_ADD_LINE
  6
CONTINUOUS
 62
    7
 10
-5.3495732880428362
 20
-4.0475554162186702
 11
-4.983148449819832
 21
-4.1030743311009443
  0
LINE
  8
_0-1_ADD_LINE
  6
CONTINUOUS
 62
    7
 10
-4.983148449819832
 20
-4.1030743311009443
 11
-4.74996900731428
 21
-4.0142440672893072
  0
LINE
  8
_0-1_ADD_LINE
  6
CONTINUOUS
 62
    7
 10
-4.74996900731428
 20
-4.0142440672893072
 11
-4.6389311775497317
 21
-3.92541380347767
  0
LINE
  8
_0-1_ADD_LINE
  6
CONTINUOUS
 62
    7
 10
-4.6389311775497317
 20
-3.92541380347767
 11
-4.5056857818322795
 21
-3.6589230120427549
  0
LINE
  8
_0-1_ADD_LINE
  6
CONTINUOUS
 62
    7
 10
-4.5056857818322795
 20
-3.6589230120427549
 11
-4.6389311775497317
 21
-3.4812624844194806
  0
LINE
  8
_0-1_ADD_LINE
  6
CONTINUOUS
 62
    7
 10
-3.8061474543156235
 20
-1.2605058891285301
 11
-3.3286847863280711
 21
-1.1938831912698005
  0
LINE
  8
_0-1_ADD_LINE
  6
CONTINUOUS
 62
    7
 10
-3.3286847863280711
 20
-1.1938831912698005
 11
-2.7401842885759704
 21
-1.2382983231756191
  0
LINE
  8
_0-1_ADD_LINE
  6
CONTINUOUS
 62
    7
 10
-2.7401842885759704
 20
-1.2382983231756191
 11
-2.2405140546355069
 21
-1.44927019972826
  0
LINE
  8
_0-1_ADD_LINE
  6
CONTINUOUS
 62
    7
 10
-2.2405140546355069
 20
-1.44927019972826
 11
-1.8962967823654138
 21
-1.8156950379512677
  0
LINE
  8
_0-1_ADD_LINE
  6
CONTINUOUS
 62
    7
 10
-1.8962967823654138
 20
-1.8156950379512677
 11
-1.9296081312947733
 21
-2.2487425740330016
  0
LINE
  8
_0-1_ADD_LINE
  6
CONTINUOUS
 62
    7
 10
-1.9296081312947733
 20
-2.2487425740330016
 11
-2.2072027057061403
 21
-2.6262711952324649
  0
LINE
  8
_0-1_ADD_LINE
  6
CONTINUOUS
 62
    7
 10
-2.2072027057061403
 20
-2.6262711952324649
 11
-3.0399864289402485
 21
-2.7484128079734651
  0
LINE
  8
_0-1_ADD_LINE
  6
CONTINUOUS
 62
    7
 10
-3.0399864289402485
 20
-2.7484128079734651
 11
-3.8727701521743567
 21
-2.5596484973737352
  0
LINE
  8
_0-1_ADD_LINE
  6
CONTINUOUS
 62
    7
 10
-3.8727701521743567
 20
-2.5596484973737352
 11
-4.1392609436092682
 21
-2.3930917527269129
  0
LINE
  8
_0-1_ADD_LINE
  6
CONTINUOUS
 62
    7
 10
-4.1392609436092682
 20
-2.3930917527269129
 11
-4.3280252542089981
 21
-2.1266009612920014
  0
LINE
  8
_0-1_ADD_LINE
  6
CONTINUOUS
 62
    7
 10
-4.3280252542089981
 20
-2.1266009612920014
 11
-4.4168555180206353
 21
-1.8045912549748122
  0
LINE
  8
_0-1_ADD_LINE
  6
CONTINUOUS
 62
    7
 10
-4.4168555180206353
 20
-1.8045912549748122
 11
-4.3502328201619092
 21
-1.5047891146105341
  0
LINE
  8
_0-1_ADD_LINE
  6
CONTINUOUS
 62
    7
 10
-4.3502328201619092
 20
-1.5047891146105341
 11
-4.0948458117034532
 21
-1.3049210210343487
  0
LINE
  8
_0-1_ADD_LINE
  6
CONTINUOUS
 62
    7
 10
-4.0948458117034532
 20
-1.3049210210343487
 11
-3.8061474543156235
 21
-1.2605058891285301
  0
LINE
  8
_0-1_ADD_LINE
  6
CONTINUOUS
 62
    7
 10
-3.7950436713391751
 20
-1.4714777656811711
 11
-3.7506285394333529
 21
-1.693553425210264
  0
LINE
  8
_0-1_ADD_LINE
  6
CONTINUOUS
 62
    7
 10
-3.7506285394333529
 20
-1.693553425210264
 11
-3.3397885693045266
 21
-1.8934215187864494
  0
LINE
  8
_0-1_ADD_LINE
  6
CONTINUOUS
 62
    7
 10
-3.3397885693045266
 20
-1.8934215187864494
 11
-2.9733637310815224
 21
-1.9489404336687235
  0
LINE
  8
_0-1_ADD_LINE
  6
CONTINUOUS
 62
    7
 10
-2.9733637310815224
 20
-1.9489404336687235
 11
-2.7401842885759704
 21
-1.8601101698570863
  0
LINE
  8
_0-1_ADD_LINE
  6
CONTINUOUS
 62
    7
 10
-2.7401842885759704
 20
-1.8601101698570863
 11
-2.6291464588114222
 21
-1.7712799060454492
  0
LINE
  8
_0-1_ADD_LINE
  6
CONTINUOUS
 62
    7
 10
-2.6291464588114222
 20
-1.7712799060454492
 11
-2.49590106309397
 21
-1.5047891146105341
  0
LINE
  8
_0-1_ADD_LINE
  6
CONTINUOUS
 62
    7
 10
-2.49590106309397
 20
-1.5047891146105341
 11
-2.6291464588114222
 21
-1.3271285869872598
  0
LINE
  8
_0-1_ADD_LINE
  6
CONTINUOUS
 62
    7
 10
-3.5507604458571675
 20
-2.8039317228557392
 11
-3.0732977778696151
 21
-2.7373090249970096
  0
LINE
  8
_0-1_ADD_LINE
  6
CONTINUOUS
 62
    7
 10
-3.0732977778696151
 20
-2.7373090249970096
 11
-2.4847972801175144
 21
-2.7817241569028281
  0
LINE
  8
_0-1_ADD_LINE
  6
CONTINUOUS
 62
    7
 10
-2.4847972801175144
 20
-2.7817241569028281
 11
-1.9851270461770509
 21
-2.9926960334554691
  0
LINE
  8
_0-1_ADD_LINE
  6
CONTINUOUS
 62
    7
 10
-1.9851270461770509
 20
-2.9926960334554691
 11
-1.6409097739069578
 21
-3.3591208716784768
  0
LINE
  8
_0-1_ADD_LINE
  6
CONTINUOUS
 62
    7
 10
-1.6409097739069578
 20
-3.3591208716784768
 11
-1.6742211228363173
 21
-3.7921684077602107
  0
LINE
  8
_0-1_ADD_LINE
  6
CONTINUOUS
 62
    7
 10
-1.6742211228363173
 20
-3.7921684077602107
 11
-1.9518156972476843
 21
-4.169697028959674
  0
LINE
  8
_0-1_ADD_LINE
  6
CONTINUOUS
 62
    7
 10
-1.9518156972476843
 20
-4.169697028959674
 11
-2.7845994204817925
 21
-4.2918386417006742
  0
LINE
  8
_0-1_ADD_LINE
  6
CONTINUOUS
 62
    7
 10
-2.7845994204817925
 20
-4.2918386417006742
 11
-3.6173831437159008
 21
-4.1030743311009443
  0
LINE
  8
_0-1_ADD_LINE
  6
CONTINUOUS
 62
    7
 10
-3.6173831437159008
 20
-4.1030743311009443
 11
-3.8838739351508123
 21
-3.936517586454122
  0
LINE
  8
_0-1_ADD_LINE
  6
CONTINUOUS
 62
    7
 10
-3.8838739351508123
 20
-3.936517586454122
 11
-4.0726382457505421
 21
-3.6700267950192105
  0
LINE
  8
_0-1_ADD_LINE
  6
CONTINUOUS
 62
    7
 10
-4.0726382457505421
 20
-3.6700267950192105
 11
-4.1614685095621793
 21
-3.3480170887020213
  0
LINE
  8
_0-1_ADD_LINE
  6
CONTINUOUS
 62
    7
 10
-4.1614685095621793
 20
-3.3480170887020213
 11
-4.0948458117034532
 21
-3.0482149483377432
  0
LINE
  8
_0-1_ADD_LINE
  6
CONTINUOUS
 62
    7
 10
-4.0948458117034532
 20
-3.0482149483377432
 11
-3.8394588032449972
 21
-2.8483468547615578
  0
LINE
  8
_0-1_ADD_LINE
  6
CONTINUOUS
 62
    7
 10
-3.8394588032449972
 20
-2.8483468547615578
 11
-3.5507604458571675
 21
-2.8039317228557392
  0
LINE
  8
_0-1_ADD_LINE
  6
CONTINUOUS
 62
    7
 10
-3.5396566628807191
 20
-3.0149035994083802
 11
-3.495241530974897
 21
-3.2369792589374731
  0
LINE
  8
_0-1_ADD_LINE
  6
CONTINUOUS
 62
    7
 10
-3.495241530974897
 20
-3.2369792589374731
 11
-3.0844015608460706
 21
-3.4368473525136585
  0
LINE
  8
_0-1_ADD_LINE
  6
CONTINUOUS
 62
    7
 10
-3.0844015608460706
 20
-3.4368473525136585
 11
-2.7179767226230664
 21
-3.4923662673959326
  0
LINE
  8
_0-1_ADD_LINE
  6
CONTINUOUS
 62
    7
 10
-2.7179767226230664
 20
-3.4923662673959326
 11
-2.4847972801175144
 21
-3.4035360035842954
  0
LINE
  8
_0-1_ADD_LINE
  6
CONTINUOUS
 62
    7
 10
-2.4847972801175144
 20
-3.4035360035842954
 11
-2.3737594503529662
 21
-3.3147057397726583
  0
LINE
  8
_0-1_ADD_LINE
  6
CONTINUOUS
 62
    7
 10
-2.3737594503529662
 20
-3.3147057397726583
 11
-2.240514054635514
 21
-3.0482149483377432
  0
LINE
  8
_0-1_ADD_LINE
  6
CONTINUOUS
 62
    7
 10
-2.240514054635514
 20
-3.0482149483377432
 11
-2.3737594503529662
 21
-2.8705544207144689
  0
LINE
  8
_0-1_ADD_LINE
  6
CONTINUOUS
 62
    7
 10
-0.8525411825786575
 20
-2.4930257995150056
 11
-0.375078514591105
 21
-2.4264031016562759
  0
LINE
  8
_0-1_ADD_LINE
  6
CONTINUOUS
 62
    7
 10
-0.375078514591105
 20
-2.4264031016562759
 11
0.2134219831609955
 21
-2.4708182335620945
  0
LINE
  8
_0-1_ADD_LINE
  6
CONTINUOUS
 62
    7
 10
0.2134219831609955
 20
-2.4708182335620945
 11
0.713092217101459
 21
-2.6817901101147354
  0
LINE
  8
_0-1_ADD_LINE
  6
CONTINUOUS
 62
    7
 10
0.713092217101459
 20
-2.6817901101147354
 11
1.0573094893715522
 21
-3.0482149483377432
  0
LINE
  8
_0-1_ADD_LINE
  6
CONTINUOUS
 62
    7
 10
1.0573094893715522
 20
-3.0482149483377432
 11
1.0239981404421927
 21
-3.4812624844194771
  0
LINE
  8
_0-1_ADD_LINE
  6
CONTINUOUS
 62
    7
 10
1.0239981404421927
 20
-3.4812624844194771
 11
0.7464035660308256
 21
-3.8587911056189403
  0
LINE
  8
_0-1_ADD_LINE
  6
CONTINUOUS
 62
    7
 10
0.7464035660308256
 20
-3.8587911056189403
 11
-0.0863801572032825
 21
-3.9809327183599406
  0
LINE
  8
_0-1_ADD_LINE
  6
CONTINUOUS
 62
    7
 10
-0.0863801572032825
 20
-3.9809327183599406
 11
-0.9191638804373907
 21
-3.7921684077602107
  0
LINE
  8
_0-1_ADD_LINE
  6
CONTINUOUS
 62
    7
 10
-0.9191638804373907
 20
-3.7921684077602107
 11
-1.1856546718723022
 21
-3.6256116631133883
  0
LINE
  8
_0-1_ADD_LINE
  6
CONTINUOUS
 62
    7
 10
-1.1856546718723022
 20
-3.6256116631133883
 11
-1.3744189824720321
 21
-3.3591208716784768
  0
LINE
  8
_0-1_ADD_LINE
  6
CONTINUOUS
 62
    7
 10
-1.3744189824720321
 20
-3.3591208716784768
 11
-1.4632492462836693
 21
-3.0371111653612877
  0
LINE
  8
_0-1_ADD_LINE
  6
CONTINUOUS
 62
    7
 10
-1.4632492462836693
 20
-3.0371111653612877
 11
-1.3966265484249432
 21
-2.7373090249970096
  0
LINE
  8
_0-1_ADD_LINE
  6
CONTINUOUS
 62
    7
 10
-1.3966265484249432
 20
-2.7373090249970096
 11
-1.1412395399664872
 21
-2.5374409314208242
  0
LINE
  8
_0-1_ADD_LINE
  6
CONTINUOUS
 62
    7
 10
-1.1412395399664872
 20
-2.5374409314208242
 11
-0.8525411825786575
 21
-2.4930257995150056
  0
LINE
  8
_0-1_ADD_LINE
  6
CONTINUOUS
 62
    7
 10
-0.841437399602209
 20
-2.7039976760676465
 11
-0.7970222676963869
 21
-2.9260733355967394
  0
LINE
  8
_0-1_ADD_LINE
  6
CONTINUOUS
 62
    7
 10
-0.7970222676963869
 20
-2.9260733355967394
 11
-0.3861822975675606
 21
-3.1259414291729248
  0
LINE
  8
_0-1_ADD_LINE
  6
CONTINUOUS
 62
    7
 10
-0.3861822975675606
 20
-3.1259414291729248
 11
-0.0197574593445564
 21
-3.181460344055199
  0
LINE
  8
_0-1_ADD_LINE
  6
CONTINUOUS
 62
    7
 10
-0.0197574593445564
 20
-3.181460344055199
 11
0.2134219831609955
 21
-3.0926300802435618
  0
LINE
  8
_0-1_ADD_LINE
  6
CONTINUOUS
 62
    7
 10
0.2134219831609955
 20
-3.0926300802435618
 11
0.3244598129255438
 21
-3.0037998164319246
  0
LINE
  8
_0-1_ADD_LINE
  6
CONTINUOUS
 62
    7
 10
0.3244598129255438
 20
-3.0037998164319246
 11
0.457705208642996
 21
-2.7373090249970096
  0
LINE
  8
_0-1_ADD_LINE
  6
CONTINUOUS
 62
    7
 10
0.457705208642996
 20
-2.7373090249970096
 11
0.3244598129255438
 21
-2.5596484973737352
  0
LINE
  8
_0-1_ADD_LINE
  6
CONTINUOUS
 62
    7
 10
-0.5749466081672904
 20
-4.0031402843128516
 11
-0.097483940179738
 21
-3.936517586454122
  0
LINE
  8
_0-1_ADD_LINE
  6
CONTINUOUS
 62
    7
 10
-0.097483940179738
 20
-3.936517586454122
 11
0.4910165575723626
 21
-3.9809327183599406
  0
LINE
  8
_0-1_ADD_LINE
  6
CONTINUOUS
 62
    7
 10
0.4910165575723626
 20
-3.9809327183599406
 11
0.9906867915128261
 21
-4.1919045949125815
  0
LINE
  8
_0-1_ADD_LINE
  6
CONTINUOUS
 62
    7
 10
0.9906867915128261
 20
-4.1919045949125815
 11
1.3349040637829193
 21
-4.5583294331355892
  0
LINE
  8
_0-1_ADD_LINE
  6
CONTINUOUS
 62
    7
 10
1.3349040637829193
 20
-4.5583294331355892
 11
1.3015927148535598
 21
-4.9913769692173231
  0
LINE
  8
_0-1_ADD_LINE
  6
CONTINUOUS
 62
    7
 10
1.3015927148535598
 20
-4.9913769692173231
 11
1.0239981404421927
 21
-5.3689055904167864
  0
LINE
  8
_0-1_ADD_LINE
  6
CONTINUOUS
 62
    7
 10
1.0239981404421927
 20
-5.3689055904167864
 11
0.1912144172080845
 21
-5.4910472031577866
  0
LINE
  8
_0-1_ADD_LINE
  6
CONTINUOUS
 62
    7
 10
0.1912144172080845
 20
-5.4910472031577866
 11
-0.6415693060260236
 21
-5.3022828925580567
  0
LINE
  8
_0-1_ADD_LINE
  6
CONTINUOUS
 62
    7
 10
-0.6415693060260236
 20
-5.3022828925580567
 11
-0.9080600974609351
 21
-5.1357261479112344
  0
LINE
  8
_0-1_ADD_LINE
  6
CONTINUOUS
 62
    7
 10
-0.9080600974609351
 20
-5.1357261479112344
 11
-1.0968244080606651
 21
-4.8692353564763229
  0
LINE
  8
_0-1_ADD_LINE
  6
CONTINUOUS
 62
    7
 10
-1.0968244080606651
 20
-4.8692353564763229
 11
-1.1856546718723022
 21
-4.5472256501591337
  0
LINE
  8
_0-1_ADD_LINE
  6
CONTINUOUS
 62
    7
 10
-1.1856546718723022
 20
-4.5472256501591337
 11
-1.1190319740135761
 21
-4.2474235097948556
  0
LINE
  8
_0-1_ADD_LINE
  6
CONTINUOUS
 62
    7
 10
-1.1190319740135761
 20
-4.2474235097948556
 11
-0.8636449655551201
 21
-4.0475554162186702
  0
LINE
  8
_0-1_ADD_LINE
  6
CONTINUOUS
 62
    7
 10
-0.8636449655551201
 20
-4.0475554162186702
 11
-0.5749466081672904
 21
-4.0031402843128516
  0
LINE
  8
_0-1_ADD_LINE
  6
CONTINUOUS
 62
    7
 10
-0.563842825190842
 20
-4.2141121608654926
 11
-0.5194276932850199
 21
-4.4361878203945855
  0
LINE
  8
_0-1_ADD_LINE
  6
CONTINUOUS
 62
    7
 10
-0.5194276932850199
 20
-4.4361878203945855
 11
-0.1085877231561935
 21
-4.6360559139707709
  0
LINE
  8
_0-1_ADD_LINE
  6
CONTINUOUS
 62
    7
 10
-0.1085877231561935
 20
-4.6360559139707709
 11
0.2578371150668106
 21
-4.691574828853045
  0
LINE
  8
_0-1_ADD_LINE
  6
CONTINUOUS
 62
    7
 10
0.2578371150668106
 20
-4.691574828853045
 11
0.4910165575723626
 21
-4.6027445650414078
  0
LINE
  8
_0-1_ADD_LINE
  6
CONTINUOUS
 62
    7
 10
0.4910165575723626
 20
-4.6027445650414078
 11
0.6020543873369108
 21
-4.5139143012297707
  0
LINE
  8
_0-1_ADD_LINE
  6
CONTINUOUS
 62
    7
 10
0.6020543873369108
 20
-4.5139143012297707
 11
0.735299783054363
 21
-4.2474235097948556
  0
LINE
  8
_0-1_ADD_LINE
  6
CONTINUOUS
 62
    7
 10
0.735299783054363
 20
-4.2474235097948556
 11
0.6020543873369108
 21
-4.0697629821715813
  0
LINE
  8
_0-1_ADD_LINE
  6
CONTINUOUS
 62
    7
 10
-5.6826867773364738
 20
-5.0135845351702342
 11
-5.2052241093489213
 21
-4.9469618373115045
  0
LINE
  8
_0-1_ADD_LINE
  6
CONTINUOUS
 62
    7
 10
-5.2052241093489213
 20
-4.9469618373115045
 11
-4.6167236115968207
 21
-4.9913769692173231
  0
LINE
  8
_0-1_ADD_LINE
  6
CONTINUOUS
 62
    7
 10
-4.6167236115968207
 20
-4.9913769692173231
 11
-4.1170533776563571
 21
-5.202348845769964
  0
LINE
  8
_0-1_ADD_LINE
  6
CONTINUOUS
 62
    7
 10
-4.1170533776563571
 20
-5.202348845769964
 11
-3.772836105386264
 21
-5.5687736839929718
  0
LINE
  8
_0-1_ADD_LINE
  6
CONTINUOUS
 62
    7
 10
-3.772836105386264
 20
-5.5687736839929718
 11
-3.8061474543156235
 21
-6.0018212200747056
  0
LINE
  8
_0-1_ADD_LINE
  6
CONTINUOUS
 62
    7
 10
-3.8061474543156235
 20
-6.0018212200747056
 11
-4.0837420287269905
 21
-6.3793498412741689
  0
LINE
  8
_0-1_ADD_LINE
  6
CONTINUOUS
 62
    7
 10
-4.0837420287269905
 20
-6.3793498412741689
 11
-4.9165257519610988
 21
-6.5014914540151691
  0
LINE
  8
_0-1_ADD_LINE
  6
CONTINUOUS
 62
    7
 10
-4.9165257519610988
 20
-6.5014914540151691
 11
-5.749309475195207
 21
-6.3127271434154393
  0
LINE
  8
_0-1_ADD_LINE
  6
CONTINUOUS
 62
    7
 10
-5.749309475195207
 20
-6.3127271434154393
 11
-6.0158002666301185
 21
-6.1461703987686169
  0
LINE
  8
_0-1_ADD_LINE
  6
CONTINUOUS
 62
    7
 10
-6.0158002666301185
 20
-6.1461703987686169
 11
-6.2045645772298483
 21
-5.8796796073337054
  0
LINE
  8
_0-1_ADD_LINE
  6
CONTINUOUS
 62
    7
 10
-6.2045645772298483
 20
-5.8796796073337054
 11
-6.2933948410414855
 21
-5.5576699010165163
  0
LINE
  8
_0-1_ADD_LINE
  6
CONTINUOUS
 62
    7
 10
-6.2933948410414855
 20
-5.5576699010165163
 11
-6.2267721431827594
 21
-5.2578677606522382
  0
LINE
  8
_0-1_ADD_LINE
  6
CONTINUOUS
 62
    7
 10
-6.2267721431827594
 20
-5.2578677606522382
 11
-5.9713851347243034
 21
-5.0579996670760528
  0
LINE
  8
_0-1_ADD_LINE
  6
CONTINUOUS
 62
    7
 10
-5.9713851347243034
 20
-5.0579996670760528
 11
-5.6826867773364738
 21
-5.0135845351702342
  0
LINE
  8
_0-1_ADD_LINE
  6
CONTINUOUS
 62
    7
 10
-5.6715829943600253
 20
-5.2245564117228751
 11
-5.6271678624542032
 21
-5.446632071251968
  0
LINE
  8
_0-1_ADD_LINE
  6
CONTINUOUS
 62
    7
 10
-5.6271678624542032
 20
-5.446632071251968
 11
-5.2163278923253769
 21
-5.6465001648281534
  0
LINE
  8
_0-1_ADD_LINE
  6
CONTINUOUS
 62
    7
 10
-5.2163278923253769
 20
-5.6465001648281534
 11
-4.8499030541023727
 21
-5.7020190797104275
  0
LINE
  8
_0-1_ADD_LINE
  6
CONTINUOUS
 62
    7
 10
-4.8499030541023727
 20
-5.7020190797104275
 11
-4.6167236115968207
 21
-5.6131888158987904
  0
LINE
  8
_0-1_ADD_LINE
  6
CONTINUOUS
 62
    7
 10
-4.6167236115968207
 20
-5.6131888158987904
 11
-4.5056857818322724
 21
-5.5243585520871532
  0
LINE
  8
_0-1_ADD_LINE
  6
CONTINUOUS
 62
    7
 10
-4.5056857818322724
 20
-5.5243585520871532
 11
-4.3724403861148202
 21
-5.2578677606522382
  0
LINE
  8
_0-1_ADD_LINE
  6
CONTINUOUS
 62
    7
 10
-4.3724403861148202
 20
-5.2578677606522382
 11
-4.5056857818322724
 21
-5.0802072330289638
  0
LINE
  8
_0-1_ADD_LINE
  6
CONTINUOUS
 62
    7
 10
-3.0177788629873374
 20
-4.6027445650414078
 11
-2.540316194999785
 21
-4.5361218671826782
  0
LINE
  8
_0-1_ADD_LINE
  6
CONTINUOUS
 62
    7
 10
-2.540316194999785
 20
-4.5361218671826782
 11
-1.9518156972476843
 21
-4.5805369990884968
  0
LINE
  8
_0-1_ADD_LINE
  6
CONTINUOUS
 62
    7
 10
-1.9518156972476843
 20
-4.5805369990884968
 11
-1.4521454633072208
 21
-4.7915088756411377
  0
LINE
  8
_0-1_ADD_LINE
  6
CONTINUOUS
 62
    7
 10
-1.4521454633072208
 20
-4.7915088756411377
 11
-1.1079281910371277
 21
-5.1579337138641455
  0
LINE
  8
_0-1_ADD_LINE
  6
CONTINUOUS
 62
    7
 10
-1.1079281910371277
 20
-5.1579337138641455
 11
-1.1412395399664872
 21
-5.5909812499458793
  0
LINE
  8
_0-1_ADD_LINE
  6
CONTINUOUS
 62
    7
 10
-1.1412395399664872
 20
-5.5909812499458793
 11
-1.4188341143778542
 21
-5.9685098711453426
  0
LINE
  8
_0-1_ADD_LINE
  6
CONTINUOUS
 62
    7
 10
-1.4188341143778542
 20
-5.9685098711453426
 11
-2.2516178376119624
 21
-6.0906514838863428
  0
LINE
  8
_0-1_ADD_LINE
  6
CONTINUOUS
 62
    7
 10
-2.2516178376119624
 20
-6.0906514838863428
 11
-3.0844015608460706
 21
-5.9018871732866129
  0
LINE
  8
_0-1_ADD_LINE
  6
CONTINUOUS
 62
    7
 10
-3.0844015608460706
 20
-5.9018871732866129
 11
-3.3508923522809821
 21
-5.7353304286397906
  0
LINE
  8
_0-1_ADD_LINE
  6
CONTINUOUS
 62
    7
 10
-3.3508923522809821
 20
-5.7353304286397906
 11
-3.539656662880712
 21
-5.4688396372048791
  0
LINE
  8
_0-1_ADD_LINE
  6
CONTINUOUS
 62
    7
 10
-3.539656662880712
 20
-5.4688396372048791
 11
-3.6284869266923492
 21
-5.1468299308876899
  0
LINE
  8
_0-1_ADD_LINE
  6
CONTINUOUS
 62
    7
 10
-3.6284869266923492
 20
-5.1468299308876899
 11
-3.5618642288336231
 21
-4.8470277905234118
  0
LINE
  8
_0-1_ADD_LINE
  6
CONTINUOUS
 62
    7
 10
-3.5618642288336231
 20
-4.8470277905234118
 11
-3.3064772203751671
 21
-4.6471596969472264
  0
LINE
  8
_0-1_ADD_LINE
  6
CONTINUOUS
 62
    7
 10
-3.3064772203751671
 20
-4.6471596969472264
 11
-3.0177788629873374
 21
-4.6027445650414078
  0
LINE
  8
_0-1_ADD_LINE
  6
CONTINUOUS
 62
    7
 10
-3.006675080010889
 20
-4.8137164415940488
 11
-2.9622599481050669
 21
-5.0357921011231417
  0
LINE
  8
_0-1_ADD_LINE
  6
CONTINUOUS
 62
    7
 10
-2.9622599481050669
 20
-5.0357921011231417
 11
-2.5514199779762405
 21
-5.2356601946993271
  0
LINE
  8
_0-1_ADD_LINE
  6
CONTINUOUS
 62
    7
 10
-2.5514199779762405
 20
-5.2356601946993271
 11
-2.1849951397532363
 21
-5.2911791095816012
  0
LINE
  8
_0-1_ADD_LINE
  6
CONTINUOUS
 62
    7
 10
-2.1849951397532363
 20
-5.2911791095816012
 11
-1.9518156972476843
 21
-5.202348845769964
  0
LINE
  8
_0-1_ADD_LINE
  6
CONTINUOUS
 62
    7
 10
-1.9518156972476843
 20
-5.202348845769964
 11
-1.8407778674831361
 21
-5.1135185819583269
  0
LINE
  8
_0-1_ADD_LINE
  6
CONTINUOUS
 62
    7
 10
-1.8407778674831361
 20
-5.1135185819583269
 11
-1.7075324717656839
 21
-4.8470277905234118
  0
LINE
  8
_0-1_ADD_LINE
  6
CONTINUOUS
 62
    7
 10
-1.7075324717656839
 20
-4.8470277905234118
 11
-1.8407778674831361
 21
-4.6693672629001375
  0
LINE
  8
_0-1_ADD_LINE
  6
CONTINUOUS
 62
    7
 10
-2.9955712970344264
 20
-6.1905855306744355
 11
-2.5181086290468739
 21
-6.1239628328157059
  0
LINE
  8
_0-1_ADD_LINE
  6
CONTINUOUS
 62
    7
 10
-2.5181086290468739
 20
-6.1239628328157059
 11
-1.9296081312947733
 21
-6.1683779647215244
  0
LINE
  8
_0-1_ADD_LINE
  6
CONTINUOUS
 62
    7
 10
-1.9296081312947733
 20
-6.1683779647215244
 11
-1.4299378973543098
 21
-6.3793498412741654
  0
LINE
  8
_0-1_ADD_LINE
  6
CONTINUOUS
 62
    7
 10
-1.4299378973543098
 20
-6.3793498412741654
 11
-1.0857206250842166
 21
-6.7457746794971731
  0
LINE
  8
_0-1_ADD_LINE
  6
CONTINUOUS
 62
    7
 10
-1.0857206250842166
 20
-6.7457746794971731
 11
-1.1190319740135761
 21
-7.178822215578907
  0
LINE
  8
_0-1_ADD_LINE
  6
CONTINUOUS
 62
    7
 10
-1.1190319740135761
 20
-7.178822215578907
 11
-1.3966265484249432
 21
-7.5563508367783703
  0
LINE
  8
_0-1_ADD_LINE
  6
CONTINUOUS
 62
    7
 10
-1.3966265484249432
 20
-7.5563508367783703
 11
-2.2294102716590514
 21
-7.6784924495193705
  0
LINE
  8
_0-1_ADD_LINE
  6
CONTINUOUS
 62
    7
 10
-2.2294102716590514
 20
-7.6784924495193705
 11
-3.0621939948931596
 21
-7.4897281389196406
  0
LINE
  8
_0-1_ADD_LINE
  6
CONTINUOUS
 62
    7
 10
-3.0621939948931596
 20
-7.4897281389196406
 11
-3.3286847863280711
 21
-7.3231713942728183
  0
LINE
  8
_0-1_ADD_LINE
  6
CONTINUOUS
 62
    7
 10
-3.3286847863280711
 20
-7.3231713942728183
 11
-3.5174490969278009
 21
-7.0566806028379068
  0
LINE
  8
_0-1_ADD_LINE
  6
CONTINUOUS
 62
    7
 10
-3.5174490969278009
 20
-7.0566806028379068
 11
-3.6062793607394381
 21
-6.7346708965207176
  0
LINE
  8
_0-1_ADD_LINE
  6
CONTINUOUS
 62
    7
 10
-3.6062793607394381
 20
-6.7346708965207176
 11
-3.539656662880712
 21
-6.4348687561564395
  0
LINE
  8
_0-1_ADD_LINE
  6
CONTINUOUS
 62
    7
 10
-3.539656662880712
 20
-6.4348687561564395
 11
-3.284269654422256
 21
-6.2350006625802541
  0
LINE
  8
_0-1_ADD_LINE
  6
CONTINUOUS
 62
    7
 10
-3.284269654422256
 20
-6.2350006625802541
 11
-2.9955712970344264
 21
-6.1905855306744355
  0
LINE
  8
_0-1_ADD_LINE
  6
CONTINUOUS
 62
    7
 10
-2.9844675140579779
 20
-6.4015574072270764
 11
-2.9400523821521558
 21
-6.6236330667561694
  0
LINE
  8
_0-1_ADD_LINE
  6
CONTINUOUS
 62
    7
 10
-2.9400523821521558
 20
-6.6236330667561694
 11
-2.5292124120233295
 21
-6.8235011603323548
  0
LINE
  8
_0-1_ADD_LINE
  6
CONTINUOUS
 62
    7
 10
-2.5292124120233295
 20
-6.8235011603323548
 11
-2.1627875738003253
 21
-6.8790200752146289
  0
LINE
  8
_0-1_ADD_LINE
  6
CONTINUOUS
 62
    7
 10
-2.1627875738003253
 20
-6.8790200752146289
 11
-1.9296081312947733
 21
-6.7901898114029917
  0
LINE
  8
_0-1_ADD_LINE
  6
CONTINUOUS
 62
    7
 10
-1.9296081312947733
 20
-6.7901898114029917
 11
-1.818570301530225
 21
-6.7013595475913545
  0
LINE
  8
_0-1_ADD_LINE
  6
CONTINUOUS
 62
    7
 10
-1.818570301530225
 20
-6.7013595475913545
 11
-1.6853249058127728
 21
-6.4348687561564395
  0
LINE
  8
_0-1_ADD_LINE
  6
CONTINUOUS
 62
    7
 10
-1.6853249058127728
 20
-6.4348687561564395
 11
-1.818570301530225
 21
-6.2572082285331652
  0
LINE
  8
_0-1_ADD_LINE
  6
CONTINUOUS
 62
    7
 10
-0.2196255529207418
 20
-7.2010297815318181
 11
0.2578371150668106
 21
-7.1344070836730884
  0
LINE
  8
_0-1_ADD_LINE
  6
CONTINUOUS
 62
    7
 10
0.2578371150668106
 20
-7.1344070836730884
 11
0.8463376128189112
 21
-7.178822215578907
  0
LINE
  8
_0-1_ADD_LINE
  6
CONTINUOUS
 62
    7
 10
0.8463376128189112
 20
-7.178822215578907
 11
1.3460078467593748
 21
-7.3897940921315479
  0
LINE
  8
_0-1_ADD_LINE
  6
CONTINUOUS
 62
    7
 10
1.3460078467593748
 20
-7.3897940921315479
 11
1.6902251190294679
 21
-7.7562189303545557
  0
LINE
  8
_0-1_ADD_LINE
  6
CONTINUOUS
 62
    7
 10
1.6902251190294679
 20
-7.7562189303545557
 11
1.6569137701001084
 21
-8.1892664664362904
  0
LINE
  8
_0-1_ADD_LINE
  6
CONTINUOUS
 62
    7
 10
1.6569137701001084
 20
-8.1892664664362904
 11
1.3793191956887414
 21
-8.5667950876357537
  0
LINE
  8
_0-1_ADD_LINE
  6
CONTINUOUS
 62
    7
 10
1.3793191956887414
 20
-8.5667950876357537
 11
0.5465354724546331
 21
-8.6889367003767539
  0
LINE
  8
_0-1_ADD_LINE
  6
CONTINUOUS
 62
    7
 10
0.5465354724546331
 20
-8.6889367003767539
 11
-0.286248250779475
 21
-8.5001723897770241
  0
LINE
  8
_0-1_ADD_LINE
  6
CONTINUOUS
 62
    7
 10
-0.286248250779475
 20
-8.5001723897770241
 11
-0.5527390422143865
 21
-8.3336156451302017
  0
LINE
  8
_0-1_ADD_LINE
  6
CONTINUOUS
 62
    7
 10
-0.5527390422143865
 20
-8.3336156451302017
 11
-0.7415033528141163
 21
-8.0671248536952902
  0
LINE
  8
_0-1_ADD_LINE
  6
CONTINUOUS
 62
    7
 10
-0.7415033528141163
 20
-8.0671248536952902
 11
-0.8303336166257535
 21
-7.7451151473781001
  0
LINE
  8
_0-1_ADD_LINE
  6
CONTINUOUS
 62
    7
 10
-0.8303336166257535
 20
-7.7451151473781001
 11
-0.7637109187670274
 21
-7.445313007013822
  0
LINE
  8
_0-1_ADD_LINE
  6
CONTINUOUS
 62
    7
 10
-0.7637109187670274
 20
-7.445313007013822
 11
-0.5083239103085714
 21
-7.2454449134376366
  0
LINE
  8
_0-1_ADD_LINE
  6
CONTINUOUS
 62
    7
 10
-0.5083239103085714
 20
-7.2454449134376366
 11
-0.2196255529207418
 21
-7.2010297815318181
  0
LINE
  8
_0-1_ADD_LINE
  6
CONTINUOUS
 62
    7
 10
-0.2085217699442933
 20
-7.412001658084459
 11
-0.1641066380384712
 21
-7.6340773176135519
  0
LINE
  8
_0-1_ADD_LINE
  6
CONTINUOUS
 62
    7
 10
-0.1641066380384712
 20
-7.6340773176135519
 11
0.246733332090355
 21
-7.8339454111897373
  0
LINE
  8
_0-1_ADD_LINE
  6
CONTINUOUS
 62
    7
 10
0.246733332090355
 20
-7.8339454111897373
 11
0.6131581703133592
 21
-7.8894643260720114
  0
LINE
  8
_0-1_ADD_LINE
  6
CONTINUOUS
 62
    7
 10
0.6131581703133592
 20
-7.8894643260720114
 11
0.8463376128189112
 21
-7.8006340622603743
  0
LINE
  8
_0-1_ADD_LINE
  6
CONTINUOUS
 62
    7
 10
0.8463376128189112
 20
-7.8006340622603743
 11
0.9573754425834595
 21
-7.7118037984487371
  0
LINE
  8
_0-1_ADD_LINE
  6
CONTINUOUS
 62
    7
 10
0.9573754425834595
 20
-7.7118037984487371
 11
1.0906208383009117
 21
-7.445313007013822
  0
LINE
  8
_0-1_ADD_LINE
  6
CONTINUOUS
 62
    7
 10
1.0906208383009117
 20
-7.445313007013822
 11
0.9573754425834595
 21
-7.2676524793905477
  0
LINE
  8
_0-1_ADD_LINE
  6
CONTINUOUS
 62
    7
 10
2.1343764380876609
 20
-3.9476213694305775
 11
2.6118391060752133
 21
-3.8809986715718479
  0
LINE
  8
_0-1_ADD_LINE
  6
CONTINUOUS
 62
    7
 10
2.6118391060752133
 20
-3.8809986715718479
 11
3.200339603827314
 21
-3.9254138034776664
  0
LINE
  8
_0-1_ADD_LINE
  6
CONTINUOUS
 62
    7
 10
3.200339603827314
 20
-3.9254138034776664
 11
3.7000098377677775
 21
-4.1363856800303074
  0
LINE
  8
_0-1_ADD_LINE
  6
CONTINUOUS
 62
    7
 10
3.7000098377677775
 20
-4.1363856800303074
 11
4.0442271100378706
 21
-4.5028105182533151
  0
LINE
  8
_0-1_ADD_LINE
  6
CONTINUOUS
 62
    7
 10
4.0442271100378706
 20
-4.5028105182533151
 11
4.0109157611085111
 21
-4.935858054335049
  0
LINE
  8
_0-1_ADD_LINE
  6
CONTINUOUS
 62
    7
 10
4.0109157611085111
 20
-4.935858054335049
 11
3.7333211866971441
 21
-5.3133866755345123
  0
LINE
  8
_0-1_ADD_LINE
  6
CONTINUOUS
 62
    7
 10
3.7333211866971441
 20
-5.3133866755345123
 11
2.9005374634630359
 21
-5.4355282882755125
  0
LINE
  8
_0-1_ADD_LINE
  6
CONTINUOUS
 62
    7
 10
2.9005374634630359
 20
-5.4355282882755125
 11
2.0677537402289277
 21
-5.2467639776757826
  0
LINE
  8
_0-1_ADD_LINE
  6
CONTINUOUS
 62
    7
 10
2.0677537402289277
 20
-5.2467639776757826
 11
1.8012629487940162
 21
-5.0802072330289603
  0
LINE
  8
_0-1_ADD_LINE
  6
CONTINUOUS
 62
    7
 10
1.8012629487940162
 20
-5.0802072330289603
 11
1.6124986381942863
 21
-4.8137164415940488
  0
LINE
  8
_0-1_ADD_LINE
  6
CONTINUOUS
 62
    7
 10
1.6124986381942863
 20
-4.8137164415940488
 11
1.5236683743826491
 21
-4.4917067352768596
  0
LINE
  8
_0-1_ADD_LINE
  6
CONTINUOUS
 62
    7
 10
1.5236683743826491
 20
-4.4917067352768596
 11
1.5902910722413752
 21
-4.1919045949125815
  0
LINE
  8
_0-1_ADD_LINE
  6
CONTINUOUS
 62
    7
 10
1.5902910722413752
 20
-4.1919045949125815
 11
1.8456780806998312
 21
-3.9920365013363961
  0
LINE
  8
_0-1_ADD_LINE
  6
CONTINUOUS
 62
    7
 10
1.8456780806998312
 20
-3.9920365013363961
 11
2.1343764380876609
 21
-3.9476213694305775
  0
LINE
  8
_0-1_ADD_LINE
  6
CONTINUOUS
 62
    7
 10
2.1454802210641093
 20
-4.1585932459832184
 11
2.1898953529699314
 21
-4.3806689055123114
  0
LINE
  8
_0-1_ADD_LINE
  6
CONTINUOUS
 62
    7
 10
2.1898953529699314
 20
-4.3806689055123114
 11
2.6007353230987578
 21
-4.5805369990884968
  0
LINE
  8
_0-1_ADD_LINE
  6
CONTINUOUS
 62
    7
 10
2.6007353230987578
 20
-4.5805369990884968
 11
2.967160161321762
 21
-4.6360559139707709
  0
LINE
  8
_0-1_ADD_LINE
  6
CONTINUOUS
 62
    7
 10
2.967160161321762
 20
-4.6360559139707709
 11
3.200339603827314
 21
-4.5472256501591337
  0
LINE
  8
_0-1_ADD_LINE
  6
CONTINUOUS
 62
    7
 10
3.200339603827314
 20
-4.5472256501591337
 11
3.3113774335918622
 21
-4.4583953863474965
  0
LINE
  8
_0-1_ADD_LINE
  6
CONTINUOUS
 62
    7
 10
3.3113774335918622
 20
-4.4583953863474965
 11
3.4446228293093144
 21
-4.1919045949125815
  0
LINE
  8
_0-1_ADD_LINE
  6
CONTINUOUS
 62
    7
 10
3.4446228293093144
 20
-4.1919045949125815
 11
3.3113774335918622
 21
-4.0142440672893072
  0
LINE
  8
_0-1_ADD_LINE
  6
CONTINUOUS
 62
    7
 10
4.8436994843426193
 20
-5.1468299308876899
 11
5.3211621523301718
 21
-5.0802072330289603
  0
LINE
  8
_0-1_ADD_LINE
  6
CONTINUOUS
 62
    7
 10
5.3211621523301718
 20
-5.0802072330289603
 11
5.9096626500822724
 21
-5.1246223649347789
  0
LINE
  8
_0-1_ADD_LINE
  6
CONTINUOUS
 62
    7
 10
5.9096626500822724
 20
-5.1246223649347789
 11
6.4093328840227359
 21
-5.3355942414874198
  0
LINE
  8
_0-1_ADD_LINE
  6
CONTINUOUS
 62
    7
 10
6.4093328840227359
 20
-5.3355942414874198
 11
6.7535501562928291
 21
-5.7020190797104275
  0
LINE
  8
_0-1_ADD_LINE
  6
CONTINUOUS
 62
    7
 10
6.7535501562928291
 20
-5.7020190797104275
 11
6.7202388073634696
 21
-6.1350666157921614
  0
LINE
  8
_0-1_ADD_LINE
  6
CONTINUOUS
 62
    7
 10
6.7202388073634696
 20
-6.1350666157921614
 11
6.4426442329521025
 21
-6.5125952369916247
  0
LINE
  8
_0-1_ADD_LINE
  6
CONTINUOUS
 62
    7
 10
6.4426442329521025
 20
-6.5125952369916247
 11
5.6098605097179943
 21
-6.6347368497326249
  0
LINE
  8
_0-1_ADD_LINE
  6
CONTINUOUS
 62
    7
 10
5.6098605097179943
 20
-6.6347368497326249
 11
4.7770767864838861
 21
-6.445972539132895
  0
LINE
  8
_0-1_ADD_LINE
  6
CONTINUOUS
 62
    7
 10
4.7770767864838861
 20
-6.445972539132895
 11
4.5105859950489746
 21
-6.2794157944860727
  0
LINE
  8
_0-1_ADD_LINE
  6
CONTINUOUS
 62
    7
 10
4.5105859950489746
 20
-6.2794157944860727
 11
4.3218216844492447
 21
-6.0129250030511612
  0
LINE
  8
_0-1_ADD_LINE
  6
CONTINUOUS
 62
    7
 10
4.3218216844492447
 20
-6.0129250030511612
 11
4.2329914206376076
 21
-5.690915296733972
  0
LINE
  8
_0-1_ADD_LINE
  6
CONTINUOUS
 62
    7
 10
4.2329914206376076
 20
-5.690915296733972
 11
4.2996141184963337
 21
-5.3911131563696939
  0
LINE
  8
_0-1_ADD_LINE
  6
CONTINUOUS
 62
    7
 10
4.2996141184963337
 20
-5.3911131563696939
 11
4.5550011269547896
 21
-5.1912450627935085
  0
LINE
  8
_0-1_ADD_LINE
  6
CONTINUOUS
 62
    7
 10
4.5550011269547896
 20
-5.1912450627935085
 11
4.8436994843426193
 21
-5.1468299308876899
  0
LINE
  8
_0-1_ADD_LINE
  6
CONTINUOUS
 62
    7
 10
4.8548032673190677
 20
-5.3578018074403309
 11
4.8992183992248899
 21
-5.5798774669694238
  0
LINE
  8
_0-1_ADD_LINE
  6
CONTINUOUS
 62
    7
 10
4.8992183992248899
 20
-5.5798774669694238
 11
5.3100583693537162
 21
-5.7797455605456092
  0
LINE
  8
_0-1_ADD_LINE
  6
CONTINUOUS
 62
    7
 10
5.3100583693537162
 20
-5.7797455605456092
 11
5.6764832075767204
 21
-5.8352644754278833
  0
LINE
  8
_0-1_ADD_LINE
  6
CONTINUOUS
 62
    7
 10
5.6764832075767204
 20
-5.8352644754278833
 11
5.9096626500822724
 21
-5.7464342116162461
  0
LINE
  8
_0-1_ADD_LINE
  6
CONTINUOUS
 62
    7
 10
5.9096626500822724
 20
-5.7464342116162461
 11
6.0207004798468207
 21
-5.657603947804609
  0
LINE
  8
_0-1_ADD_LINE
  6
CONTINUOUS
 62
    7
 10
6.0207004798468207
 20
-5.657603947804609
 11
6.1539458755642729
 21
-5.3911131563696939
  0
LINE
  8
_0-1_ADD_LINE
  6
CONTINUOUS
 62
    7
 10
6.1539458755642729
 20
-5.3911131563696939
 11
6.0207004798468207
 21
-5.2134526287464196
  0
LINE
  8
_0-1_ADD_LINE
  6
CONTINUOUS
 62
    7
 10
2.5674239741693983
 20
-6.773534136938312
 11
3.0448866421569507
 21
-6.7069114390795823
  0
LINE
  8
_0-1_ADD_LINE
  6
CONTINUOUS
 62
    7
 10
3.0448866421569507
 20
-6.7069114390795823
 11
3.6333871399090514
 21
-6.7513265709854009
  0
LINE
  8
_0-1_ADD_LINE
  6
CONTINUOUS
 62
    7
 10
3.6333871399090514
 20
-6.7513265709854009
 11
4.1330573738495149
 21
-6.9622984475380418
  0
LINE
  8
_0-1_ADD_LINE
  6
CONTINUOUS
 62
    7
 10
4.1330573738495149
 20
-6.9622984475380418
 11
4.477274646119608
 21
-7.3287232857610496
  0
LINE
  8
_0-1_ADD_LINE
  6
CONTINUOUS
 62
    7
 10
4.477274646119608
 20
-7.3287232857610496
 11
4.4439632971902485
 21
-7.7617708218427834
  0
LINE
  8
_0-1_ADD_LINE
  6
CONTINUOUS
 62
    7
 10
4.4439632971902485
 20
-7.7617708218427834
 11
4.1663687227788815
 21
-8.1392994430422476
  0
LINE
  8
_0-1_ADD_LINE
  6
CONTINUOUS
 62
    7
 10
4.1663687227788815
 20
-8.1392994430422476
 11
3.3335849995447733
 21
-8.2614410557832478
  0
LINE
  8
_0-1_ADD_LINE
  6
CONTINUOUS
 62
    7
 10
3.3335849995447733
 20
-8.2614410557832478
 11
2.5008012763106651
 21
-8.072676745183518
  0
LINE
  8
_0-1_ADD_LINE
  6
CONTINUOUS
 62
    7
 10
2.5008012763106651
 20
-8.072676745183518
 11
2.2343104848757536
 21
-7.9061200005366947
  0
LINE
  8
_0-1_ADD_LINE
  6
CONTINUOUS
 62
    7
 10
2.2343104848757536
 20
-7.9061200005366947
 11
2.0455461742760237
 21
-7.6396292091017832
  0
LINE
  8
_0-1_ADD_LINE
  6
CONTINUOUS
 62
    7
 10
2.0455461742760237
 20
-7.6396292091017832
 11
1.9567159104643865
 21
-7.3176195027845941
  0
LINE
  8
_0-1_ADD_LINE
  6
CONTINUOUS
 62
    7
 10
1.9567159104643865
 20
-7.3176195027845941
 11
2.0233386083231126
 21
-7.017817362420316
  0
LINE
  8
_0-1_ADD_LINE
  6
CONTINUOUS
 62
    7
 10
2.0233386083231126
 20
-7.017817362420316
 11
2.2787256167815686
 21
-6.8179492688441306
  0
LINE
  8
_0-1_ADD_LINE
  6
CONTINUOUS
 62
    7
 10
2.2787256167815686
 20
-6.8179492688441306
 11
2.5674239741693983
 21
-6.773534136938312
  0
LINE
  8
_0-1_ADD_LINE
  6
CONTINUOUS
 62
    7
 10
2.5785277571458467
 20
-6.9845060134909529
 11
2.6229428890516688
 21
-7.2065816730200458
  0
LINE
  8
_0-1_ADD_LINE
  6
CONTINUOUS
 62
    7
 10
2.6229428890516688
 20
-7.2065816730200458
 11
3.0337828591804952
 21
-7.4064497665962312
  0
LINE
  8
_0-1_ADD_LINE
  6
CONTINUOUS
 62
    7
 10
3.0337828591804952
 20
-7.4064497665962312
 11
3.4002076974034994
 21
-7.4619686814785053
  0
LINE
  8
_0-1_ADD_LINE
  6
CONTINUOUS
 62
    7
 10
3.4002076974034994
 20
-7.4619686814785053
 11
3.6333871399090514
 21
-7.3731384176668682
  0
LINE
  8
_0-1_ADD_LINE
  6
CONTINUOUS
 62
    7
 10
3.6333871399090514
 20
-7.3731384176668682
 11
3.7444249696735996
 21
-7.284308153855231
  0
LINE
  8
_0-1_ADD_LINE
  6
CONTINUOUS
 62
    7
 10
3.7444249696735996
 20
-7.284308153855231
 11
3.8776703653910518
 21
-7.017817362420316
  0
LINE
  8
_0-1_ADD_LINE
  6
CONTINUOUS
 62
    7
 10
3.8776703653910518
 20
-7.017817362420316
 11
3.7444249696735996
 21
-6.8401568347970416
  0
LINE
  8
_0-1_ADD_LINE
  6
CONTINUOUS
 62
    7
 10
2.5119050592871277
 20
-8.3946864515007071
 11
2.9893677272746801
 21
-8.3280637536419775
  0
LINE
  8
_0-1_ADD_LINE
  6
CONTINUOUS
 62
    7
 10
2.9893677272746801
 20
-8.3280637536419775
 11
3.5778682250267808
 21
-8.3724788855477961
  0
LINE
  8
_0-1_ADD_LINE
  6
CONTINUOUS
 62
    7
 10
3.5778682250267808
 20
-8.3724788855477961
 11
4.0775384589672443
 21
-8.583450762100437
  0
LINE
  8
_0-1_ADD_LINE
  6
CONTINUOUS
 62
    7
 10
4.0775384589672443
 20
-8.583450762100437
 11
4.4217557312373375
 21
-8.9498756003234448
  0
LINE
  8
_0-1_ADD_LINE
  6
CONTINUOUS
 62
    7
 10
4.4217557312373375
 20
-8.9498756003234448
 11
4.388444382307978
 21
-9.3829231364051786
  0
LINE
  8
_0-1_ADD_LINE
  6
CONTINUOUS
 62
    7
 10
4.388444382307978
 20
-9.3829231364051786
 11
4.1108498078966109
 21
-9.7604517576046419
  0
LINE
  8
_0-1_ADD_LINE
  6
CONTINUOUS
 62
    7
 10
4.1108498078966109
 20
-9.7604517576046419
 11
3.2780660846625027
 21
-9.8825933703456421
  0
LINE
  8
_0-1_ADD_LINE
  6
CONTINUOUS
 62
    7
 10
3.2780660846625027
 20
-9.8825933703456421
 11
2.4452823614283945
 21
-9.6938290597459122
  0
LINE
  8
_0-1_ADD_LINE
  6
CONTINUOUS
 62
    7
 10
2.4452823614283945
 20
-9.6938290597459122
 11
2.178791569993483
 21
-9.5272723150990899
  0
LINE
  8
_0-1_ADD_LINE
  6
CONTINUOUS
 62
    7
 10
2.178791569993483
 20
-9.5272723150990899
 11
1.9900272593937531
 21
-9.2607815236641784
  0
LINE
  8
_0-1_ADD_LINE
  6
CONTINUOUS
 62
    7
 10
1.9900272593937531
 20
-9.2607815236641784
 11
1.901196995582116
 21
-8.9387718173469892
  0
LINE
  8
_0-1_ADD_LINE
  6
CONTINUOUS
 62
    7
 10
1.901196995582116
 20
-8.9387718173469892
 11
1.9678196934408421
 21
-8.6389696769827111
  0
LINE
  8
_0-1_ADD_LINE
  6
CONTINUOUS
 62
    7
 10
1.9678196934408421
 20
-8.6389696769827111
 11
2.223206701899298
 21
-8.4391015834065257
  0
LINE
  8
_0-1_ADD_LINE
  6
CONTINUOUS
 62
    7
 10
2.223206701899298
 20
-8.4391015834065257
 11
2.5119050592871277
 21
-8.3946864515007071
  0
LINE
  8
_0-1_ADD_LINE
  6
CONTINUOUS
 62
    7
 10
2.5230088422635761
 20
-8.6056583280533481
 11
2.5674239741693983
 21
-8.827733987582441
  0
LINE
  8
_0-1_ADD_LINE
  6
CONTINUOUS
 62
    7
 10
2.5674239741693983
 20
-8.827733987582441
 11
2.9782639442982246
 21
-9.0276020811586264
  0
LINE
  8
_0-1_ADD_LINE
  6
CONTINUOUS
 62
    7
 10
2.9782639442982246
 20
-9.0276020811586264
 11
3.3446887825212288
 21
-9.0831209960409005
  0
LINE
  8
_0-1_ADD_LINE
  6
CONTINUOUS
 62
    7
 10
3.3446887825212288
 20
-9.0831209960409005
 11
3.5778682250267808
 21
-8.9942907322292633
  0
LINE
  8
_0-1_ADD_LINE
  6
CONTINUOUS
 62
    7
 10
3.5778682250267808
 20
-8.9942907322292633
 11
3.688906054791329
 21
-8.9054604684176262
  0
LINE
  8
_0-1_ADD_LINE
  6
CONTINUOUS
 62
    7
 10
3.688906054791329
 20
-8.9054604684176262
 11
3.8221514505087812
 21
-8.6389696769827111
  0
LINE
  8
_0-1_ADD_LINE
  6
CONTINUOUS
 62
    7
 10
3.8221514505087812
 20
-8.6389696769827111
 11
3.688906054791329
 21
-8.4613091493594368
  0
LINE
  8
_0-1_ADD_LINE
  6
CONTINUOUS
 62
    7
 10
5.1692253886023538
 20
-6.741253853571048
 11
5.5989417897911489
 21
-6.6812934254981924
  0
LINE
  8
_0-1_ADD_LINE
  6
CONTINUOUS
 62
    7
 10
5.5989417897911489
 20
-6.6812934254981924
 11
6.1285922377680402
 21
-6.7212670442134295
  0
LINE
  8
_0-1_ADD_LINE
  6
CONTINUOUS
 62
    7
 10
6.1285922377680402
 20
-6.7212670442134295
 11
6.5782954483144573
 21
-6.9111417331108056
  0
LINE
  8
_0-1_ADD_LINE
  6
CONTINUOUS
 62
    7
 10
6.5782954483144573
 20
-6.9111417331108056
 11
6.8880909933575447
 21
-7.2409240875115115
  0
LINE
  8
_0-1_ADD_LINE
  6
CONTINUOUS
 62
    7
 10
6.8880909933575447
 20
-7.2409240875115115
 11
6.8581107793211169
 21
-7.630666869985073
  0
LINE
  8
_0-1_ADD_LINE
  6
CONTINUOUS
 62
    7
 10
6.8581107793211169
 20
-7.630666869985073
 11
6.6082756623508851
 21
-7.9704426290645882
  0
LINE
  8
_0-1_ADD_LINE
  6
CONTINUOUS
 62
    7
 10
6.6082756623508851
 20
-7.9704426290645882
 11
5.8587703114401899
 21
-8.0803700805314911
  0
LINE
  8
_0-1_ADD_LINE
  6
CONTINUOUS
 62
    7
 10
5.8587703114401899
 20
-8.0803700805314911
 11
5.1092649605294982
 21
-7.9104822009917326
  0
LINE
  8
_0-1_ADD_LINE
  6
CONTINUOUS
 62
    7
 10
5.1092649605294982
 20
-7.9104822009917326
 11
4.8694232482380757
 21
-7.7605811308095936
  0
LINE
  8
_0-1_ADD_LINE
  6
CONTINUOUS
 62
    7
 10
4.8694232482380757
 20
-7.7605811308095936
 11
4.6995353686983181
 21
-7.5207394185181711
  0
LINE
  8
_0-1_ADD_LINE
  6
CONTINUOUS
 62
    7
 10
4.6995353686983181
 20
-7.5207394185181711
 11
4.619588131267844
 21
-7.2309306828327022
  0
LINE
  8
_0-1_ADD_LINE
  6
CONTINUOUS
 62
    7
 10
4.619588131267844
 20
-7.2309306828327022
 11
4.6795485593406996
 21
-6.9611087565048519
  0
LINE
  8
_0-1_ADD_LINE
  6
CONTINUOUS
 62
    7
 10
4.6795485593406996
 20
-6.9611087565048519
 11
4.9093968669533128
 21
-6.7812274722862851
  0
LINE
  8
_0-1_ADD_LINE
  6
CONTINUOUS
 62
    7
 10
4.9093968669533128
 20
-6.7812274722862851
 11
5.1692253886023538
 21
-6.741253853571048
  0
LINE
  8
_0-1_ADD_LINE
  6
CONTINUOUS
 62
    7
 10
5.1792187932811631
 20
-6.9311285424684241
 11
5.2191924119964002
 21
-7.1309966360446095
  0
LINE
  8
_0-1_ADD_LINE
  6
CONTINUOUS
 62
    7
 10
5.2191924119964002
 20
-7.1309966360446095
 11
5.5889483851123396
 21
-7.3108779202631764
  0
LINE
  8
_0-1_ADD_LINE
  6
CONTINUOUS
 62
    7
 10
5.5889483851123396
 20
-7.3108779202631764
 11
5.9187307395130455
 21
-7.3608449436572227
  0
LINE
  8
_0-1_ADD_LINE
  6
CONTINUOUS
 62
    7
 10
5.9187307395130455
 20
-7.3608449436572227
 11
6.1285922377680402
 21
-7.2808977062267486
  0
LINE
  8
_0-1_ADD_LINE
  6
CONTINUOUS
 62
    7
 10
6.1285922377680402
 20
-7.2808977062267486
 11
6.2285262845561329
 21
-7.2009504687962744
  0
LINE
  8
_0-1_ADD_LINE
  6
CONTINUOUS
 62
    7
 10
6.2285262845561329
 20
-7.2009504687962744
 11
6.3484471407018441
 21
-6.9611087565048519
  0
LINE
  8
_0-1_ADD_LINE
  6
CONTINUOUS
 62
    7
 10
6.3484471407018441
 20
-6.9611087565048519
 11
6.2285262845561329
 21
-6.8012142816439036
  0
LINE
  8
_0-1_ADD_LINE
  6
CONTINUOUS
 62
    7
 10
7.5565387285401231
 20
-6.3970365813009513
 11
7.9862551297289217
 21
-6.3370761532280957
  0
LINE
  8
_0-1_ADD_LINE
  6
CONTINUOUS
 62
    7
 10
7.9862551297289217
 20
-6.3370761532280957
 11
8.5159055777058121
 21
-6.3770497719433328
  0
LINE
  8
_0-1_ADD_LINE
  6
CONTINUOUS
 62
    7
 10
8.5159055777058121
 20
-6.3770497719433328
 11
8.9656087882522293
 21
-6.5669244608407089
  0
LINE
  8
_0-1_ADD_LINE
  6
CONTINUOUS
 62
    7
 10
8.9656087882522293
 20
-6.5669244608407089
 11
9.2754043332953167
 21
-6.8967068152414148
  0
LINE
  8
_0-1_ADD_LINE
  6
CONTINUOUS
 62
    7
 10
9.2754043332953167
 20
-6.8967068152414148
 11
9.2454241192588889
 21
-7.2864495977149764
  0
LINE
  8
_0-1_ADD_LINE
  6
CONTINUOUS
 62
    7
 10
9.2454241192588889
 20
-7.2864495977149764
 11
8.9955890022886571
 21
-7.6262253567944915
  0
LINE
  8
_0-1_ADD_LINE
  6
CONTINUOUS
 62
    7
 10
8.9955890022886571
 20
-7.6262253567944915
 11
8.2460836513779618
 21
-7.7361528082613935
  0
LINE
  8
_0-1_ADD_LINE
  6
CONTINUOUS
 62
    7
 10
8.2460836513779618
 20
-7.7361528082613935
 11
7.4965783004672675
 21
-7.5662649287216359
  0
LINE
  8
_0-1_ADD_LINE
  6
CONTINUOUS
 62
    7
 10
7.4965783004672675
 20
-7.5662649287216359
 11
7.256736588175845
 21
-7.4163638585394969
  0
LINE
  8
_0-1_ADD_LINE
  6
CONTINUOUS
 62
    7
 10
7.256736588175845
 20
-7.4163638585394969
 11
7.0868487086360874
 21
-7.1765221462480744
  0
LINE
  8
_0-1_ADD_LINE
  6
CONTINUOUS
 62
    7
 10
7.0868487086360874
 20
-7.1765221462480744
 11
7.0069014712056132
 21
-6.8867134105626056
  0
LINE
  8
_0-1_ADD_LINE
  6
CONTINUOUS
 62
    7
 10
7.0069014712056132
 20
-6.8867134105626056
 11
7.0668618992784689
 21
-6.6168914842347553
  0
LINE
  8
_0-1_ADD_LINE
  6
CONTINUOUS
 62
    7
 10
7.0668618992784689
 20
-6.6168914842347553
 11
7.2967102068910821
 21
-6.4370102000161884
  0
LINE
  8
_0-1_ADD_LINE
  6
CONTINUOUS
 62
    7
 10
7.2967102068910821
 20
-6.4370102000161884
 11
7.5565387285401231
 21
-6.3970365813009513
  0
LINE
  8
_0-1_ADD_LINE
  6
CONTINUOUS
 62
    7
 10
7.5665321332189324
 20
-6.5869112701983275
 11
7.6065057519341694
 21
-6.7867793637745129
  0
LINE
  8
_0-1_ADD_LINE
  6
CONTINUOUS
 62
    7
 10
7.6065057519341694
 20
-6.7867793637745129
 11
7.9762617250501124
 21
-6.9666606479930797
  0
LINE
  8
_0-1_ADD_LINE
  6
CONTINUOUS
 62
    7
 10
7.9762617250501124
 20
-6.9666606479930797
 11
8.3060440794508175
 21
-7.0166276713871261
  0
LINE
  8
_0-1_ADD_LINE
  6
CONTINUOUS
 62
    7
 10
8.3060440794508175
 20
-7.0166276713871261
 11
8.5159055777058121
 21
-6.9366804339566519
  0
LINE
  8
_0-1_ADD_LINE
  6
CONTINUOUS
 62
    7
 10
8.5159055777058121
 20
-6.9366804339566519
 11
8.6158396244939048
 21
-6.8567331965261777
  0
LINE
  8
_0-1_ADD_LINE
  6
CONTINUOUS
 62
    7
 10
8.6158396244939048
 20
-6.8567331965261777
 11
8.7357604806396161
 21
-6.6168914842347553
  0
LINE
  8
_0-1_ADD_LINE
  6
CONTINUOUS
 62
    7
 10
8.7357604806396161
 20
-6.6168914842347553
 11
8.6158396244939048
 21
-6.4569970093738069
  0
LINE
  8
_0-1_ADD_LINE
  6
CONTINUOUS
 62
    7
 10
5.1248102566965317
 20
-8.1292267256278912
 11
5.5545266578853303
 21
-8.0692662975550355
  0
LINE
  8
_0-1_ADD_LINE
  6
CONTINUOUS
 62
    7
 10
5.5545266578853303
 20
-8.0692662975550355
 11
6.0841771058622216
 21
-8.1092399162702726
  0
LINE
  8
_0-1_ADD_LINE
  6
CONTINUOUS
 62
    7
 10
6.0841771058622216
 20
-8.1092399162702726
 11
6.5338803164086388
 21
-8.2991146051676488
  0
LINE
  8
_0-1_ADD_LINE
  6
CONTINUOUS
 62
    7
 10
6.5338803164086388
 20
-8.2991146051676488
 11
6.8436758614517261
 21
-8.6288969595683547
  0
LINE
  8
_0-1_ADD_LINE
  6
CONTINUOUS
 62
    7
 10
6.8436758614517261
 20
-8.6288969595683547
 11
6.8136956474152983
 21
-9.0186397420419162
  0
LINE
  8
_0-1_ADD_LINE
  6
CONTINUOUS
 62
    7
 10
6.8136956474152983
 20
-9.0186397420419162
 11
6.5638605304450666
 21
-9.3584155011214314
  0
LINE
  8
_0-1_ADD_LINE
  6
CONTINUOUS
 62
    7
 10
6.5638605304450666
 20
-9.3584155011214314
 11
5.8143551795343713
 21
-9.4683429525883334
  0
LINE
  8
_0-1_ADD_LINE
  6
CONTINUOUS
 62
    7
 10
5.8143551795343713
 20
-9.4683429525883334
 11
5.0648498286236761
 21
-9.2984550730485758
  0
LINE
  8
_0-1_ADD_LINE
  6
CONTINUOUS
 62
    7
 10
5.0648498286236761
 20
-9.2984550730485758
 11
4.8250081163322536
 21
-9.1485540028664367
  0
LINE
  8
_0-1_ADD_LINE
  6
CONTINUOUS
 62
    7
 10
4.8250081163322536
 20
-9.1485540028664367
 11
4.655120236792496
 21
-8.9087122905750142
  0
LINE
  8
_0-1_ADD_LINE
  6
CONTINUOUS
 62
    7
 10
4.655120236792496
 20
-8.9087122905750142
 11
4.5751729993620218
 21
-8.6189035548895454
  0
LINE
  8
_0-1_ADD_LINE
  6
CONTINUOUS
 62
    7
 10
4.5751729993620218
 20
-8.6189035548895454
 11
4.6351334274348774
 21
-8.3490816285616951
  0
LINE
  8
_0-1_ADD_LINE
  6
CONTINUOUS
 62
    7
 10
4.6351334274348774
 20
-8.3490816285616951
 11
4.8649817350474907
 21
-8.1692003443431283
  0
LINE
  8
_0-1_ADD_LINE
  6
CONTINUOUS
 62
    7
 10
4.8649817350474907
 20
-8.1692003443431283
 11
5.1248102566965317
 21
-8.1292267256278912
  0
LINE
  8
_0-1_ADD_LINE
  6
CONTINUOUS
 62
    7
 10
5.1348036613753409
 20
-8.3191014145252673
 11
5.174777280090578
 21
-8.5189695081014527
  0
LINE
  8
_0-1_ADD_LINE
  6
CONTINUOUS
 62
    7
 10
5.174777280090578
 20
-8.5189695081014527
 11
5.544533253206521
 21
-8.6988507923200196
  0
LINE
  8
_0-1_ADD_LINE
  6
CONTINUOUS
 62
    7
 10
5.544533253206521
 20
-8.6988507923200196
 11
5.8743156076072269
 21
-8.7488178157140659
  0
LINE
  8
_0-1_ADD_LINE
  6
CONTINUOUS
 62
    7
 10
5.8743156076072269
 20
-8.7488178157140659
 11
6.0841771058622216
 21
-8.6688705782835918
  0
LINE
  8
_0-1_ADD_LINE
  6
CONTINUOUS
 62
    7
 10
6.0841771058622216
 20
-8.6688705782835918
 11
6.1841111526503143
 21
-8.5889233408531176
  0
LINE
  8
_0-1_ADD_LINE
  6
CONTINUOUS
 62
    7
 10
6.1841111526503143
 20
-8.5889233408531176
 11
6.3040320087960255
 21
-8.3490816285616951
  0
LINE
  8
_0-1_ADD_LINE
  6
CONTINUOUS
 62
    7
 10
6.3040320087960255
 20
-8.3490816285616951
 11
6.1841111526503143
 21
-8.1891871537007468
  0
LINE
  8
_0-1_ADD_LINE
  6
CONTINUOUS
 62
    7
 10
5.0026686439555279
 20
-9.6060298614963742
 11
5.4323850451443265
 21
-9.5460694334235185
  0
LINE
  8
_0-1_ADD_LINE
  6
CONTINUOUS
 62
    7
 10
5.4323850451443265
 20
-9.5460694334235185
 11
5.9620354931212178
 21
-9.5860430521387556
  0
LINE
  8
_0-1_ADD_LINE
  6
CONTINUOUS
 62
    7
 10
5.9620354931212178
 20
-9.5860430521387556
 11
6.411738703667635
 21
-9.7759177410361318
  0
LINE
  8
_0-1_ADD_LINE
  6
CONTINUOUS
 62
    7
 10
6.411738703667635
 20
-9.7759177410361318
 11
6.7215342487107224
 21
-10.105700095436838
  0
LINE
  8
_0-1_ADD_LINE
  6
CONTINUOUS
 62
    7
 10
6.7215342487107224
 20
-10.105700095436838
 11
6.6915540346742945
 21
-10.495442877910399
  0
LINE
  8
_0-1_ADD_LINE
  6
CONTINUOUS
 62
    7
 10
6.6915540346742945
 20
-10.495442877910399
 11
6.4417189177040628
 21
-10.835218636989914
  0
LINE
  8
_0-1_ADD_LINE
  6
CONTINUOUS
 62
    7
 10
6.4417189177040628
 20
-10.835218636989914
 11
5.6922135667933675
 21
-10.945146088456816
  0
LINE
  8
_0-1_ADD_LINE
  6
CONTINUOUS
 62
    7
 10
5.6922135667933675
 20
-10.945146088456816
 11
4.9427082158826723
 21
-10.775258208917059
  0
LINE
  8
_0-1_ADD_LINE
  6
CONTINUOUS
 62
    7
 10
4.9427082158826723
 20
-10.775258208917059
 11
4.7028665035912498
 21
-10.62535713873492
  0
LINE
  8
_0-1_ADD_LINE
  6
CONTINUOUS
 62
    7
 10
4.7028665035912498
 20
-10.62535713873492
 11
4.5329786240514922
 21
-10.385515426443497
  0
LINE
  8
_0-1_ADD_LINE
  6
CONTINUOUS
 62
    7
 10
4.5329786240514922
 20
-10.385515426443497
 11
4.4530313866210181
 21
-10.095706690758028
  0
LINE
  8
_0-1_ADD_LINE
  6
CONTINUOUS
 62
    7
 10
4.4530313866210181
 20
-10.095706690758028
 11
4.5129918146938737
 21
-9.8258847644301781
  0
LINE
  8
_0-1_ADD_LINE
  6
CONTINUOUS
 62
    7
 10
4.5129918146938737
 20
-9.8258847644301781
 11
4.7428401223064869
 21
-9.6460034802116112
  0
LINE
  8
_0-1_ADD_LINE
  6
CONTINUOUS
 62
    7
 10
4.7428401223064869
 20
-9.6460034802116112
 11
5.0026686439555279
 21
-9.6060298614963742
  0
LINE
  8
_0-1_ADD_LINE
  6
CONTINUOUS
 62
    7
 10
5.0126620486343372
 20
-9.7959045503937503
 11
5.0526356673495743
 21
-9.9957726439699357
  0
LINE
  8
_0-1_ADD_LINE
  6
CONTINUOUS
 62
    7
 10
5.0526356673495743
 20
-9.9957726439699357
 11
5.4223916404655172
 21
-10.175653928188503
  0
LINE
  8
_0-1_ADD_LINE
  6
CONTINUOUS
 62
    7
 10
5.4223916404655172
 20
-10.175653928188503
 11
5.7521739948662232
 21
-10.225620951582549
  0
LINE
  8
_0-1_ADD_LINE
  6
CONTINUOUS
 62
    7
 10
5.7521739948662232
 20
-10.225620951582549
 11
5.9620354931212178
 21
-10.145673714152075
  0
LINE
  8
_0-1_ADD_LINE
  6
CONTINUOUS
 62
    7
 10
5.9620354931212178
 20
-10.145673714152075
 11
6.0619695399093105
 21
-10.065726476721601
  0
LINE
  8
_0-1_ADD_LINE
  6
CONTINUOUS
 62
    7
 10
6.0619695399093105
 20
-10.065726476721601
 11
6.1818903960550218
 21
-9.8258847644301781
  0
LINE
  8
_0-1_ADD_LINE
  6
CONTINUOUS
 62
    7
 10
6.1818903960550218
 20
-9.8258847644301781
 11
6.0619695399093105
 21
-9.6659902895692298
  0
LINE
  8
_0-1_ADD_LINE
  6
CONTINUOUS
 62
    7
 10
7.5711587094591239
 20
-7.7971443018963482
 11
7.9531288438491616
 21
-7.7438461436093631
  0
LINE
  8
_0-1_ADD_LINE
  6
CONTINUOUS
 62
    7
 10
7.9531288438491616
 20
-7.7438461436093631
 11
8.4239292420508427
 21
-7.7793782491340187
  0
LINE
  8
_0-1_ADD_LINE
  6
CONTINUOUS
 62
    7
 10
8.4239292420508427
 20
-7.7793782491340187
 11
8.8236654292032135
 21
-7.9481557503761335
  0
LINE
  8
_0-1_ADD_LINE
  6
CONTINUOUS
 62
    7
 10
8.8236654292032135
 20
-7.9481557503761335
 11
9.099039247019288
 21
-8.2412956209545385
  0
LINE
  8
_0-1_ADD_LINE
  6
CONTINUOUS
 62
    7
 10
9.099039247019288
 20
-8.2412956209545385
 11
9.072390167875799
 21
-8.5877336498199277
  0
LINE
  8
_0-1_ADD_LINE
  6
CONTINUOUS
 62
    7
 10
9.072390167875799
 20
-8.5877336498199277
 11
8.8503145083467096
 21
-8.8897565467794983
  0
LINE
  8
_0-1_ADD_LINE
  6
CONTINUOUS
 62
    7
 10
8.8503145083467096
 20
-8.8897565467794983
 11
8.1840875297594202
 21
-8.9874698369722985
  0
LINE
  8
_0-1_ADD_LINE
  6
CONTINUOUS
 62
    7
 10
8.1840875297594202
 20
-8.9874698369722985
 11
7.5178605511721317
 21
-8.8364583884925132
  0
LINE
  8
_0-1_ADD_LINE
  6
CONTINUOUS
 62
    7
 10
7.5178605511721317
 20
-8.8364583884925132
 11
7.3046679180242053
 21
-8.7032129927750539
  0
LINE
  8
_0-1_ADD_LINE
  6
CONTINUOUS
 62
    7
 10
7.3046679180242053
 20
-8.7032129927750539
 11
7.15365646954442
 21
-8.4900203596271275
  0
LINE
  8
_0-1_ADD_LINE
  6
CONTINUOUS
 62
    7
 10
7.15365646954442
 20
-8.4900203596271275
 11
7.0825922584951089
 21
-8.2324125945733755
  0
LINE
  8
_0-1_ADD_LINE
  6
CONTINUOUS
 62
    7
 10
7.0825922584951089
 20
-8.2324125945733755
 11
7.135890416782094
 21
-7.9925708822819521
  0
LINE
  8
_0-1_ADD_LINE
  6
CONTINUOUS
 62
    7
 10
7.135890416782094
 20
-7.9925708822819521
 11
7.3402000235488574
 21
-7.8326764074210038
  0
LINE
  8
_0-1_ADD_LINE
  6
CONTINUOUS
 62
    7
 10
7.3402000235488574
 20
-7.8326764074210038
 11
7.5711587094591239
 21
-7.7971443018963482
  0
LINE
  8
_0-1_ADD_LINE
  6
CONTINUOUS
 62
    7
 10
7.5800417358402798
 20
-7.9659218031384595
 11
7.615573841364939
 21
-8.1435823307617348
  0
LINE
  8
_0-1_ADD_LINE
  6
CONTINUOUS
 62
    7
 10
7.615573841364939
 20
-8.1435823307617348
 11
7.9442458174679986
 21
-8.3034768056226831
  0
LINE
  8
_0-1_ADD_LINE
  6
CONTINUOUS
 62
    7
 10
7.9442458174679986
 20
-8.3034768056226831
 11
8.2373856880463983
 21
-8.3478919375285052
  0
LINE
  8
_0-1_ADD_LINE
  6
CONTINUOUS
 62
    7
 10
8.2373856880463983
 20
-8.3478919375285052
 11
8.4239292420508427
 21
-8.2768277264791941
  0
LINE
  8
_0-1_ADD_LINE
  6
CONTINUOUS
 62
    7
 10
8.4239292420508427
 20
-8.2768277264791941
 11
8.5127595058624799
 21
-8.2057635154298829
  0
LINE
  8
_0-1_ADD_LINE
  6
CONTINUOUS
 62
    7
 10
8.5127595058624799
 20
-8.2057635154298829
 11
8.619355822436443
 21
-7.9925708822819521
  0
LINE
  8
_0-1_ADD_LINE
  6
CONTINUOUS
 62
    7
 10
8.619355822436443
 20
-7.9925708822819521
 11
8.5127595058624799
 21
-7.8504424601833334
  0
LINE
  8
_0-1_ADD_LINE
  6
CONTINUOUS
 62
    7
 10
9.9771634174072581
 20
-7.5185186619228785
 11
10.406879818596057
 21
-7.4585582338500229
  0
LINE
  8
_0-1_ADD_LINE
  6
CONTINUOUS
 62
    7
 10
10.406879818596057
 20
-7.4585582338500229
 11
10.936530266572948
 21
-7.49853185256526
  0
LINE
  8
_0-1_ADD_LINE
  6
CONTINUOUS
 62
    7
 10
10.936530266572948
 20
-7.49853185256526
 11
11.386233477119365
 21
-7.6884065414626361
  0
LINE
  8
_0-1_ADD_LINE
  6
CONTINUOUS
 62
    7
 10
11.386233477119365
 20
-7.6884065414626361
 11
11.696029022162453
 21
-8.0181888958633429
  0
LINE
  8
_0-1_ADD_LINE
  6
CONTINUOUS
 62
    7
 10
11.696029022162453
 20
-8.0181888958633429
 11
11.666048808126025
 21
-8.4079316783369045
  0
LINE
  8
_0-1_ADD_LINE
  6
CONTINUOUS
 62
    7
 10
11.666048808126025
 20
-8.4079316783369045
 11
11.416213691155793
 21
-8.7477074374164197
  0
LINE
  8
_0-1_ADD_LINE
  6
CONTINUOUS
 62
    7
 10
11.416213691155793
 20
-8.7477074374164197
 11
10.666708340245098
 21
-8.8576348888833216
  0
LINE
  8
_0-1_ADD_LINE
  6
CONTINUOUS
 62
    7
 10
10.666708340245098
 20
-8.8576348888833216
 11
9.9172029893344025
 21
-8.687747009343564
  0
LINE
  8
_0-1_ADD_LINE
  6
CONTINUOUS
 62
    7
 10
9.9172029893344025
 20
-8.687747009343564
 11
9.67736127704298
 21
-8.537845939161425
  0
LINE
  8
_0-1_ADD_LINE
  6
CONTINUOUS
 62
    7
 10
9.67736127704298
 20
-8.537845939161425
 11
9.5074733975032224
 21
-8.2980042268700025
  0
LINE
  8
_0-1_ADD_LINE
  6
CONTINUOUS
 62
    7
 10
9.5074733975032224
 20
-8.2980042268700025
 11
9.4275261600727482
 21
-8.0081954911845337
  0
LINE
  8
_0-1_ADD_LINE
  6
CONTINUOUS
 62
    7
 10
9.4275261600727482
 20
-8.0081954911845337
 11
9.4874865881456039
 21
-7.7383735648566825
  0
LINE
  8
_0-1_ADD_LINE
  6
CONTINUOUS
 62
    7
 10
9.4874865881456039
 20
-7.7383735648566825
 11
9.7173348957582171
 21
-7.5584922806381156
  0
LINE
  8
_0-1_ADD_LINE
  6
CONTINUOUS
 62
    7
 10
9.7173348957582171
 20
-7.5584922806381156
 11
9.9771634174072581
 21
-7.5185186619228785
  0
LINE
  8
_0-1_ADD_LINE
  6
CONTINUOUS
 62
    7
 10
9.9871568220860674
 20
-7.7083933508202547
 11
10.027130440801304
 21
-7.9082614443964401
  0
LINE
  8
_0-1_ADD_LINE
  6
CONTINUOUS
 62
    7
 10
10.027130440801304
 20
-7.9082614443964401
 11
10.396886413917247
 21
-8.0881427286150078
  0
LINE
  8
_0-1_ADD_LINE
  6
CONTINUOUS
 62
    7
 10
10.396886413917247
 20
-8.0881427286150078
 11
10.726668768317953
 21
-8.1381097520090542
  0
LINE
  8
_0-1_ADD_LINE
  6
CONTINUOUS
 62
    7
 10
10.726668768317953
 20
-8.1381097520090542
 11
10.936530266572948
 21
-8.05816251457858
  0
LINE
  8
_0-1_ADD_LINE
  6
CONTINUOUS
 62
    7
 10
10.936530266572948
 20
-8.05816251457858
 11
11.036464313361041
 21
-7.978215277148105
  0
LINE
  8
_0-1_ADD_LINE
  6
CONTINUOUS
 62
    7
 10
11.036464313361041
 20
-7.978215277148105
 11
11.156385169506752
 21
-7.7383735648566825
  0
LINE
  8
_0-1_ADD_LINE
  6
CONTINUOUS
 62
    7
 10
11.156385169506752
 20
-7.7383735648566825
 11
11.036464313361041
 21
-7.5784790899957342
  0
LINE
  8
_0-1_ADD_LINE
  6
CONTINUOUS
 62
    7
 10
10.05488989824244
 20
-8.8731801850503587
 11
10.484606299431238
 21
-8.813219756977503
  0
LINE
  8
_0-1_ADD_LINE
  6
CONTINUOUS
 62
    7
 10
10.484606299431238
 20
-8.813219756977503
 11
11.01425674740813
 21
-8.8531933756927401
  0
LINE
  8
_0-1_ADD_LINE
  6
CONTINUOUS
 62
    7
 10
11.01425674740813
 20
-8.8531933756927401
 11
11.463959957954547
 21
-9.0430680645901163
  0
LINE
  8
_0-1_ADD_LINE
  6
CONTINUOUS
 62
    7
 10
11.463959957954547
 20
-9.0430680645901163
 11
11.773755502997634
 21
-9.3728504189908222
  0
LINE
  8
_0-1_ADD_LINE
  6
CONTINUOUS
 62
    7
 10
11.773755502997634
 20
-9.3728504189908222
 11
11.743775288961206
 21
-9.7625932014643837
  0
LINE
  8
_0-1_ADD_LINE
  6
CONTINUOUS
 62
    7
 10
11.743775288961206
 20
-9.7625932014643837
 11
11.493940171990975
 21
-10.102368960543899
  0
LINE
  8
_0-1_ADD_LINE
  6
CONTINUOUS
 62
    7
 10
11.493940171990975
 20
-10.102368960543899
 11
10.744434821080279
 21
-10.212296412010801
  0
LINE
  8
_0-1_ADD_LINE
  6
CONTINUOUS
 62
    7
 10
10.744434821080279
 20
-10.212296412010801
 11
9.9949294701695841
 21
-10.042408532471043
  0
LINE
  8
_0-1_ADD_LINE
  6
CONTINUOUS
 62
    7
 10
9.9949294701695841
 20
-10.042408532471043
 11
9.7550877578781616
 21
-9.8925074622889042
  0
LINE
  8
_0-1_ADD_LINE
  6
CONTINUOUS
 62
    7
 10
9.7550877578781616
 20
-9.8925074622889042
 11
9.585199878338404
 21
-9.6526657499974817
  0
LINE
  8
_0-1_ADD_LINE
  6
CONTINUOUS
 62
    7
 10
9.585199878338404
 20
-9.6526657499974817
 11
9.5052526409079299
 21
-9.3628570143120129
  0
LINE
  8
_0-1_ADD_LINE
  6
CONTINUOUS
 62
    7
 10
9.5052526409079299
 20
-9.3628570143120129
 11
9.5652130689807855
 21
-9.0930350879841626
  0
LINE
  8
_0-1_ADD_LINE
  6
CONTINUOUS
 62
    7
 10
9.5652130689807855
 20
-9.0930350879841626
 11
9.7950613765933987
 21
-8.9131538037655957
  0
LINE
  8
_0-1_ADD_LINE
  6
CONTINUOUS
 62
    7
 10
9.7950613765933987
 20
-8.9131538037655957
 11
10.05488989824244
 21
-8.8731801850503587
  0
LINE
  8
_0-1_ADD_LINE
  6
CONTINUOUS
 62
    7
 10
10.064883302921249
 20
-9.0630548739477348
 11
10.104856921636486
 21
-9.2629229675239202
  0
LINE
  8
_0-1_ADD_LINE
  6
CONTINUOUS
 62
    7
 10
10.104856921636486
 20
-9.2629229675239202
 11
10.474612894752429
 21
-9.4428042517424871
  0
LINE
  8
_0-1_ADD_LINE
  6
CONTINUOUS
 62
    7
 10
10.474612894752429
 20
-9.4428042517424871
 11
10.804395249153135
 21
-9.4927712751365334
  0
LINE
  8
_0-1_ADD_LINE
  6
CONTINUOUS
 62
    7
 10
10.804395249153135
 20
-9.4927712751365334
 11
11.01425674740813
 21
-9.4128240377060592
  0
LINE
  8
_0-1_ADD_LINE
  6
CONTINUOUS
 62
    7
 10
11.01425674740813
 20
-9.4128240377060592
 11
11.114190794196222
 21
-9.3328768002755851
  0
LINE
  8
_0-1_ADD_LINE
  6
CONTINUOUS
 62
    7
 10
11.114190794196222
 20
-9.3328768002755851
 11
11.234111650341934
 21
-9.0930350879841626
  0
LINE
  8
_0-1_ADD_LINE
  6
CONTINUOUS
 62
    7
 10
11.234111650341934
 20
-9.0930350879841626
 11
11.114190794196222
 21
-8.9331406131232143
  0
LINE
  8
_0-1_ADD_LINE
  6
CONTINUOUS
 62
    7
 10
7.4010857668697563
 20
-9.1618785424381848
 11
7.8308021680585549
 21
-9.1019181143653292
  0
LINE
  8
_0-1_ADD_LINE
  6
CONTINUOUS
 62
    7
 10
7.8308021680585549
 20
-9.1019181143653292
 11
8.3604526160354453
 21
-9.1418917330805662
  0
LINE
  8
_0-1_ADD_LINE
  6
CONTINUOUS
 62
    7
 10
8.3604526160354453
 20
-9.1418917330805662
 11
8.8101558265818625
 21
-9.3317664219779424
  0
LINE
  8
_0-1_ADD_LINE
  6
CONTINUOUS
 62
    7
 10
8.8101558265818625
 20
-9.3317664219779424
 11
9.1199513716249498
 21
-9.6615487763786483
  0
LINE
  8
_0-1_ADD_LINE
  6
CONTINUOUS
 62
    7
 10
9.1199513716249498
 20
-9.6615487763786483
 11
9.089971157588522
 21
-10.05129155885221
  0
LINE
  8
_0-1_ADD_LINE
  6
CONTINUOUS
 62
    7
 10
9.089971157588522
 20
-10.05129155885221
 11
8.8401360406182903
 21
-10.391067317931725
  0
LINE
  8
_0-1_ADD_LINE
  6
CONTINUOUS
 62
    7
 10
8.8401360406182903
 20
-10.391067317931725
 11
8.090630689707595
 21
-10.500994769398627
  0
LINE
  8
_0-1_ADD_LINE
  6
CONTINUOUS
 62
    7
 10
8.090630689707595
 20
-10.500994769398627
 11
7.3411253387969007
 21
-10.331106889858869
  0
LINE
  8
_0-1_ADD_LINE
  6
CONTINUOUS
 62
    7
 10
7.3411253387969007
 20
-10.331106889858869
 11
7.1012836265054782
 21
-10.18120581967673
  0
LINE
  8
_0-1_ADD_LINE
  6
CONTINUOUS
 62
    7
 10
7.1012836265054782
 20
-10.18120581967673
 11
6.9313957469657206
 21
-9.9413641073853078
  0
LINE
  8
_0-1_ADD_LINE
  6
CONTINUOUS
 62
    7
 10
6.9313957469657206
 20
-9.9413641073853078
 11
6.8514485095352464
 21
-9.651555371699839
  0
LINE
  8
_0-1_ADD_LINE
  6
CONTINUOUS
 62
    7
 10
6.8514485095352464
 20
-9.651555371699839
 11
6.911408937608102
 21
-9.3817334453719887
  0
LINE
  8
_0-1_ADD_LINE
  6
CONTINUOUS
 62
    7
 10
6.911408937608102
 20
-9.3817334453719887
 11
7.1412572452207153
 21
-9.2018521611534219
  0
LINE
  8
_0-1_ADD_LINE
  6
CONTINUOUS
 62
    7
 10
7.1412572452207153
 20
-9.2018521611534219
 11
7.4010857668697563
 21
-9.1618785424381848
  0
LINE
  8
_0-1_ADD_LINE
  6
CONTINUOUS
 62
    7
 10
7.4110791715485655
 20
-9.3517532313355609
 11
7.4510527902638026
 21
-9.5516213249117463
  0
LINE
  8
_0-1_ADD_LINE
  6
CONTINUOUS
 62
    7
 10
7.4510527902638026
 20
-9.5516213249117463
 11
7.8208087633797456
 21
-9.7315026091303132
  0
LINE
  8
_0-1_ADD_LINE
  6
CONTINUOUS
 62
    7
 10
7.8208087633797456
 20
-9.7315026091303132
 11
8.1505911177804506
 21
-9.7814696325243595
  0
LINE
  8
_0-1_ADD_LINE
  6
CONTINUOUS
 62
    7
 10
8.1505911177804506
 20
-9.7814696325243595
 11
8.3604526160354453
 21
-9.7015223950938854
  0
LINE
  8
_0-1_ADD_LINE
  6
CONTINUOUS
 62
    7
 10
8.3604526160354453
 20
-9.7015223950938854
 11
8.460386662823538
 21
-9.6215751576634112
  0
LINE
  8
_0-1_ADD_LINE
  6
CONTINUOUS
 62
    7
 10
8.460386662823538
 20
-9.6215751576634112
 11
8.5803075189692493
 21
-9.3817334453719887
  0
LINE
  8
_0-1_ADD_LINE
  6
CONTINUOUS
 62
    7
 10
8.5803075189692493
 20
-9.3817334453719887
 11
8.460386662823538
 21
-9.2218389705110404
  0
LINE
  8
_0-1_ADD_LINE
  6
CONTINUOUS
 62
    7
 10
7.534331162587212
 20
-10.638681678306664
 11
7.9640475637760106
 21
-10.578721250233809
  0
LINE
  8
_0-1_ADD_LINE
  6
CONTINUOUS
 62
    7
 10
7.9640475637760106
 20
-10.578721250233809
 11
8.4936980117529011
 21
-10.618694868949046
  0
LINE
  8
_0-1_ADD_LINE
  6
CONTINUOUS
 62
    7
 10
8.4936980117529011
 20
-10.618694868949046
 11
8.9434012222993182
 21
-10.808569557846422
  0
LINE
  8
_0-1_ADD_LINE
  6
CONTINUOUS
 62
    7
 10
8.9434012222993182
 20
-10.808569557846422
 11
9.2531967673424056
 21
-11.138351912247128
  0
LINE
  8
_0-1_ADD_LINE
  6
CONTINUOUS
 62
    7
 10
9.2531967673424056
 20
-11.138351912247128
 11
9.2232165533059778
 21
-11.528094694720689
  0
LINE
  8
_0-1_ADD_LINE
  6
CONTINUOUS
 62
    7
 10
9.2232165533059778
 20
-11.528094694720689
 11
8.973381436335746
 21
-11.867870453800204
  0
LINE
  8
_0-1_ADD_LINE
  6
CONTINUOUS
 62
    7
 10
8.973381436335746
 20
-11.867870453800204
 11
8.2238760854250508
 21
-11.977797905267106
  0
LINE
  8
_0-1_ADD_LINE
  6
CONTINUOUS
 62
    7
 10
8.2238760854250508
 20
-11.977797905267106
 11
7.4743707345143564
 21
-11.807910025727349
  0
LINE
  8
_0-1_ADD_LINE
  6
CONTINUOUS
 62
    7
 10
7.4743707345143564
 20
-11.807910025727349
 11
7.2345290222229339
 21
-11.65800895554521
  0
LINE
  8
_0-1_ADD_LINE
  6
CONTINUOUS
 62
    7
 10
7.2345290222229339
 20
-11.65800895554521
 11
7.0646411426831763
 21
-11.418167243253787
  0
LINE
  8
_0-1_ADD_LINE
  6
CONTINUOUS
 62
    7
 10
7.0646411426831763
 20
-11.418167243253787
 11
6.9846939052527022
 21
-11.128358507568318
  0
LINE
  8
_0-1_ADD_LINE
  6
CONTINUOUS
 62
    7
 10
6.9846939052527022
 20
-11.128358507568318
 11
7.0446543333255578
 21
-10.858536581240468
  0
LINE
  8
_0-1_ADD_LINE
  6
CONTINUOUS
 62
    7
 10
7.0446543333255578
 20
-10.858536581240468
 11
7.274502640938171
 21
-10.678655297021901
  0
LINE
  8
_0-1_ADD_LINE
  6
CONTINUOUS
 62
    7
 10
7.274502640938171
 20
-10.678655297021901
 11
7.534331162587212
 21
-10.638681678306664
  0
LINE
  8
_0-1_ADD_LINE
  6
CONTINUOUS
 62
    7
 10
7.5443245672660213
 20
-10.82855636720404
 11
7.5842981859812584
 21
-11.028424460780226
  0
LINE
  8
_0-1_ADD_LINE
  6
CONTINUOUS
 62
    7
 10
7.5842981859812584
 20
-11.028424460780226
 11
7.9540541590972014
 21
-11.208305744998793
  0
LINE
  8
_0-1_ADD_LINE
  6
CONTINUOUS
 62
    7
 10
7.9540541590972014
 20
-11.208305744998793
 11
8.2838365134979064
 21
-11.258272768392839
  0
LINE
  8
_0-1_ADD_LINE
  6
CONTINUOUS
 62
    7
 10
8.2838365134979064
 20
-11.258272768392839
 11
8.4936980117529011
 21
-11.178325530962365
  0
LINE
  8
_0-1_ADD_LINE
  6
CONTINUOUS
 62
    7
 10
8.4936980117529011
 20
-11.178325530962365
 11
8.5936320585409938
 21
-11.098378293531891
  0
LINE
  8
_0-1_ADD_LINE
  6
CONTINUOUS
 62
    7
 10
8.5936320585409938
 20
-11.098378293531891
 11
8.713552914686705
 21
-10.858536581240468
  0
LINE
  8
_0-1_ADD_LINE
  6
CONTINUOUS
 62
    7
 10
8.713552914686705
 20
-10.858536581240468
 11
8.5936320585409938
 21
-10.69864210637952
  0
LINE
  8
_0-1_ADD_LINE
  6
CONTINUOUS
 62
    7
 10
9.8994369365720729
 20
-10.349983320918842
 11
10.329153337760872
 21
-10.290022892845986
  0
LINE
  8
_0-1_ADD_LINE
  6
CONTINUOUS
 62
    7
 10
10.329153337760872
 20
-10.290022892845986
 11
10.858803785737763
 21
-10.329996511561223
  0
LINE
  8
_0-1_ADD_LINE
  6
CONTINUOUS
 62
    7
 10
10.858803785737763
 20
-10.329996511561223
 11
11.30850699628418
 21
-10.519871200458599
  0
LINE
  8
_0-1_ADD_LINE
  6
CONTINUOUS
 62
    7
 10
11.30850699628418
 20
-10.519871200458599
 11
11.618302541327267
 21
-10.849653554859305
  0
LINE
  8
_0-1_ADD_LINE
  6
CONTINUOUS
 62
    7
 10
11.618302541327267
 20
-10.849653554859305
 11
11.58832232729084
 21
-11.239396337332867
  0
LINE
  8
_0-1_ADD_LINE
  6
CONTINUOUS
 62
    7
 10
11.58832232729084
 20
-11.239396337332867
 11
11.338487210320608
 21
-11.579172096412382
  0
LINE
  8
_0-1_ADD_LINE
  6
CONTINUOUS
 62
    7
 10
11.338487210320608
 20
-11.579172096412382
 11
10.588981859409913
 21
-11.689099547879284
  0
LINE
  8
_0-1_ADD_LINE
  6
CONTINUOUS
 62
    7
 10
10.588981859409913
 20
-11.689099547879284
 11
9.8394765084992173
 21
-11.519211668339526
  0
LINE
  8
_0-1_ADD_LINE
  6
CONTINUOUS
 62
    7
 10
9.8394765084992173
 20
-11.519211668339526
 11
9.5996347962077948
 21
-11.369310598157387
  0
LINE
  8
_0-1_ADD_LINE
  6
CONTINUOUS
 62
    7
 10
9.5996347962077948
 20
-11.369310598157387
 11
9.4297469166680372
 21
-11.129468885865965
  0
LINE
  8
_0-1_ADD_LINE
  6
CONTINUOUS
 62
    7
 10
9.4297469166680372
 20
-11.129468885865965
 11
9.3497996792375631
 21
-10.839660150180496
  0
LINE
  8
_0-1_ADD_LINE
  6
CONTINUOUS
 62
    7
 10
9.3497996792375631
 20
-10.839660150180496
 11
9.4097601073104187
 21
-10.569838223852646
  0
LINE
  8
_0-1_ADD_LINE
  6
CONTINUOUS
 62
    7
 10
9.4097601073104187
 20
-10.569838223852646
 11
9.6396084149230319
 21
-10.389956939634079
  0
LINE
  8
_0-1_ADD_LINE
  6
CONTINUOUS
 62
    7
 10
9.6396084149230319
 20
-10.389956939634079
 11
9.8994369365720729
 21
-10.349983320918842
  0
LINE
  8
_0-1_ADD_LINE
  6
CONTINUOUS
 62
    7
 10
9.9094303412508822
 20
-10.539858009816218
 11
9.9494039599661193
 21
-10.739726103392403
  0
LINE
  8
_0-1_ADD_LINE
  6
CONTINUOUS
 62
    7
 10
9.9494039599661193
 20
-10.739726103392403
 11
10.319159933082062
 21
-10.91960738761097
  0
LINE
  8
_0-1_ADD_LINE
  6
CONTINUOUS
 62
    7
 10
10.319159933082062
 20
-10.91960738761097
 11
10.648942287482768
 21
-10.969574411005016
  0
LINE
  8
_0-1_ADD_LINE
  6
CONTINUOUS
 62
    7
 10
10.648942287482768
 20
-10.969574411005016
 11
10.858803785737763
 21
-10.889627173574542
  0
LINE
  8
_0-1_ADD_LINE
  6
CONTINUOUS
 62
    7
 10
10.858803785737763
 20
-10.889627173574542
 11
10.958737832525856
 21
-10.809679936144068
  0
LINE
  8
_0-1_ADD_LINE
  6
CONTINUOUS
 62
    7
 10
10.958737832525856
 20
-10.809679936144068
 11
11.078658688671567
 21
-10.569838223852646
  0
LINE
  8
_0-1_ADD_LINE
  6
CONTINUOUS
 62
    7
 10
11.078658688671567
 20
-10.569838223852646
 11
10.958737832525856
 21
-10.409943748991697
  0
LINE
  8
_0-1_ADD_LINE
  6
CONTINUOUS
 62
    7
 10
9.9105407195485284
 20
-11.737956192975684
 11
10.340257120737327
 21
-11.677995764902828
  0
LINE
  8
_0-1_ADD_LINE
  6
CONTINUOUS
 62
    7
 10
10.340257120737327
 20
-11.677995764902828
 11
10.869907568714218
 21
-11.717969383618065
  0
LINE
  8
_0-1_ADD_LINE
  6
CONTINUOUS
 62
    7
 10
10.869907568714218
 20
-11.717969383618065
 11
11.319610779260636
 21
-11.907844072515442
  0
LINE
  8
_0-1_ADD_LINE
  6
CONTINUOUS
 62
    7
 10
11.319610779260636
 20
-11.907844072515442
 11
11.629406324303723
 21
-12.237626426916147
  0
LINE
  8
_0-1_ADD_LINE
  6
CONTINUOUS
 62
    7
 10
11.629406324303723
 20
-12.237626426916147
 11
11.599426110267295
 21
-12.627369209389709
  0
LINE
  8
_0-1_ADD_LINE
  6
CONTINUOUS
 62
    7
 10
11.599426110267295
 20
-12.627369209389709
 11
11.349590993297063
 21
-12.967144968469224
  0
LINE
  8
_0-1_ADD_LINE
  6
CONTINUOUS
 62
    7
 10
11.349590993297063
 20
-12.967144968469224
 11
10.600085642386368
 21
-13.077072419936126
  0
LINE
  8
_0-1_ADD_LINE
  6
CONTINUOUS
 62
    7
 10
10.600085642386368
 20
-13.077072419936126
 11
9.8505802914756728
 21
-12.907184540396369
  0
LINE
  8
_0-1_ADD_LINE
  6
CONTINUOUS
 62
    7
 10
9.8505802914756728
 20
-12.907184540396369
 11
9.6107385791842503
 21
-12.757283470214229
  0
LINE
  8
_0-1_ADD_LINE
  6
CONTINUOUS
 62
    7
 10
9.6107385791842503
 20
-12.757283470214229
 11
9.4408506996444927
 21
-12.517441757922807
  0
LINE
  8
_0-1_ADD_LINE
  6
CONTINUOUS
 62
    7
 10
9.4408506996444927
 20
-12.517441757922807
 11
9.3609034622140186
 21
-12.227633022237338
  0
LINE
  8
_0-1_ADD_LINE
  6
CONTINUOUS
 62
    7
 10
9.3609034622140186
 20
-12.227633022237338
 11
9.4208638902868742
 21
-11.957811095909488
  0
LINE
  8
_0-1_ADD_LINE
  6
CONTINUOUS
 62
    7
 10
9.4208638902868742
 20
-11.957811095909488
 11
9.6507121978994874
 21
-11.777929811690921
  0
LINE
  8
_0-1_ADD_LINE
  6
CONTINUOUS
 62
    7
 10
9.6507121978994874
 20
-11.777929811690921
 11
9.9105407195485284
 21
-11.737956192975684
  0
LINE
  8
_0-1_ADD_LINE
  6
CONTINUOUS
 62
    7
 10
9.9205341242273377
 20
-11.92783088187306
 11
9.9605077429425748
 21
-12.127698975449245
  0
LINE
  8
_0-1_ADD_LINE
  6
CONTINUOUS
 62
    7
 10
9.9605077429425748
 20
-12.127698975449245
 11
10.330263716058518
 21
-12.307580259667812
  0
LINE
  8
_0-1_ADD_LINE
  6
CONTINUOUS
 62
    7
 10
10.330263716058518
 20
-12.307580259667812
 11
10.660046070459224
 21
-12.357547283061859
  0
LINE
  8
_0-1_ADD_LINE
  6
CONTINUOUS
 62
    7
 10
10.660046070459224
 20
-12.357547283061859
 11
10.869907568714218
 21
-12.277600045631385
  0
LINE
  8
_0-1_ADD_LINE
  6
CONTINUOUS
 62
    7
 10
10.869907568714218
 20
-12.277600045631385
 11
10.969841615502311
 21
-12.19765280820091
  0
LINE
  8
_0-1_ADD_LINE
  6
CONTINUOUS
 62
    7
 10
10.969841615502311
 20
-12.19765280820091
 11
11.089762471648022
 21
-11.957811095909488
  0
LINE
  8
_0-1_ADD_LINE
  6
CONTINUOUS
 62
    7
 10
11.089762471648022
 20
-11.957811095909488
 11
10.969841615502311
 21
-11.79791662104854
  0
LINE
  8
_0-1_ADD_LINE
  6
CONTINUOUS
 62
    7
 10
12.58655241687412
 20
-8.7288310063564474
 11
13.016268818062919
 21
-8.6688705782835918
  0
LINE
  8
_0-1_ADD_LINE
  6
CONTINUOUS
 62
    7
 10
13.016268818062919
 20
-8.6688705782835918
 11
13.54591926603981
 21
-8.7088441969988288
  0
LINE
  8
_0-1_ADD_LINE
  6
CONTINUOUS
 62
    7
 10
13.54591926603981
 20
-8.7088441969988288
 11
13.995622476586227
 21
-8.898718885896205
  0
LINE
  8
_0-1_ADD_LINE
  6
CONTINUOUS
 62
    7
 10
13.995622476586227
 20
-8.898718885896205
 11
14.305418021629315
 21
-9.2285012402969109
  0
LINE
  8
_0-1_ADD_LINE
  6
CONTINUOUS
 62
    7
 10
14.305418021629315
 20
-9.2285012402969109
 11
14.275437807592887
 21
-9.6182440227704724
  0
LINE
  8
_0-1_ADD_LINE
  6
CONTINUOUS
 62
    7
 10
14.275437807592887
 20
-9.6182440227704724
 11
14.025602690622655
 21
-9.9580197818499876
  0
LINE
  8
_0-1_ADD_LINE
  6
CONTINUOUS
 62
    7
 10
14.025602690622655
 20
-9.9580197818499876
 11
13.27609733971196
 21
-10.06794723331689
  0
LINE
  8
_0-1_ADD_LINE
  6
CONTINUOUS
 62
    7
 10
13.27609733971196
 20
-10.06794723331689
 11
12.526591988801265
 21
-9.898059353777132
  0
LINE
  8
_0-1_ADD_LINE
  6
CONTINUOUS
 62
    7
 10
12.526591988801265
 20
-9.898059353777132
 11
12.286750276509842
 21
-9.7481582835949929
  0
LINE
  8
_0-1_ADD_LINE
  6
CONTINUOUS
 62
    7
 10
12.286750276509842
 20
-9.7481582835949929
 11
12.116862396970085
 21
-9.5083165713035704
  0
LINE
  8
_0-1_ADD_LINE
  6
CONTINUOUS
 62
    7
 10
12.116862396970085
 20
-9.5083165713035704
 11
12.03691515953961
 21
-9.2185078356181016
  0
LINE
  8
_0-1_ADD_LINE
  6
CONTINUOUS
 62
    7
 10
12.03691515953961
 20
-9.2185078356181016
 11
12.096875587612466
 21
-8.9486859092902513
  0
LINE
  8
_0-1_ADD_LINE
  6
CONTINUOUS
 62
    7
 10
12.096875587612466
 20
-8.9486859092902513
 11
12.326723895225079
 21
-8.7688046250716845
  0
LINE
  8
_0-1_ADD_LINE
  6
CONTINUOUS
 62
    7
 10
12.326723895225079
 20
-8.7688046250716845
 11
12.58655241687412
 21
-8.7288310063564474
  0
LINE
  8
_0-1_ADD_LINE
  6
CONTINUOUS
 62
    7
 10
12.59654582155293
 20
-8.9187056952538235
 11
12.636519440268167
 21
-9.1185737888300089
  0
LINE
  8
_0-1_ADD_LINE
  6
CONTINUOUS
 62
    7
 10
12.636519440268167
 20
-9.1185737888300089
 11
13.00627541338411
 21
-9.2984550730485758
  0
LINE
  8
_0-1_ADD_LINE
  6
CONTINUOUS
 62
    7
 10
13.00627541338411
 20
-9.2984550730485758
 11
13.336057767784816
 21
-9.3484220964426221
  0
LINE
  8
_0-1_ADD_LINE
  6
CONTINUOUS
 62
    7
 10
13.336057767784816
 20
-9.3484220964426221
 11
13.54591926603981
 21
-9.268474859012148
  0
LINE
  8
_0-1_ADD_LINE
  6
CONTINUOUS
 62
    7
 10
13.54591926603981
 20
-9.268474859012148
 11
13.645853312827903
 21
-9.1885276215816738
  0
LINE
  8
_0-1_ADD_LINE
  6
CONTINUOUS
 62
    7
 10
13.645853312827903
 20
-9.1885276215816738
 11
13.765774168973614
 21
-8.9486859092902513
  0
LINE
  8
_0-1_ADD_LINE
  6
CONTINUOUS
 62
    7
 10
13.765774168973614
 20
-8.9486859092902513
 11
13.645853312827903
 21
-8.788791434429303
  0
LINE
  8
_0-1_ADD_LINE
  6
CONTINUOUS
 62
    7
 10
12.475514587109576
 20
-10.194530359248475
 11
12.905230988298374
 21
-10.134569931175619
  0
LINE
  8
_0-1_ADD_LINE
  6
CONTINUOUS
 62
    7
 10
12.905230988298374
 20
-10.134569931175619
 11
13.434881436275266
 21
-10.174543549890856
  0
LINE
  8
_0-1_ADD_LINE
  6
CONTINUOUS
 62
    7
 10
13.434881436275266
 20
-10.174543549890856
 11
13.884584646821683
 21
-10.364418238788232
  0
LINE
  8
_0-1_ADD_LINE
  6
CONTINUOUS
 62
    7
 10
13.884584646821683
 20
-10.364418238788232
 11
14.19438019186477
 21
-10.694200593188938
  0
LINE
  8
_0-1_ADD_LINE
  6
CONTINUOUS
 62
    7
 10
14.19438019186477
 20
-10.694200593188938
 11
14.164399977828342
 21
-11.0839433756625
  0
LINE
  8
_0-1_ADD_LINE
  6
CONTINUOUS
 62
    7
 10
14.164399977828342
 20
-11.0839433756625
 11
13.914564860858111
 21
-11.423719134742015
  0
LINE
  8
_0-1_ADD_LINE
  6
CONTINUOUS
 62
    7
 10
13.914564860858111
 20
-11.423719134742015
 11
13.165059509947415
 21
-11.533646586208917
  0
LINE
  8
_0-1_ADD_LINE
  6
CONTINUOUS
 62
    7
 10
13.165059509947415
 20
-11.533646586208917
 11
12.41555415903672
 21
-11.363758706669159
  0
LINE
  8
_0-1_ADD_LINE
  6
CONTINUOUS
 62
    7
 10
12.41555415903672
 20
-11.363758706669159
 11
12.175712446745298
 21
-11.21385763648702
  0
LINE
  8
_0-1_ADD_LINE
  6
CONTINUOUS
 62
    7
 10
12.175712446745298
 20
-11.21385763648702
 11
12.00582456720554
 21
-10.974015924195598
  0
LINE
  8
_0-1_ADD_LINE
  6
CONTINUOUS
 62
    7
 10
12.00582456720554
 20
-10.974015924195598
 11
11.925877329775066
 21
-10.684207188510129
  0
LINE
  8
_0-1_ADD_LINE
  6
CONTINUOUS
 62
    7
 10
11.925877329775066
 20
-10.684207188510129
 11
11.985837757847921
 21
-10.414385262182279
  0
LINE
  8
_0-1_ADD_LINE
  6
CONTINUOUS
 62
    7
 10
11.985837757847921
 20
-10.414385262182279
 11
12.215686065460535
 21
-10.234503977963712
  0
LINE
  8
_0-1_ADD_LINE
  6
CONTINUOUS
 62
    7
 10
12.215686065460535
 20
-10.234503977963712
 11
12.475514587109576
 21
-10.194530359248475
  0
LINE
  8
_0-1_ADD_LINE
  6
CONTINUOUS
 62
    7
 10
12.485507991788385
 20
-10.384405048145851
 11
12.525481610503622
 21
-10.584273141722036
  0
LINE
  8
_0-1_ADD_LINE
  6
CONTINUOUS
 62
    7
 10
12.525481610503622
 20
-10.584273141722036
 11
12.895237583619565
 21
-10.764154425940603
  0
LINE
  8
_0-1_ADD_LINE
  6
CONTINUOUS
 62
    7
 10
12.895237583619565
 20
-10.764154425940603
 11
13.225019938020271
 21
-10.81412144933465
  0
LINE
  8
_0-1_ADD_LINE
  6
CONTINUOUS
 62
    7
 10
13.225019938020271
 20
-10.81412144933465
 11
13.434881436275266
 21
-10.734174211904175
  0
LINE
  8
_0-1_ADD_LINE
  6
CONTINUOUS
 62
    7
 10
13.434881436275266
 20
-10.734174211904175
 11
13.534815483063358
 21
-10.654226974473701
  0
LINE
  8
_0-1_ADD_LINE
  6
CONTINUOUS
 62
    7
 10
13.534815483063358
 20
-10.654226974473701
 11
13.654736339209069
 21
-10.414385262182279
  0
LINE
  8
_0-1_ADD_LINE
  6
CONTINUOUS
 62
    7
 10
13.654736339209069
 20
-10.414385262182279
 11
13.534815483063358
 21
-10.25449078732133
  0
LINE
  8
_0-1_ADD_LINE
  6
CONTINUOUS
 62
    7
 10
14.962761973835438
 20
-9.8170017380490115
 11
15.392478375024236
 21
-9.7570413099761559
  0
LINE
  8
_0-1_ADD_LINE
  6
CONTINUOUS
 62
    7
 10
15.392478375024236
 20
-9.7570413099761559
 11
15.922128823001128
 21
-9.797014928691393
  0
LINE
  8
_0-1_ADD_LINE
  6
CONTINUOUS
 62
    7
 10
15.922128823001128
 20
-9.797014928691393
 11
16.371832033547545
 21
-9.9868896175887691
  0
LINE
  8
_0-1_ADD_LINE
  6
CONTINUOUS
 62
    7
 10
16.371832033547545
 20
-9.9868896175887691
 11
16.681627578590632
 21
-10.316671971989475
  0
LINE
  8
_0-1_ADD_LINE
  6
CONTINUOUS
 62
    7
 10
16.681627578590632
 20
-10.316671971989475
 11
16.651647364554204
 21
-10.706414754463037
  0
LINE
  8
_0-1_ADD_LINE
  6
CONTINUOUS
 62
    7
 10
16.651647364554204
 20
-10.706414754463037
 11
16.401812247583972
 21
-11.046190513542552
  0
LINE
  8
_0-1_ADD_LINE
  6
CONTINUOUS
 62
    7
 10
16.401812247583972
 20
-11.046190513542552
 11
15.652306896673277
 21
-11.156117965009454
  0
LINE
  8
_0-1_ADD_LINE
  6
CONTINUOUS
 62
    7
 10
15.652306896673277
 20
-11.156117965009454
 11
14.902801545762582
 21
-10.986230085469696
  0
LINE
  8
_0-1_ADD_LINE
  6
CONTINUOUS
 62
    7
 10
14.902801545762582
 20
-10.986230085469696
 11
14.662959833471159
 21
-10.836329015287557
  0
LINE
  8
_0-1_ADD_LINE
  6
CONTINUOUS
 62
    7
 10
14.662959833471159
 20
-10.836329015287557
 11
14.493071953931402
 21
-10.596487302996135
  0
LINE
  8
_0-1_ADD_LINE
  6
CONTINUOUS
 62
    7
 10
14.493071953931402
 20
-10.596487302996135
 11
14.413124716500928
 21
-10.306678567310666
  0
LINE
  8
_0-1_ADD_LINE
  6
CONTINUOUS
 62
    7
 10
14.413124716500928
 20
-10.306678567310666
 11
14.473085144573783
 21
-10.036856640982815
  0
LINE
  8
_0-1_ADD_LINE
  6
CONTINUOUS
 62
    7
 10
14.473085144573783
 20
-10.036856640982815
 11
14.702933452186397
 21
-9.8569753567642486
  0
LINE
  8
_0-1_ADD_LINE
  6
CONTINUOUS
 62
    7
 10
14.702933452186397
 20
-9.8569753567642486
 11
14.962761973835438
 21
-9.8170017380490115
  0
LINE
  8
_0-1_ADD_LINE
  6
CONTINUOUS
 62
    7
 10
14.972755378514247
 20
-10.006876426946388
 11
15.012728997229484
 21
-10.206744520522573
  0
LINE
  8
_0-1_ADD_LINE
  6
CONTINUOUS
 62
    7
 10
15.012728997229484
 20
-10.206744520522573
 11
15.382484970345427
 21
-10.38662580474114
  0
LINE
  8
_0-1_ADD_LINE
  6
CONTINUOUS
 62
    7
 10
15.382484970345427
 20
-10.38662580474114
 11
15.712267324746133
 21
-10.436592828135186
  0
LINE
  8
_0-1_ADD_LINE
  6
CONTINUOUS
 62
    7
 10
15.712267324746133
 20
-10.436592828135186
 11
15.922128823001128
 21
-10.356645590704712
  0
LINE
  8
_0-1_ADD_LINE
  6
CONTINUOUS
 62
    7
 10
15.922128823001128
 20
-10.356645590704712
 11
16.02206286978922
 21
-10.276698353274238
  0
LINE
  8
_0-1_ADD_LINE
  6
CONTINUOUS
 62
    7
 10
16.02206286978922
 20
-10.276698353274238
 11
16.141983725934931
 21
-10.036856640982815
  0
LINE
  8
_0-1_ADD_LINE
  6
CONTINUOUS
 62
    7
 10
16.141983725934931
 20
-10.036856640982815
 11
16.02206286978922
 21
-9.8769621661218672
  0
ENDBLK
  0
ENDSEC
  0
SECTION
  2
ENTITIES
  0
INSERT
  2
-000-1
  8
_0-1_ADD_LINE
 10
203.94107011450356
 20
141.15035988058258
 41
1
 42
1
 50
0
  0
ENDSEC
  0
EOF
