  0
SECTION
  2
HEADER
  9
$ACADVER
  1
AC1009
  9
$INSBASE
 10
0
 20
0
 30
0
  9
$EXTMIN
 10
0
 20
0
  9
$EXTMAX
 10
420
 20
297
  9
$LIMMIN
 10
0
 20
0
  9
$LIMMAX
 10
420
 20
297
  9
$LTSCALE
 40
1
  0
ENDSEC
  0
SECTION
  2
TABLES
  0
TABLE
  2
LTYPE
 70
     9
  0
LTYPE
  2
CONTINUOUS
 70
    64
  3
実線
 72
    65
 73
     0
 40
0.0
  0
LTYPE
  2
DASHED1
 70
    64
  3
--  --  --  --  --  --  --  --  
 72
    65
 73
     2
 40
2.5
 49
1.25
 49
-1.25
  0
LTYPE
  2
DASHED2
 70
    64
  3
----    ----    ----    ----    
 72
    65
 73
     2
 40
5.0
 49
2.5
 49
-2.5
  0
LTYPE
  2
DASHED3
 70
    64
  3
------  ------  ------  ------  
 72
    65
 73
     2
 40
5.0
 49
3.75
 49
-1.25
  0
LTYPE
  2
CENTER1
 70
    64
  3
----- - ----- - ----- - ----- - 
 72
    65
 73
     4
 40
10.0
 49
6.25
 49
-1.25
 49
1.25
 49
-1.25
  0
LTYPE
  2
CENTER2
 70
    64
  3
----------  --  ----------  --  
 72
    65
 73
     4
 40
20.0
 49
12.5
 49
-2.5
 49
2.5
 49
-2.5
  0
LTYPE
  2
PHANTOM1
 70
    64
  3
--- - - --- - - --- - - --- - - 
 72
    65
 73
     6
 40
10.0
 49
3.25
 49
-1.25
 49
1.25
 49
-1.25
 49
1.25
 49
-1.25
  0
LTYPE
  2
PHANTOM2
 70
    64
  3
--------  -  -  --------  -  -  
 72
    65
 73
     6
 40
20.0
 49
10.0
 49
-2.5
 49
1.25
 49
-2.5
 49
1.25
 49
-2.5
  0
LTYPE
  2
DOT
 70
    64
  3
-   -   -   -   -   -   -   -   
 72
    65
 73
     2
 40
2.5
 49
0.625
 49
-1.875
  0
LTYPE
  2
DUMMY
 70
    64
  3
ダミー
 72
    65
 73
     0
 40
0.0
  0
LTYPE
  2
RAND1
 70
    64
  3
ランダム線1
 72
    65
 73
     4
 40
10.0
 49
1.0
 49
-2.0
 49
3.0
 49
-4.0
  0
LTYPE
  2
RAND2
 70
    64
  3
ランダム線2
 72
    65
 73
     4
 40
14.0
 49
2.0
 49
-3.0
 49
4.0
 49
-5.0
  0
LTYPE
  2
RAND3
 70
    64
  3
ランダム線3
 72
    65
 73
     4
 40
18.0
 49
3.0
 49
-4.0
 49
5.0
 49
-6.0
  0
LTYPE
  2
RAND4
 70
    64
  3
ランダム線4
 72
    65
 73
     4
 40
22.0
 49
4.0
 49
-5.0
 49
6.0
 49
-7.0
  0
LTYPE
  2
RAND5
 70
    64
  3
ランダム線5
 72
    65
 73
     4
 40
26.0
 49
5.0
 49
-6.0
 49
7.0
 49
-8.0
  0
LTYPE
  2
LONG1
 70
    64
  3
----------  --  ----------  --  
 72
    65
 73
     4
 40
40.0
 49
32.5
 49
-2.5
 49
2.5
 49
-2.5
  0
LTYPE
  2
LONG2
 70
    64
  3
--------  -  -  --------  -  -  
 72
    65
 73
     6
 40
40.0
 49
30.0
 49
-2.5
 49
1.25
 49
-2.5
 49
1.25
 49
-2.5
  0
LTYPE
  2
LONG3
 70
    64
  3
+++++++++++++++..+++++++++++++++
 72
    65
 73
     2
 40
40.0
 49
37.5
 49
-2.5
  0
LTYPE
  2
LONG4
 70
    64
  3
+++++++++++++++..+++++++++++++++
 72
    65
 73
     2
 40
80.0
 49
75.0
 49
-5.0
  0
LTYPE
  2
LONG5
 70
    64
  3
----------  --  ----------  --  
 72
    65
 73
     4
 40
60.0
 49
37.5
 49
-7.5
 49
7.5
 49
-7.5
  0
LTYPE
  2
dashed
 70
   64
  3
-------   -------------   ------
 72
   65
 73
    2
 40
7.5
 49
6
 49
-1.5
  0
LTYPE
  2
dashed_spaced
 70
   64
  3
----        --------        ----
 72
   65
 73
    2
 40
12
 49
6
 49
-6
  0
LTYPE
  2
long_dashed_dotted
 70
   64
  3
------------- --- --------------
 72
   65
 73
    4
 40
15.25
 49
12
 49
-1.5
 49
0.25
 49
-1.5
  0
LTYPE
  2
long_dashed_double-dotted
 70
   64
  3
----------- --- --- ------------
 72
   65
 73
    6
 40
17
 49
12
 49
-1.5
 49
0.25
 49
-1.5
 49
0.25
 49
-1.5
  0
LTYPE
  2
long_dashed_triplicate-dotted
 70
   64
  3
--------- --- --- --- ----------
 72
   65
 73
    8
 40
18.75
 49
12
 49
-1.5
 49
0.25
 49
-1.5
 49
0.25
 49
-1.5
 49
0.25
 49
-1.5
  0
LTYPE
  2
dotted
 70
   64
  3
   -       -       -       -    
 72
   65
 73
    2
 40
1.75
 49
0.25
 49
-1.5
  0
LTYPE
  2
chain
 70
   64
  3
-------------- -- --------------
 72
   65
 73
    4
 40
18.5
 49
12
 49
-1.5
 49
3.5
 49
-1.5
  0
LTYPE
  2
chain_double_dash
 70
   64
  3
------------ -- -- -------------
 72
   65
 73
    6
 40
23.5
 49
12
 49
-1.5
 49
3.5
 49
-1.5
 49
3.5
 49
-1.5
  0
LTYPE
  2
dashed_dotted
 70
   64
  3
-----------     -     ----------
 72
   65
 73
    4
 40
9.25
 49
6
 49
-1.5
 49
0.25
 49
-1.5
  0
LTYPE
  2
double-dashed_dotted
 70
   64
  3
------   -----------   -   -----
 72
   65
 73
    6
 40
16.75
 49
6
 49
-1.5
 49
6
 49
-1.5
 49
0.25
 49
-1.5
  0
LTYPE
  2
dashed_double-dotted
 70
   64
  3
---------    -    -    ---------
 72
   65
 73
    6
 40
11
 49
6
 49
-1.5
 49
0.25
 49
-1.5
 49
0.25
 49
-1.5
  0
LTYPE
  2
double-dashed_double-dotted
 70
   64
  3
-----   ---------   -   -   ----
 72
   65
 73
    8
 40
18.5
 49
6
 49
-1.5
 49
6
 49
-1.5
 49
0.25
 49
-1.5
 49
0.25
 49
-1.5
  0
LTYPE
  2
dashed_triplicate-dotted
 70
   64
  3
-------    -    -    -    ------
 72
   65
 73
    8
 40
12.75
 49
6
 49
-1.5
 49
0.25
 49
-1.5
 49
0.25
 49
-1.5
 49
0.25
 49
-1.5
  0
LTYPE
  2
double-dashed_triplicate-dotted
 70
   64
  3
-----  ---------  -  -  -  -----
 72
   65
 73
   10
 40
20.25
 49
6
 49
-1.5
 49
6
 49
-1.5
 49
0.25
 49
-1.5
 49
0.25
 49
-1.5
 49
0.25
 49
-1.5
  0
LTYPE
  2
undefined
 70
   64
  3
--------------------------------
 72
   65
 73
    0
 40
0
  0
LTYPE
  2
_
 70
   64
  3
                                
 72
   65
 73
    0
 40
0
  0
LTYPE
  2
__18
 70
   64
  3
                                
 72
   65
 73
    0
 40
0
  0
LTYPE
  2
__19
 70
   64
  3
                                
 72
   65
 73
    0
 40
0
  0
LTYPE
  2
__20
 70
   64
  3
                                
 72
   65
 73
    0
 40
0
  0
LTYPE
  2
__21
 70
   64
  3
                                
 72
   65
 73
    0
 40
0
  0
LTYPE
  2
__22
 70
   64
  3
                                
 72
   65
 73
    0
 40
0
  0
LTYPE
  2
__23
 70
   64
  3
                                
 72
   65
 73
    0
 40
0
  0
LTYPE
  2
__24
 70
   64
  3
                                
 72
   65
 73
    0
 40
0
  0
LTYPE
  2
__25
 70
   64
  3
                                
 72
   65
 73
    0
 40
0
  0
LTYPE
  2
__26
 70
   64
  3
                                
 72
   65
 73
    0
 40
0
  0
LTYPE
  2
__27
 70
   64
  3
                                
 72
   65
 73
    0
 40
0
  0
LTYPE
  2
__28
 70
   64
  3
                                
 72
   65
 73
    0
 40
0
  0
LTYPE
  2
__29
 70
   64
  3
                                
 72
   65
 73
    0
 40
0
  0
LTYPE
  2
__30
 70
   64
  3
                                
 72
   65
 73
    0
 40
0
  0
LTYPE
  2
__31
 70
   64
  3
                                
 72
   65
 73
    0
 40
0
  0
LTYPE
  2
__32
 70
   64
  3
                                
 72
   65
 73
    0
 40
0
  0
ENDTAB
  0
TABLE
  2
STYLE
  5
3
100
AcDbSymbolTable
 70
     1
  0
STYLE
  5
10
100
AcDbSymbolTableRecord
100
AcDbTextStyleTableRecord
  2
STANDARD
 70
     0
 40
0.0
 41
1.0
 50
0.0
 71
     0
 42
0.2
  3
txt
  4
bigfont.shx
  0
STYLE
  5
26
100
AcDbSymbolTableRecord
100
AcDbTextStyleTableRecord
  2
TATEGAKI
 70
    68
 40
0.0
 41
1.0
 50
0.0
 71
     0
 42
1.0
  3
txt
  4
bigfont.shx
  0
ENDTAB
  0
TABLE
  2
LAYER
 70
    2
  0
LAYER
  2
_0-1_ADD_LINE
 70
   64
 62
    7
  6
CONTINUOUS
  0
LAYER
  2
ADD_LINE
 70
   64
 62
    7
  6
CONTINUOUS
  0
ENDTAB
  0
ENDSEC
  0
SECTION
  2
BLOCKS
  0
ENDSEC
  0
SECTION
  2
ENTITIES
  0
LINE
  8
_0-1_ADD_LINE
  6
CONTINUOUS
 62
    7
 10
198.83764034451545
 20
177.77121390167295
 11
210.85005561977883
 21
179.51214365171114
  0
LINE
  8
_0-1_ADD_LINE
  6
CONTINUOUS
 62
    7
 10
210.85005561977883
 20
179.51214365171114
 11
211.29772326978863
 21
179.4375323767095
  0
LINE
  8
_0-1_ADD_LINE
  6
CONTINUOUS
 62
    7
 10
211.29772326978863
 20
179.4375323767095
 11
212.26766984480992
 21
178.84064217669641
  0
LINE
  8
_0-1_ADD_LINE
  6
CONTINUOUS
 62
    7
 10
212.26766984480992
 20
178.84064217669641
 11
215.69978849488515
 21
177.19919412666042
  0
LINE
  8
_0-1_ADD_LINE
  6
CONTINUOUS
 62
    7
 10
215.69978849488515
 20
177.19919412666042
 11
215.87388146988897
 21
176.95048987665496
  0
LINE
  8
_0-1_ADD_LINE
  6
CONTINUOUS
 62
    7
 10
215.87388146988897
 20
176.95048987665496
 11
215.84901104488844
 21
155.51218352618491
  0
LINE
  8
_0-1_ADD_LINE
  6
CONTINUOUS
 62
    7
 10
215.84901104488844
 20
155.51218352618491
 11
213.90911789484591
 21
155.71114692618929
  0
LINE
  8
_0-1_ADD_LINE
  6
CONTINUOUS
 62
    7
 10
213.75989534484262
 20
143.67386122592535
 11
216.44590124490151
 21
143.67386122592535
  0
LINE
  8
_0-1_ADD_LINE
  6
CONTINUOUS
 62
    7
 10
217.29149569492006
 20
143.07697102591229
 11
222.66350749503783
 21
122.78270422546731
  0
LINE
  8
_0-1_ADD_LINE
  6
CONTINUOUS
 62
    7
 10
221.8676538950204
 20
121.53918297544004
 11
216.04797444489279
 21
122.23555487545531
  0
LINE
  8
_0-1_ADD_LINE
  6
CONTINUOUS
 62
    7
 10
221.66869049501602
 20
122.18581402545422
 11
216.14745614489499
 21
122.8324450754684
  0
LINE
  8
_0-1_ADD_LINE
  6
CONTINUOUS
 62
    7
 10
221.96713559502257
 20
122.98166762547167
 11
216.69460549490697
 21
143.02723017591117
  0
LINE
  8
_0-1_ADD_LINE
  6
CONTINUOUS
 62
    7
 10
221.8676538950204
 20
121.53918297544004
 11
226.39407124511965
 21
123.52881697548366
  0
LINE
  8
_0-1_ADD_LINE
  6
CONTINUOUS
 62
    7
 10
226.39407124511965
 20
123.52881697548366
 11
219.43035224496697
 21
146.01168117597661
  0
LINE
  8
_0-1_ADD_LINE
  6
CONTINUOUS
 62
    7
 10
198.83764034451545
 20
177.77121390167295
 11
196.51937958864096
 21
171.35519396141081
  0
LINE
  8
_0-1_ADD_LINE
  6
CONTINUOUS
 62
    7
 10
198.53247744532752
 20
173.13953069801934
 11
207.01951500022201
 21
173.84869017026122
  0
LINE
  8
_0-1_ADD_LINE
  6
CONTINUOUS
 62
    7
 10
198.62398189335875
 20
172.52187567380869
 11
206.99663888821422
 21
173.43692015412077
  0
LINE
  8
_0-1_ADD_LINE
  6
CONTINUOUS
 62
    7
 10
209.16986952895542
 20
172.54475178581652
 11
209.14207705954243
 21
127.11490034863846
  0
LINE
  8
_0-1_ADD_LINE
  6
CONTINUOUS
 62
    7
 10
208.87870076997891
 20
127.11490034863846
 11
208.89475748236896
 21
172.20615329168686
  0
ARC
  8
_0-1_ADD_LINE
  6
CONTINUOUS
 62
    7
 10
207.22019961976756
 20
171.70265518710221
 40
1.7486149880750115
 50
16.734732125729181
 51
97.345379733109681
  0
ARC
  8
_0-1_ADD_LINE
  6
CONTINUOUS
 62
    7
 10
206.98347272775723
 20
171.3641834962466
 40
2.4847680895060469
 50
28.367301733977335
 51
89.168879168988653
  0
ARC
  8
_0-1_ADD_LINE
  6
CONTINUOUS
 62
    7
 10
206.99678340058082
 20
127.27251430579383
 40
1.8885060616085978
 50
292.59373478450669
 51
355.21254841748726
  0
ARC
  8
_0-1_ADD_LINE
  6
CONTINUOUS
 62
    7
 10
207.06590406979288
 20
127.18730400524653
 40
2.0774350947396019
 50
271.55127490504276
 51
358.00269849220916
  0
ARC
  8
_0-1_ADD_LINE
  6
CONTINUOUS
 62
    7
 10
198.95532640783748
 20
128.21813094802943
 40
2.1853973825491937
 50
188.0648656485954
 51
256.53952308477204
  0
ARC
  8
_0-1_ADD_LINE
  6
CONTINUOUS
 62
    7
 10
199.08109004452672
 20
128.37274921445763
 40
1.9666178935541949
 50
188.70163059758121
 51
263.15644804126305
  0
ARC
  8
_0-1_ADD_LINE
  6
CONTINUOUS
 62
    7
 10
206.57300931353538
 20
127.34124658932826
 40
1.300455908731756
 50
283.08899117011424
 51
354.66805783558124
  0
ARC
  8
_0-1_ADD_LINE
  6
CONTINUOUS
 62
    7
 10
206.75059519157608
 20
127.31338069175033
 40
1.5538789508573418
 50
274.98811815483265
 51
359.25407463849024
  0
LINE
  8
_0-1_ADD_LINE
  6
CONTINUOUS
 62
    7
 10
198.84675038931604
 20
126.42014304186591
 11
207.72233679448379
 21
125.52894686593717
  0
LINE
  8
_0-1_ADD_LINE
  6
CONTINUOUS
 62
    7
 10
207.12214345151139
 20
125.11063029356247
 11
198.44662149400111
 21
126.09276485479005
  0
LINE
  8
_0-1_ADD_LINE
  6
CONTINUOUS
 62
    7
 10
208.30434246039644
 20
127.29315154073487
 11
208.3225301374562
 21
171.90752336835064
  0
LINE
  8
_0-1_ADD_LINE
  6
CONTINUOUS
 62
    7
 10
207.81327517978264
 20
171.79839730599201
 11
207.86783821096196
 21
127.22040083249578
  0
LINE
  8
_0-1_ADD_LINE
  6
CONTINUOUS
 62
    7
 10
207.54046002388608
 20
126.52926910422453
 11
198.64668594165857
 21
127.16583780131648
  0
LINE
  8
_0-1_ADD_LINE
  6
CONTINUOUS
 62
    7
 10
198.42843381694132
 20
126.71114587482222
 11
206.8675159726746
 21
126.07457717773028
  0
LINE
  8
_0-1_ADD_LINE
  6
CONTINUOUS
 62
    7
 10
206.88570364973438
 20
125.76538666771418
 11
198.82856271225626
 21
126.45651839598546
  0
LINE
  8
_0-1_ADD_LINE
  6
CONTINUOUS
 62
    7
 10
197.13710874569767
 20
128.07522165430498
 11
197.15529642275743
 21
170.74351203652537
  0
LINE
  8
_0-1_ADD_LINE
  6
CONTINUOUS
 62
    7
 10
196.79154288156204
 20
127.91153256076704
 11
196.7551675274425
 21
170.87082577594376
  0
LINE
  8
_0-1_ADD_LINE
  6
CONTINUOUS
 62
    7
 10
196.51937958864096
 20
171.35519396141081
 11
196.48235237154594
 21
127.72965579016935
  0
LINE
  8
_0-1_ADD_LINE
  6
CONTINUOUS
 62
    7
 10
196.48235237154594
 20
127.72965579016935
 11
198.51937220224016
 21
121.56403326690732
  0
LINE
  8
_0-1_ADD_LINE
  6
CONTINUOUS
 62
    7
 10
199.01043948285397
 20
121.05477830923377
 11
208.94091115748839
 21
119.65432717563147
  0
LINE
  8
_0-1_ADD_LINE
  6
CONTINUOUS
 62
    7
 10
208.94091115748839
 20
119.65432717563147
 11
211.35987220643779
 21
119.59976414445217
  0
LINE
  8
_0-1_ADD_LINE
  6
CONTINUOUS
 62
    7
 10
211.35987220643779
 20
119.59976414445217
 11
215.77947773196189
 21
121.40034417336939
  0
LINE
  8
_0-1_ADD_LINE
  6
CONTINUOUS
 62
    7
 10
211.30530917525849
 20
119.78164091504986
 11
209.1773509592654
 21
125.72901131359464
  0
LINE
  8
_0-1_ADD_LINE
  6
CONTINUOUS
 62
    7
 10
212.28744373648607
 20
120.34545890390274
 11
215.70672702372281
 21
121.67315932926594
  0
LINE
  8
_0-1_ADD_LINE
  6
CONTINUOUS
 62
    7
 10
215.87041611726076
 20
121.98234983928202
 11
215.88860379432052
 21
143.6984362486474
  0
LINE
  8
_0-1_ADD_LINE
  6
CONTINUOUS
 62
    7
 10
216.10685591903774
 20
143.71662392570715
 11
215.99772985667914
 21
121.87322377692342
  0
ARC
  8
_0-1_ADD_LINE
  6
CONTINUOUS
 62
    7
 10
215.57398631614947
 20
121.78199204199458
 40
0.4334533626570935
 50
298.29944263650731
 51
12.150276225829005
  0
ARC
  8
_0-1_ADD_LINE
  6
CONTINUOUS
 62
    7
 10
215.40208343297161
 20
122.03236595119643
 40
0.4709958753795011
 50
310.3013194827036
 51
353.90413845540115
  0
LINE
  8
_0-1_ADD_LINE
  6
CONTINUOUS
 62
    7
 10
212.28744373648607
 20
120.34545890390274
 11
212.06919161176882
 21
120.65464941391883
  0
LINE
  8
_0-1_ADD_LINE
  6
CONTINUOUS
 62
    7
 10
212.06919161176882
 20
120.65464941391883
 11
212.1419423200079
 21
124.5468123047096
  0
LINE
  8
_0-1_ADD_LINE
  6
CONTINUOUS
 62
    7
 10
212.1419423200079
 20
124.5468123047096
 11
213.23320294359411
 21
128.23891074784291
  0
LINE
  8
_0-1_ADD_LINE
  6
CONTINUOUS
 62
    7
 10
213.23320294359411
 20
128.23891074784291
 11
213.34232900595271
 21
128.98460550729348
  0
LINE
  8
_0-1_ADD_LINE
  6
CONTINUOUS
 62
    7
 10
213.34232900595271
 20
128.98460550729348
 11
214.08802376540328
 21
143.49837180098993
  0
LINE
  8
_0-1_ADD_LINE
  6
CONTINUOUS
 62
    7
 10
212.26766984480992
 20
178.84064217669641
 11
212.25833156962597
 21
175.33568802625624
  0
LINE
  8
_0-1_ADD_LINE
  6
CONTINUOUS
 62
    7
 10
212.25833156962597
 20
175.33568802625624
 11
212.59084981932244
 21
175.58507671352859
  0
LINE
  8
_0-1_ADD_LINE
  6
CONTINUOUS
 62
    7
 10
212.59084981932244
 20
175.58507671352859
 11
212.79036076914031
 21
175.70145810092234
  0
LINE
  8
_0-1_ADD_LINE
  6
CONTINUOUS
 62
    7
 10
212.79036076914031
 20
175.70145810092234
 11
213.20600858126087
 21
175.73470992589199
  0
LINE
  8
_0-1_ADD_LINE
  6
CONTINUOUS
 62
    7
 10
213.20600858126087
 20
175.73470992589199
 11
213.47202318101805
 21
175.61832853849825
  0
LINE
  8
_0-1_ADD_LINE
  6
CONTINUOUS
 62
    7
 10
213.47202318101805
 20
175.61832853849825
 11
213.72220660598089
 21
175.34595603721723
  0
LINE
  8
_0-1_ADD_LINE
  6
CONTINUOUS
 62
    7
 10
213.72220660598089
 20
175.34595603721723
 11
213.86224998354584
 21
175.04836385989168
  0
LINE
  8
_0-1_ADD_LINE
  6
CONTINUOUS
 62
    7
 10
213.86224998354584
 20
175.04836385989168
 11
213.89726082793709
 21
174.7945352380552
  0
LINE
  8
_0-1_ADD_LINE
  6
CONTINUOUS
 62
    7
 10
213.89726082793709
 20
174.7945352380552
 11
213.90601353903489
 21
174.38315781645812
  0
LINE
  8
_0-1_ADD_LINE
  6
CONTINUOUS
 62
    7
 10
213.90601353903489
 20
174.38315781645812
 11
213.82723913915461
 21
174.0855656391326
  0
LINE
  8
_0-1_ADD_LINE
  6
CONTINUOUS
 62
    7
 10
213.82723913915461
 20
174.0855656391326
 11
213.63467949500279
 21
173.76171532851362
  0
LINE
  8
_0-1_ADD_LINE
  6
CONTINUOUS
 62
    7
 10
213.63467949500279
 20
173.76171532851362
 11
213.36334545097068
 21
173.49913399557931
  0
LINE
  8
_0-1_ADD_LINE
  6
CONTINUOUS
 62
    7
 10
213.36334545097068
 20
173.49913399557931
 11
213.05700056254733
 21
173.36784332911216
  0
LINE
  8
_0-1_ADD_LINE
  6
CONTINUOUS
 62
    7
 10
213.05700056254733
 20
173.36784332911216
 11
212.67188127424367
 21
173.34158519581874
  0
LINE
  8
_0-1_ADD_LINE
  6
CONTINUOUS
 62
    7
 10
212.67188127424367
 20
173.34158519581874
 11
212.56684874106998
 21
173.39410146240559
  0
LINE
  8
_0-1_ADD_LINE
  6
CONTINUOUS
 62
    7
 10
212.56684874106998
 20
173.39410146240559
 11
212.5055797633853
 21
173.32407977362311
  0
LINE
  8
_0-1_ADD_LINE
  6
CONTINUOUS
 62
    7
 10
212.5055797633853
 20
173.32407977362311
 11
212.610612296559
 21
173.12276741837348
  0
LINE
  8
_0-1_ADD_LINE
  6
CONTINUOUS
 62
    7
 10
212.610612296559
 20
173.12276741837348
 11
212.6806339853415
 21
172.74640084116766
  0
LINE
  8
_0-1_ADD_LINE
  6
CONTINUOUS
 62
    7
 10
212.6806339853415
 20
172.74640084116766
 11
213.07450598474293
 21
171.65231195394142
  0
LINE
  8
_0-1_ADD_LINE
  6
CONTINUOUS
 62
    7
 10
213.07450598474293
 20
171.65231195394142
 11
213.51214153963343
 21
171.64355924284359
  0
LINE
  8
_0-1_ADD_LINE
  6
CONTINUOUS
 62
    7
 10
213.51214153963343
 20
171.64355924284359
 11
213.65218491719841
 21
171.46850502088739
  0
LINE
  8
_0-1_ADD_LINE
  6
CONTINUOUS
 62
    7
 10
213.65218491719841
 20
171.46850502088739
 11
213.64343220610058
 21
170.99585862160566
  0
LINE
  8
_0-1_ADD_LINE
  6
CONTINUOUS
 62
    7
 10
213.64343220610058
 20
170.99585862160566
 11
213.16203309572103
 21
170.99585862160566
  0
LINE
  8
_0-1_ADD_LINE
  6
CONTINUOUS
 62
    7
 10
213.16203309572103
 20
170.99585862160566
 11
213.36334545097068
 21
170.81205168855163
  0
LINE
  8
_0-1_ADD_LINE
  6
CONTINUOUS
 62
    7
 10
213.39835629536191
 20
171.02211675489909
 11
214.15108944977356
 21
155.69611962263374
  0
LINE
  8
_0-1_ADD_LINE
  6
CONTINUOUS
 62
    7
 10
196.7551675274425
 20
170.87082577594376
 11
196.93481911797303
 21
171.64141708792863
  0
LINE
  8
_0-1_ADD_LINE
  6
CONTINUOUS
 62
    7
 10
196.93481911797303
 20
171.64141708792863
 11
197.21999349102597
 21
172.22760885475967
  0
LINE
  8
_0-1_ADD_LINE
  6
CONTINUOUS
 62
    7
 10
197.21999349102597
 20
172.22760885475967
 11
197.61606900915504
 21
172.60784135216358
  0
LINE
  8
_0-1_ADD_LINE
  6
CONTINUOUS
 62
    7
 10
197.61606900915504
 20
172.60784135216358
 11
198.02798754800926
 21
172.86132968376617
  0
LINE
  8
_0-1_ADD_LINE
  6
CONTINUOUS
 62
    7
 10
198.02798754800926
 20
172.86132968376617
 11
198.94688275006871
 21
173.0672889531933
  0
LINE
  8
_0-1_ADD_LINE
  6
CONTINUOUS
 62
    7
 10
198.94688275006871
 20
173.0672889531933
 11
202.33728918525355
 21
173.41583540914687
  0
LINE
  8
_0-1_ADD_LINE
  6
CONTINUOUS
 62
    7
 10
197.15529642275743
 20
170.74351203652537
 11
197.25167953247632
 21
171.45130083922669
  0
LINE
  8
_0-1_ADD_LINE
  6
CONTINUOUS
 62
    7
 10
197.25167953247632
 20
171.45130083922669
 11
197.52101088480407
 21
171.8315333366306
  0
LINE
  8
_0-1_ADD_LINE
  6
CONTINUOUS
 62
    7
 10
197.52101088480407
 20
171.8315333366306
 11
197.91708640293314
 21
172.18007979258417
  0
LINE
  8
_0-1_ADD_LINE
  6
CONTINUOUS
 62
    7
 10
197.91708640293314
 20
172.18007979258417
 11
198.39237702468802
 21
172.43356812418679
  0
LINE
  8
_0-1_ADD_LINE
  6
CONTINUOUS
 62
    7
 10
198.39237702468802
 20
172.43356812418679
 11
198.62398189335875
 21
172.52187567380869
  0
LINE
  8
_0-1_ADD_LINE
  6
CONTINUOUS
 62
    7
 10
198.15473171381058
 20
173.90696905162693
 11
198.67755139774096
 21
174.66743404643472
  0
LINE
  8
_0-1_ADD_LINE
  6
CONTINUOUS
 62
    7
 10
198.67755139774096
 20
174.66743404643472
 11
198.99441181224421
 21
174.84170727441153
  0
LINE
  8
_0-1_ADD_LINE
  6
CONTINUOUS
 62
    7
 10
198.99441181224421
 20
174.84170727441153
 11
199.73903378632687
 21
175.00013748166316
  0
LINE
  8
_0-1_ADD_LINE
  6
CONTINUOUS
 62
    7
 10
199.73903378632687
 20
175.00013748166316
 11
207.42289883803082
 21
175.90318966299742
  0
LINE
  8
_0-1_ADD_LINE
  6
CONTINUOUS
 62
    7
 10
207.42289883803082
 20
175.90318966299742
 11
207.81897435615988
 21
175.74475945574579
  0
LINE
  8
_0-1_ADD_LINE
  6
CONTINUOUS
 62
    7
 10
207.81897435615988
 20
175.74475945574579
 11
207.92987550123604
 21
175.31699789616641
  0
LINE
  8
_0-1_ADD_LINE
  6
CONTINUOUS
 62
    7
 10
207.92987550123604
 20
175.31699789616641
 11
207.78728831470957
 21
174.84170727441153
  0
LINE
  8
_0-1_ADD_LINE
  6
CONTINUOUS
 62
    7
 10
207.78728831470957
 20
174.84170727441153
 11
207.53379998310695
 21
174.76249217078572
  0
LINE
  8
_0-1_ADD_LINE
  6
CONTINUOUS
 62
    7
 10
207.53379998310695
 20
174.76249217078572
 11
198.29731890033705
 21
173.68516676147465
  0
LINE
  8
_0-1_ADD_LINE
  6
CONTINUOUS
 62
    7
 10
198.29731890033705
 20
173.68516676147465
 11
198.18641775526092
 21
173.78022488582562
  0
LINE
  8
_0-1_ADD_LINE
  6
CONTINUOUS
 62
    7
 10
198.18641775526092
 20
173.78022488582562
 11
198.15473171381058
 21
173.90696905162693
  0
LINE
  8
_0-1_ADD_LINE
  6
CONTINUOUS
 62
    7
 10
199.23205712312165
 20
173.82775394800112
 11
198.6617083770158
 21
173.84359696872627
  0
LINE
  8
_0-1_ADD_LINE
  6
CONTINUOUS
 62
    7
 10
198.6617083770158
 20
173.84359696872627
 11
198.78845254281708
 21
174.20798644540503
  0
LINE
  8
_0-1_ADD_LINE
  6
CONTINUOUS
 62
    7
 10
198.78845254281708
 20
174.20798644540503
 11
199.15284201949584
 21
174.50900383918309
  0
LINE
  8
_0-1_ADD_LINE
  6
CONTINUOUS
 62
    7
 10
199.15284201949584
 20
174.50900383918309
 11
199.45385941327393
 21
174.65159102570956
  0
LINE
  8
_0-1_ADD_LINE
  6
CONTINUOUS
 62
    7
 10
199.45385941327393
 20
174.65159102570956
 11
199.77071982777719
 21
174.66743404643472
  0
LINE
  8
_0-1_ADD_LINE
  6
CONTINUOUS
 62
    7
 10
199.77071982777719
 20
174.66743404643472
 11
199.58060357907524
 21
173.82775394800112
  0
LINE
  8
_0-1_ADD_LINE
  6
CONTINUOUS
 62
    7
 10
200.13510930445594
 20
173.98618415525274
 11
200.37275461533338
 21
174.79417821223603
  0
LINE
  8
_0-1_ADD_LINE
  6
CONTINUOUS
 62
    7
 10
200.37275461533338
 20
174.79417821223603
 11
201.9728997085748
 21
174.92092237803735
  0
LINE
  8
_0-1_ADD_LINE
  6
CONTINUOUS
 62
    7
 10
201.9728997085748
 20
174.92092237803735
 11
201.7194113769722
 21
174.06539925887856
  0
LINE
  8
_0-1_ADD_LINE
  6
CONTINUOUS
 62
    7
 10
202.25807408162774
 20
174.16045738322953
 11
202.81257980700843
 21
175.15856768891479
  0
LINE
  8
_0-1_ADD_LINE
  6
CONTINUOUS
 62
    7
 10
202.81257980700843
 20
175.15856768891479
 11
204.06417844429632
 21
175.31699789616641
  0
LINE
  8
_0-1_ADD_LINE
  6
CONTINUOUS
 62
    7
 10
204.06417844429632
 20
175.31699789616641
 11
204.1909226100976
 21
175.20609675109029
  0
LINE
  8
_0-1_ADD_LINE
  6
CONTINUOUS
 62
    7
 10
204.1909226100976
 20
175.20609675109029
 11
203.87406219559435
 21
174.33473061120631
  0
LINE
  8
_0-1_ADD_LINE
  6
CONTINUOUS
 62
    7
 10
204.52362604532601
 20
174.39810269410697
 11
204.82464343910411
 21
175.20609675109029
  0
LINE
  8
_0-1_ADD_LINE
  6
CONTINUOUS
 62
    7
 10
204.82464343910411
 20
175.20609675109029
 11
205.01475968780608
 21
175.36452695834191
  0
LINE
  8
_0-1_ADD_LINE
  6
CONTINUOUS
 62
    7
 10
205.01475968780608
 20
175.36452695834191
 11
206.47231759452106
 21
175.5388001863187
  0
LINE
  8
_0-1_ADD_LINE
  6
CONTINUOUS
 62
    7
 10
206.47231759452106
 20
175.5388001863187
 11
206.48816061524622
 21
175.45958508269288
  0
LINE
  8
_0-1_ADD_LINE
  6
CONTINUOUS
 62
    7
 10
206.48816061524622
 20
175.45958508269288
 11
206.15545718001781
 21
174.58821894280891
  0
LINE
  8
_0-1_ADD_LINE
  6
CONTINUOUS
 62
    7
 10
207.20109654787854
 20
174.76249217078572
 11
207.15356748570304
 21
175.31699789616641
  0
LINE
  8
_0-1_ADD_LINE
  6
CONTINUOUS
 62
    7
 10
207.15356748570304
 20
175.31699789616641
 11
207.37536977585532
 21
175.77644549719614
  0
LINE
  8
_0-1_ADD_LINE
  6
CONTINUOUS
 62
    7
 10
207.37536977585532
 20
175.77644549719614
 11
207.50211394165663
 21
175.87150362154711
  0
LINE
  8
_0-1_ADD_LINE
  6
CONTINUOUS
 62
    7
 10
212.2867062006558
 20
177.18647434173562
 11
214.47304306072826
 21
177.24984642463627
  0
LINE
  8
_0-1_ADD_LINE
  6
CONTINUOUS
 62
    7
 10
214.47304306072826
 20
177.24984642463627
 11
214.5047291021786
 21
177.78850912929181
  0
LINE
  8
_0-1_ADD_LINE
  6
CONTINUOUS
 62
    7
 10
207.81327517978264
 20
171.79839730599201
 11
207.62885810745794
 21
172.57615531071326
  0
LINE
  8
_0-1_ADD_LINE
  6
CONTINUOUS
 62
    7
 10
207.62885810745794
 20
172.57615531071326
 11
207.12188144425272
 21
172.94054478739199
  0
LINE
  8
_0-1_ADD_LINE
  6
CONTINUOUS
 62
    7
 10
207.12188144425272
 20
172.94054478739199
 11
206.44063155307072
 21
173.16234707754427
  0
LINE
  8
_0-1_ADD_LINE
  6
CONTINUOUS
 62
    7
 10
206.44063155307072
 20
173.16234707754427
 11
205.52173635101127
 21
173.25740520189524
  0
LINE
  8
_0-1_ADD_LINE
  6
CONTINUOUS
 62
    7
 10
207.43874185875598
 20
172.67121343506423
 11
198.51912119048933
 21
171.73647521227963
  0
LINE
  8
_0-1_ADD_LINE
  6
CONTINUOUS
 62
    7
 10
198.51912119048933
 20
171.73647521227963
 11
198.02798754800926
 21
171.35624271487572
  0
LINE
  8
_0-1_ADD_LINE
  6
CONTINUOUS
 62
    7
 10
198.02798754800926
 20
171.35624271487572
 11
197.71112713350601
 21
170.801736989495
  0
LINE
  8
_0-1_ADD_LINE
  6
CONTINUOUS
 62
    7
 10
197.71112713350601
 20
170.801736989495
 11
197.6319120298802
 21
170.38981845064077
  0
LINE
  8
_0-1_ADD_LINE
  6
CONTINUOUS
 62
    7
 10
197.6319120298802
 20
170.38981845064077
 11
197.55269692625438
 21
138.37107356508676
  0
LINE
  8
_0-1_ADD_LINE
  6
CONTINUOUS
 62
    7
 10
197.55269692625438
 20
138.37107356508676
 11
197.64775505060538
 21
128.65138035019939
  0
LINE
  8
_0-1_ADD_LINE
  6
CONTINUOUS
 62
    7
 10
197.64775505060538
 20
128.65138035019939
 11
197.74281317495635
 21
128.01765952119288
  0
LINE
  8
_0-1_ADD_LINE
  6
CONTINUOUS
 62
    7
 10
197.74281317495635
 20
128.01765952119288
 11
197.99630150655895
 21
127.60574098233865
  0
LINE
  8
_0-1_ADD_LINE
  6
CONTINUOUS
 62
    7
 10
197.99630150655895
 20
127.60574098233865
 11
198.3606909832377
 21
127.20966546420958
  0
LINE
  8
_0-1_ADD_LINE
  6
CONTINUOUS
 62
    7
 10
198.3606909832377
 20
127.20966546420958
 11
198.64668594165857
 21
127.16583780131648
  0
LINE
  8
_0-1_ADD_LINE
  6
CONTINUOUS
 62
    7
 10
208.3225301374562
 20
171.90752336835064
 11
208.15167779138829
 21
172.59199833143842
  0
LINE
  8
_0-1_ADD_LINE
  6
CONTINUOUS
 62
    7
 10
208.15167779138829
 20
172.59199833143842
 11
207.69223019035857
 21
173.17819009826943
  0
LINE
  8
_0-1_ADD_LINE
  6
CONTINUOUS
 62
    7
 10
207.69223019035857
 20
173.17819009826943
 11
207.35952675513016
 21
173.30493426407074
  0
LINE
  8
_0-1_ADD_LINE
  6
CONTINUOUS
 62
    7
 10
214.72653139233086
 20
155.56867256225098
 11
213.7284210866456
 21
155.47361443790001
  0
LINE
  8
_0-1_ADD_LINE
  6
CONTINUOUS
 62
    7
 10
213.7284210866456
 20
155.47361443790001
 11
213.25313046489072
 21
154.99832381614513
  0
LINE
  8
_0-1_ADD_LINE
  6
CONTINUOUS
 62
    7
 10
213.25313046489072
 20
154.99832381614513
 11
212.73031078096037
 21
154.22201580061216
  0
LINE
  8
_0-1_ADD_LINE
  6
CONTINUOUS
 62
    7
 10
212.73031078096037
 20
154.22201580061216
 11
212.20749109702999
 21
153.31896361927787
  0
LINE
  8
_0-1_ADD_LINE
  6
CONTINUOUS
 62
    7
 10
212.20749109702999
 20
153.31896361927787
 11
211.89063068252673
 21
152.40006841721842
  0
LINE
  8
_0-1_ADD_LINE
  6
CONTINUOUS
 62
    7
 10
211.89063068252673
 20
152.40006841721842
 11
211.65298537164929
 21
151.40195811153316
  0
LINE
  8
_0-1_ADD_LINE
  6
CONTINUOUS
 62
    7
 10
211.65298537164929
 20
151.40195811153316
 11
211.58961328874864
 21
147.77390636547088
  0
LINE
  8
_0-1_ADD_LINE
  6
CONTINUOUS
 62
    7
 10
211.58961328874864
 20
147.77390636547088
 11
211.96984578615255
 21
146.51438621782046
  0
LINE
  8
_0-1_ADD_LINE
  6
CONTINUOUS
 62
    7
 10
211.96984578615255
 20
146.51438621782046
 11
212.35007828355646
 21
145.4687468499597
  0
LINE
  8
_0-1_ADD_LINE
  6
CONTINUOUS
 62
    7
 10
212.35007828355646
 20
145.4687468499597
 11
212.69862473951002
 21
144.69243883442672
  0
LINE
  8
_0-1_ADD_LINE
  6
CONTINUOUS
 62
    7
 10
212.69862473951002
 20
144.69243883442672
 11
213.30065952706622
 21
144.02703196396988
  0
LINE
  8
_0-1_ADD_LINE
  6
CONTINUOUS
 62
    7
 10
213.30065952706622
 20
144.02703196396988
 11
213.75989534484262
 21
143.67386122592535
  0
LINE
  8
_0-1_ADD_LINE
  6
CONTINUOUS
 62
    7
 10
213.75989534484262
 20
143.67386122592535
 11
213.03132817473846
 21
143.61511342511565
  0
LINE
  8
_0-1_ADD_LINE
  6
CONTINUOUS
 62
    7
 10
213.03132817473846
 20
143.61511342511565
 11
212.19164807630483
 21
144.40726446137379
  0
LINE
  8
_0-1_ADD_LINE
  6
CONTINUOUS
 62
    7
 10
212.19164807630483
 20
144.40726446137379
 11
211.76388651672542
 21
145.08851435255579
  0
LINE
  8
_0-1_ADD_LINE
  6
CONTINUOUS
 62
    7
 10
211.76388651672542
 20
145.08851435255579
 11
211.22522381206988
 21
146.38764205201915
  0
LINE
  8
_0-1_ADD_LINE
  6
CONTINUOUS
 62
    7
 10
211.22522381206988
 20
146.38764205201915
 11
211.0034215219176
 21
147.60755464785669
  0
LINE
  8
_0-1_ADD_LINE
  6
CONTINUOUS
 62
    7
 10
211.0034215219176
 20
147.60755464785669
 11
210.82914829394082
 21
149.30275786544911
  0
LINE
  8
_0-1_ADD_LINE
  6
CONTINUOUS
 62
    7
 10
210.82914829394082
 20
149.30275786544911
 11
211.0034215219176
 21
151.45740868407123
  0
LINE
  8
_0-1_ADD_LINE
  6
CONTINUOUS
 62
    7
 10
211.0034215219176
 20
151.45740868407123
 11
211.36781099859635
 21
153.05755377731268
  0
LINE
  8
_0-1_ADD_LINE
  6
CONTINUOUS
 62
    7
 10
211.36781099859635
 20
153.05755377731268
 11
211.77972953745058
 21
154.03982106227278
  0
LINE
  8
_0-1_ADD_LINE
  6
CONTINUOUS
 62
    7
 10
211.77972953745058
 20
154.03982106227278
 11
212.22333411775514
 21
154.67354189127929
  0
LINE
  8
_0-1_ADD_LINE
  6
CONTINUOUS
 62
    7
 10
212.22333411775514
 20
154.67354189127929
 11
212.95211307111262
 21
155.32310574101095
  0
LINE
  8
_0-1_ADD_LINE
  6
CONTINUOUS
 62
    7
 10
212.95211307111262
 20
155.32310574101095
 11
213.53830483794366
 21
155.54490803116323
  0
LINE
  8
_0-1_ADD_LINE
  6
CONTINUOUS
 62
    7
 10
213.53830483794366
 20
155.54490803116323
 11
214.04528150114888
 21
155.60828011406389
  0
LINE
  8
_0-1_ADD_LINE
  6
CONTINUOUS
 62
    7
 10
214.17202566695016
 20
151.21976337319379
 11
216.75443804515172
 21
151.17223431101831
  0
LINE
  8
_0-1_ADD_LINE
  6
CONTINUOUS
 62
    7
 10
216.75443804515172
 20
151.17223431101831
 11
217.19804262545625
 21
150.85537389651506
  0
LINE
  8
_0-1_ADD_LINE
  6
CONTINUOUS
 62
    7
 10
217.19804262545625
 20
150.85537389651506
 11
217.43568793633369
 21
150.52267046128662
  0
LINE
  8
_0-1_ADD_LINE
  6
CONTINUOUS
 62
    7
 10
217.43568793633369
 20
150.52267046128662
 11
217.59411814358532
 21
149.82557754937946
  0
LINE
  8
_0-1_ADD_LINE
  6
CONTINUOUS
 62
    7
 10
217.59411814358532
 20
149.82557754937946
 11
217.57827512286016
 21
149.11264161674714
  0
LINE
  8
_0-1_ADD_LINE
  6
CONTINUOUS
 62
    7
 10
217.57827512286016
 20
149.11264161674714
 11
217.40400189488338
 21
148.43139172556513
  0
LINE
  8
_0-1_ADD_LINE
  6
CONTINUOUS
 62
    7
 10
217.40400189488338
 20
148.43139172556513
 11
217.1821996047311
 21
148.20958943541285
  0
LINE
  8
_0-1_ADD_LINE
  6
CONTINUOUS
 62
    7
 10
217.1821996047311
 20
148.20958943541285
 11
216.89702523167816
 21
147.9877871452606
  0
LINE
  8
_0-1_ADD_LINE
  6
CONTINUOUS
 62
    7
 10
216.89702523167816
 20
147.9877871452606
 11
216.43757763064846
 21
148.01947318671091
  0
LINE
  8
_0-1_ADD_LINE
  6
CONTINUOUS
 62
    7
 10
216.43757763064846
 20
148.01947318671091
 11
214.14033962549985
 21
147.9402580830851
  0
LINE
  8
_0-1_ADD_LINE
  6
CONTINUOUS
 62
    7
 10
214.14033962549985
 20
147.9402580830851
 11
213.87100827317207
 21
148.22543245613804
  0
LINE
  8
_0-1_ADD_LINE
  6
CONTINUOUS
 62
    7
 10
213.87100827317207
 20
148.22543245613804
 11
213.61751994156947
 21
148.85915328514454
  0
LINE
  8
_0-1_ADD_LINE
  6
CONTINUOUS
 62
    7
 10
213.61751994156947
 20
148.85915328514454
 11
213.58583390011916
 21
149.66714734212783
  0
LINE
  8
_0-1_ADD_LINE
  6
CONTINUOUS
 62
    7
 10
213.58583390011916
 20
149.66714734212783
 11
213.68089202447013
 21
150.53851348201181
  0
LINE
  8
_0-1_ADD_LINE
  6
CONTINUOUS
 62
    7
 10
213.68089202447013
 20
150.53851348201181
 11
213.88685129389725
 21
150.96627504159119
  0
LINE
  8
_0-1_ADD_LINE
  6
CONTINUOUS
 62
    7
 10
213.88685129389725
 20
150.96627504159119
 11
214.17202566695016
 21
151.21976337319379
  0
LINE
  8
_0-1_ADD_LINE
  6
CONTINUOUS
 62
    7
 10
214.86911857885733
 20
151.10886222811766
 11
214.47304306072826
 21
150.60188556491244
  0
LINE
  8
_0-1_ADD_LINE
  6
CONTINUOUS
 62
    7
 10
214.47304306072826
 20
150.60188556491244
 11
214.21955472912566
 21
149.98400775663109
  0
LINE
  8
_0-1_ADD_LINE
  6
CONTINUOUS
 62
    7
 10
214.21955472912566
 20
149.98400775663109
 11
214.21955472912566
 21
149.30275786544911
  0
LINE
  8
_0-1_ADD_LINE
  6
CONTINUOUS
 62
    7
 10
214.21955472912566
 20
149.30275786544911
 11
214.31461285347663
 21
148.76409516079357
  0
LINE
  8
_0-1_ADD_LINE
  6
CONTINUOUS
 62
    7
 10
214.31461285347663
 20
148.76409516079357
 11
214.66315930943023
 21
148.16206037323738
  0
LINE
  8
_0-1_ADD_LINE
  6
CONTINUOUS
 62
    7
 10
216.43757763064846
 20
148.01947318671091
 11
216.04150211251937
 21
148.38386266338966
  0
LINE
  8
_0-1_ADD_LINE
  6
CONTINUOUS
 62
    7
 10
216.04150211251937
 20
148.38386266338966
 11
215.93060096744324
 21
148.98589745094583
  0
LINE
  8
_0-1_ADD_LINE
  6
CONTINUOUS
 62
    7
 10
215.93060096744324
 20
148.98589745094583
 11
215.91475794671808
 21
149.65130432140268
  0
LINE
  8
_0-1_ADD_LINE
  6
CONTINUOUS
 62
    7
 10
215.91475794671808
 20
149.65130432140268
 11
216.00981607106905
 21
150.33255421258468
  0
LINE
  8
_0-1_ADD_LINE
  6
CONTINUOUS
 62
    7
 10
216.00981607106905
 20
150.33255421258468
 11
216.19993231977099
 21
150.88705993796538
  0
LINE
  8
_0-1_ADD_LINE
  6
CONTINUOUS
 62
    7
 10
216.19993231977099
 20
150.88705993796538
 11
216.50094971354909
 21
151.10886222811766
  0
LINE
  8
_0-1_ADD_LINE
  6
CONTINUOUS
 62
    7
 10
216.50094971354909
 20
151.10886222811766
 11
216.75443804515172
 21
151.17223431101831
  0
LINE
  8
_0-1_ADD_LINE
  6
CONTINUOUS
 62
    7
 10
216.56432179644975
 20
150.14243796388271
 11
216.83365314877753
 21
150.20581004678337
  0
LINE
  8
_0-1_ADD_LINE
  6
CONTINUOUS
 62
    7
 10
216.83365314877753
 20
150.20581004678337
 11
217.05545543892981
 21
150.0632228602569
  0
LINE
  8
_0-1_ADD_LINE
  6
CONTINUOUS
 62
    7
 10
217.05545543892981
 20
150.0632228602569
 11
217.03961241820463
 21
149.52456015560136
  0
LINE
  8
_0-1_ADD_LINE
  6
CONTINUOUS
 62
    7
 10
217.03961241820463
 20
149.52456015560136
 11
217.03961241820463
 21
149.04926953384648
  0
LINE
  8
_0-1_ADD_LINE
  6
CONTINUOUS
 62
    7
 10
217.03961241820463
 20
149.04926953384648
 11
216.81781012805234
 21
148.74825214006839
  0
LINE
  8
_0-1_ADD_LINE
  6
CONTINUOUS
 62
    7
 10
216.81781012805234
 20
148.74825214006839
 11
216.70690898297622
 21
148.63735099499226
  0
LINE
  8
_0-1_ADD_LINE
  6
CONTINUOUS
 62
    7
 10
216.70690898297622
 20
148.63735099499226
 11
216.40589158919812
 21
149.06511255457164
  0
LINE
  8
_0-1_ADD_LINE
  6
CONTINUOUS
 62
    7
 10
216.40589158919812
 20
149.06511255457164
 11
216.42173460992328
 21
149.99985077735627
  0
LINE
  8
_0-1_ADD_LINE
  6
CONTINUOUS
 62
    7
 10
216.42173460992328
 20
149.99985077735627
 11
216.56432179644975
 21
150.14243796388271
  0
LINE
  8
_0-1_ADD_LINE
  6
CONTINUOUS
 62
    7
 10
219.43035224496697
 20
146.01168117597661
 11
216.07318815396971
 21
155.40232084463676
  0
LINE
  8
_0-1_ADD_LINE
  6
CONTINUOUS
 62
    7
 10
216.07318815396971
 20
155.40232084463676
 11
216.10487419542002
 21
176.94882903085818
  0
LINE
  8
_0-1_ADD_LINE
  6
CONTINUOUS
 62
    7
 10
216.10487419542002
 20
176.94882903085818
 11
215.99551797205896
 21
177.07424032302293
  0
LINE
  8
_0-1_ADD_LINE
  6
CONTINUOUS
 62
    7
 10
215.99551797205896
 20
177.07424032302293
 11
215.69978849488515
 21
177.19919412666042
  0
LINE
  8
_0-1_ADD_LINE
  6
CONTINUOUS
 62
    7
 10
216.07644744549413
 20
129.21406358345297
 11
216.894582892383
 21
129.58138970246429
  0
LINE
  8
_0-1_ADD_LINE
  6
CONTINUOUS
 62
    7
 10
216.894582892383
 20
129.58138970246429
 11
216.04305416194762
 21
137.02809193333039
  0
LINE
  8
_0-1_ADD_LINE
  6
CONTINUOUS
 62
    7
 10
216.0263575201744
 20
125.12338634900858
 11
221.46946273825139
 21
124.52230724517186
  0
LINE
  8
_0-1_ADD_LINE
  6
CONTINUOUS
 62
    7
 10
221.96713559502257
 20
122.98166762547167
 11
221.83678885726275
 21
122.4519236652898
  0
LINE
  8
_0-1_ADD_LINE
  6
CONTINUOUS
 62
    7
 10
221.83678885726275
 20
122.4519236652898
 11
221.66869049501602
 21
122.18581402545422
  0
LINE
  8
_0-1_ADD_LINE
  6
CONTINUOUS
 62
    7
 10
222.66350749503783
 20
122.78270422546731
 11
222.67162094592487
 21
122.38513709819684
  0
LINE
  8
_0-1_ADD_LINE
  6
CONTINUOUS
 62
    7
 10
222.67162094592487
 20
122.38513709819684
 11
222.42117131932622
 21
122.00111433741226
  0
LINE
  8
_0-1_ADD_LINE
  6
CONTINUOUS
 62
    7
 10
222.42117131932622
 20
122.00111433741226
 11
221.88687878258247
 21
121.53360836776147
  0
LINE
  8
_0-1_ADD_LINE
  6
CONTINUOUS
 62
    7
 10
198.21104074812479
 20
125.4072292591537
 11
198.14425418103181
 21
125.2068695578748
  0
LINE
  8
_0-1_ADD_LINE
  6
CONTINUOUS
 62
    7
 10
198.14425418103181
 20
125.2068695578748
 11
198.36131052408396
 21
124.75606022999725
  0
LINE
  8
_0-1_ADD_LINE
  6
CONTINUOUS
 62
    7
 10
198.36131052408396
 20
124.75606022999725
 11
199.17944597097284
 21
124.05480127552107
  0
LINE
  8
_0-1_ADD_LINE
  6
CONTINUOUS
 62
    7
 10
199.17944597097284
 20
124.05480127552107
 11
207.49437357404753
 21
123.18657590331247
  0
LINE
  8
_0-1_ADD_LINE
  6
CONTINUOUS
 62
    7
 10
207.49437357404753
 20
123.18657590331247
 11
208.01196946901806
 21
123.72086844005622
  0
LINE
  8
_0-1_ADD_LINE
  6
CONTINUOUS
 62
    7
 10
208.01196946901806
 20
123.72086844005622
 11
207.79491312596591
 21
124.12158784261405
  0
LINE
  8
_0-1_ADD_LINE
  6
CONTINUOUS
 62
    7
 10
207.79491312596591
 20
124.12158784261405
 11
207.57785678291376
 21
124.3386441856662
  0
LINE
  8
_0-1_ADD_LINE
  6
CONTINUOUS
 62
    7
 10
207.57785678291376
 20
124.3386441856662
 11
198.21104074812479
 21
125.4072292591537
  0
LINE
  8
_0-1_ADD_LINE
  6
CONTINUOUS
 62
    7
 10
198.67854671777556
 20
125.34044269206073
 11
198.62845679245584
 21
125.05659978191561
  0
LINE
  8
_0-1_ADD_LINE
  6
CONTINUOUS
 62
    7
 10
198.62845679245584
 20
125.05659978191561
 11
198.97908626969391
 21
124.62248709581131
  0
LINE
  8
_0-1_ADD_LINE
  6
CONTINUOUS
 62
    7
 10
198.97908626969391
 20
124.62248709581131
 11
199.34641238870526
 21
124.38873411098592
  0
LINE
  8
_0-1_ADD_LINE
  6
CONTINUOUS
 62
    7
 10
199.34641238870526
 20
124.38873411098592
 11
199.81391835835603
 21
124.3386441856662
  0
LINE
  8
_0-1_ADD_LINE
  6
CONTINUOUS
 62
    7
 10
199.81391835835603
 20
124.3386441856662
 11
199.59686201530388
 21
124.78945351354373
  0
LINE
  8
_0-1_ADD_LINE
  6
CONTINUOUS
 62
    7
 10
199.59686201530388
 20
124.78945351354373
 11
199.53007544821091
 21
125.25695948319452
  0
LINE
  8
_0-1_ADD_LINE
  6
CONTINUOUS
 62
    7
 10
200.23133440268711
 20
124.98981321482265
 11
200.23133440268711
 21
124.60579045403807
  0
LINE
  8
_0-1_ADD_LINE
  6
CONTINUOUS
 62
    7
 10
200.23133440268711
 20
124.60579045403807
 11
200.58196387992518
 21
124.20507105148025
  0
LINE
  8
_0-1_ADD_LINE
  6
CONTINUOUS
 62
    7
 10
200.58196387992518
 20
124.20507105148025
 11
200.68214373056463
 21
124.08819455906756
  0
LINE
  8
_0-1_ADD_LINE
  6
CONTINUOUS
 62
    7
 10
200.68214373056463
 20
124.08819455906756
 11
202.08466163951701
 21
124.00471135020135
  0
LINE
  8
_0-1_ADD_LINE
  6
CONTINUOUS
 62
    7
 10
202.08466163951701
 20
124.00471135020135
 11
201.70063887873243
 21
124.82284679709022
  0
LINE
  8
_0-1_ADD_LINE
  6
CONTINUOUS
 62
    7
 10
201.70063887873243
 20
124.82284679709022
 11
201.68394223695918
 21
125.03990314014237
  0
LINE
  8
_0-1_ADD_LINE
  6
CONTINUOUS
 62
    7
 10
202.26832469902268
 20
124.87293672240995
 11
202.35180790788888
 21
124.58909381226482
  0
LINE
  8
_0-1_ADD_LINE
  6
CONTINUOUS
 62
    7
 10
202.35180790788888
 20
124.58909381226482
 11
202.66904410158048
 21
123.93792478310837
  0
LINE
  8
_0-1_ADD_LINE
  6
CONTINUOUS
 62
    7
 10
202.66904410158048
 20
123.93792478310837
 11
204.03816872698636
 21
123.77095836537595
  0
LINE
  8
_0-1_ADD_LINE
  6
CONTINUOUS
 62
    7
 10
204.03816872698636
 20
123.77095836537595
 11
204.12165193585258
 21
124.32194754389295
  0
LINE
  8
_0-1_ADD_LINE
  6
CONTINUOUS
 62
    7
 10
204.12165193585258
 20
124.32194754389295
 11
203.88789895102718
 21
124.68927366290428
  0
LINE
  8
_0-1_ADD_LINE
  6
CONTINUOUS
 62
    7
 10
203.88789895102718
 20
124.68927366290428
 11
203.80441574216098
 21
124.75606022999725
  0
LINE
  8
_0-1_ADD_LINE
  6
CONTINUOUS
 62
    7
 10
200.71553701411113
 20
124.2217676932535
 11
201.65054895341271
 21
124.32194754389295
  0
LINE
  8
_0-1_ADD_LINE
  6
CONTINUOUS
 62
    7
 10
202.78592059399318
 20
124.03810463374782
 11
203.60405604088206
 21
124.15498112616052
  0
LINE
  8
_0-1_ADD_LINE
  6
CONTINUOUS
 62
    7
 10
204.67264111436958
 20
124.47221731985213
 11
204.82291089032876
 21
123.68747515650973
  0
LINE
  8
_0-1_ADD_LINE
  6
CONTINUOUS
 62
    7
 10
204.82291089032876
 20
123.68747515650973
 11
205.1234504422471
 21
123.63738523119001
  0
LINE
  8
_0-1_ADD_LINE
  6
CONTINUOUS
 62
    7
 10
205.1234504422471
 20
123.63738523119001
 11
206.42578850056003
 21
123.57059866409705
  0
LINE
  8
_0-1_ADD_LINE
  6
CONTINUOUS
 62
    7
 10
206.42578850056003
 20
123.57059866409705
 11
206.47587842587976
 21
123.68747515650973
  0
LINE
  8
_0-1_ADD_LINE
  6
CONTINUOUS
 62
    7
 10
206.47587842587976
 20
123.68747515650973
 11
206.17533887396138
 21
124.43882403630565
  0
LINE
  8
_0-1_ADD_LINE
  6
CONTINUOUS
 62
    7
 10
204.98987730806118
 20
123.72086844005622
 11
205.77461947140358
 21
123.95462142488162
  0
LINE
  8
_0-1_ADD_LINE
  6
CONTINUOUS
 62
    7
 10
206.72632805247838
 20
124.32194754389295
 11
207.11035081326295
 21
123.4370255299111
  0
LINE
  8
_0-1_ADD_LINE
  6
CONTINUOUS
 62
    7
 10
207.11035081326295
 20
123.4370255299111
 11
207.64464335000673
 21
123.4370255299111
  0
LINE
  8
_0-1_ADD_LINE
  6
CONTINUOUS
 62
    7
 10
212.486669464247
 20
125.39053261738046
 11
212.7204224490724
 21
125.5241057515664
  0
LINE
  8
_0-1_ADD_LINE
  6
CONTINUOUS
 62
    7
 10
212.7204224490724
 20
125.5241057515664
 11
213.1545351351767
 21
125.45731918447343
  0
LINE
  8
_0-1_ADD_LINE
  6
CONTINUOUS
 62
    7
 10
213.1545351351767
 20
125.45731918447343
 11
213.65543438837398
 21
124.98981321482265
  0
LINE
  8
_0-1_ADD_LINE
  6
CONTINUOUS
 62
    7
 10
213.65543438837398
 20
124.98981321482265
 11
213.88918737319938
 21
124.3386441856662
  0
LINE
  8
_0-1_ADD_LINE
  6
CONTINUOUS
 62
    7
 10
213.88918737319938
 20
124.3386441856662
 11
213.8224008061064
 21
123.75426172360271
  0
LINE
  8
_0-1_ADD_LINE
  6
CONTINUOUS
 62
    7
 10
213.8224008061064
 20
123.75426172360271
 11
213.53855789596128
 21
123.38693560459137
  0
LINE
  8
_0-1_ADD_LINE
  6
CONTINUOUS
 62
    7
 10
213.53855789596128
 20
123.38693560459137
 11
213.13783849340345
 21
123.27005911217867
  0
LINE
  8
_0-1_ADD_LINE
  6
CONTINUOUS
 62
    7
 10
213.13783849340345
 20
123.27005911217867
 11
212.63693924020617
 21
123.3535423210449
  0
LINE
  8
_0-1_ADD_LINE
  6
CONTINUOUS
 62
    7
 10
212.63693924020617
 20
123.3535423210449
 11
212.45327618070053
 21
123.53720538055056
  0
LINE
  8
_0-1_ADD_LINE
  6
CONTINUOUS
 62
    7
 10
212.45327618070053
 20
123.53720538055056
 11
212.2529164794216
 21
123.77095836537595
  0
LINE
  8
_0-1_ADD_LINE
  6
CONTINUOUS
 62
    7
 10
196.47459000370756
 20
151.60426020137101
 11
196.25753366065541
 21
150.83621467980186
  0
LINE
  8
_0-1_ADD_LINE
  6
CONTINUOUS
 62
    7
 10
196.25753366065541
 20
150.83621467980186
 11
196.10726388469624
 21
150.0347758746862
  0
LINE
  8
_0-1_ADD_LINE
  6
CONTINUOUS
 62
    7
 10
196.10726388469624
 20
150.0347758746862
 11
196.10726388469624
 21
148.79922438346628
  0
LINE
  8
_0-1_ADD_LINE
  6
CONTINUOUS
 62
    7
 10
196.10726388469624
 20
148.79922438346628
 11
196.20744373533569
 21
148.06457214544361
  0
LINE
  8
_0-1_ADD_LINE
  6
CONTINUOUS
 62
    7
 10
196.20744373533569
 20
148.06457214544361
 11
196.45789336193431
 21
147.22974005678151
  0
LINE
  8
_0-1_ADD_LINE
  6
CONTINUOUS
 62
    7
 10
198.21104074812479
 20
170.11248760701017
 11
198.72863664309529
 21
170.41302715892854
  0
LINE
  8
_0-1_ADD_LINE
  6
CONTINUOUS
 62
    7
 10
198.72863664309529
 20
170.41302715892854
 11
199.29632246338554
 21
170.42972380070179
  0
LINE
  8
_0-1_ADD_LINE
  6
CONTINUOUS
 62
    7
 10
199.29632246338554
 20
170.42972380070179
 11
199.79722171658281
 21
170.31284730828909
  0
LINE
  8
_0-1_ADD_LINE
  6
CONTINUOUS
 62
    7
 10
199.79722171658281
 20
170.31284730828909
 11
200.09776126850116
 21
169.96221783105099
  0
LINE
  8
_0-1_ADD_LINE
  6
CONTINUOUS
 62
    7
 10
200.09776126850116
 20
169.96221783105099
 11
200.38160417864628
 21
169.36113872721427
  0
LINE
  8
_0-1_ADD_LINE
  6
CONTINUOUS
 62
    7
 10
200.38160417864628
 20
169.36113872721427
 11
200.31481761155331
 21
168.76005962337754
  0
LINE
  8
_0-1_ADD_LINE
  6
CONTINUOUS
 62
    7
 10
200.31481761155331
 20
168.76005962337754
 11
200.21463776091386
 21
168.24246372840702
  0
LINE
  8
_0-1_ADD_LINE
  6
CONTINUOUS
 62
    7
 10
200.21463776091386
 20
168.24246372840702
 11
199.84731164190254
 21
167.7916544005295
  0
LINE
  8
_0-1_ADD_LINE
  6
CONTINUOUS
 62
    7
 10
199.84731164190254
 20
167.7916544005295
 11
199.39650231402499
 21
167.47441820683787
  0
LINE
  8
_0-1_ADD_LINE
  6
CONTINUOUS
 62
    7
 10
199.39650231402499
 20
167.47441820683787
 11
198.81211985196151
 21
167.42432828151814
  0
LINE
  8
_0-1_ADD_LINE
  6
CONTINUOUS
 62
    7
 10
198.81211985196151
 20
167.42432828151814
 11
198.29452395699099
 21
167.72486783343652
  0
LINE
  8
_0-1_ADD_LINE
  6
CONTINUOUS
 62
    7
 10
198.29452395699099
 20
167.72486783343652
 11
198.11086089748531
 21
167.95862081826192
  0
LINE
  8
_0-1_ADD_LINE
  6
CONTINUOUS
 62
    7
 10
199.42989559757146
 20
170.06239768169044
 11
199.69704186594333
 21
169.97891447282424
  0
LINE
  8
_0-1_ADD_LINE
  6
CONTINUOUS
 62
    7
 10
199.69704186594333
 20
169.97891447282424
 11
199.94749149254199
 21
169.69507156267912
  0
LINE
  8
_0-1_ADD_LINE
  6
CONTINUOUS
 62
    7
 10
199.94749149254199
 20
169.69507156267912
 11
199.98088477608846
 21
169.41122865253399
  0
LINE
  8
_0-1_ADD_LINE
  6
CONTINUOUS
 62
    7
 10
199.98088477608846
 20
169.41122865253399
 11
199.91409820899548
 21
169.01050924997617
  0
LINE
  8
_0-1_ADD_LINE
  6
CONTINUOUS
 62
    7
 10
199.91409820899548
 20
169.01050924997617
 11
199.74713179126309
 21
168.60978984741837
  0
LINE
  8
_0-1_ADD_LINE
  6
CONTINUOUS
 62
    7
 10
199.74713179126309
 20
168.60978984741837
 11
199.42989559757146
 21
168.40943014613944
  0
LINE
  8
_0-1_ADD_LINE
  6
CONTINUOUS
 62
    7
 10
199.42989559757146
 20
168.40943014613944
 11
199.07926612033339
 21
168.54300328032539
  0
LINE
  8
_0-1_ADD_LINE
  6
CONTINUOUS
 62
    7
 10
199.07926612033339
 20
168.54300328032539
 11
198.97908626969391
 21
168.91032939933672
  0
LINE
  8
_0-1_ADD_LINE
  6
CONTINUOUS
 62
    7
 10
198.97908626969391
 20
168.91032939933672
 11
199.01247955324041
 21
169.32774544366779
  0
LINE
  8
_0-1_ADD_LINE
  6
CONTINUOUS
 62
    7
 10
199.01247955324041
 20
169.32774544366779
 11
199.09596276210661
 21
169.82864469686507
  0
LINE
  8
_0-1_ADD_LINE
  6
CONTINUOUS
 62
    7
 10
199.09596276210661
 20
169.82864469686507
 11
199.42989559757146
 21
170.06239768169044
  0
LINE
  8
_0-1_ADD_LINE
  6
CONTINUOUS
 62
    7
 10
200.71553701411113
 20
168.37603686259297
 11
201.11625641666893
 21
168.47621671323242
  0
LINE
  8
_0-1_ADD_LINE
  6
CONTINUOUS
 62
    7
 10
201.11625641666893
 20
168.47621671323242
 11
201.53367246100001
 21
168.42612678791269
  0
LINE
  8
_0-1_ADD_LINE
  6
CONTINUOUS
 62
    7
 10
201.53367246100001
 20
168.42612678791269
 11
201.98448178887756
 21
168.22576708663379
  0
LINE
  8
_0-1_ADD_LINE
  6
CONTINUOUS
 62
    7
 10
201.98448178887756
 20
168.22576708663379
 11
202.26832469902268
 21
167.85844096762247
  0
LINE
  8
_0-1_ADD_LINE
  6
CONTINUOUS
 62
    7
 10
202.26832469902268
 20
167.85844096762247
 11
202.36850454966213
 21
167.22396858023924
  0
LINE
  8
_0-1_ADD_LINE
  6
CONTINUOUS
 62
    7
 10
202.36850454966213
 20
167.22396858023924
 11
202.30171798256916
 21
166.8065525359082
  0
LINE
  8
_0-1_ADD_LINE
  6
CONTINUOUS
 62
    7
 10
202.30171798256916
 20
166.8065525359082
 11
202.18484149015646
 21
166.22217007384469
  0
LINE
  8
_0-1_ADD_LINE
  6
CONTINUOUS
 62
    7
 10
202.18484149015646
 20
166.22217007384469
 11
201.86760529646486
 21
165.7045741788742
  0
LINE
  8
_0-1_ADD_LINE
  6
CONTINUOUS
 62
    7
 10
201.86760529646486
 20
165.7045741788742
 11
201.48358253568028
 21
165.50421447759527
  0
LINE
  8
_0-1_ADD_LINE
  6
CONTINUOUS
 62
    7
 10
201.48358253568028
 20
165.50421447759527
 11
200.86580679007031
 21
165.3539447016361
  0
LINE
  8
_0-1_ADD_LINE
  6
CONTINUOUS
 62
    7
 10
200.86580679007031
 20
165.3539447016361
 11
200.43169410396601
 21
165.62109097000797
  0
LINE
  8
_0-1_ADD_LINE
  6
CONTINUOUS
 62
    7
 10
200.43169410396601
 20
165.62109097000797
 11
200.11445791027441
 21
165.97172044724607
  0
LINE
  8
_0-1_ADD_LINE
  6
CONTINUOUS
 62
    7
 10
200.11445791027441
 20
165.97172044724607
 11
199.91409820899548
 21
166.97351895364062
  0
LINE
  8
_0-1_ADD_LINE
  6
CONTINUOUS
 62
    7
 10
199.91409820899548
 20
166.97351895364062
 11
200.06436798495469
 21
167.57459805747735
  0
LINE
  8
_0-1_ADD_LINE
  6
CONTINUOUS
 62
    7
 10
200.06436798495469
 20
167.57459805747735
 11
200.29812096978006
 21
167.95862081826192
  0
LINE
  8
_0-1_ADD_LINE
  6
CONTINUOUS
 62
    7
 10
200.29812096978006
 20
167.95862081826192
 11
200.71553701411113
 21
168.37603686259297
  0
LINE
  8
_0-1_ADD_LINE
  6
CONTINUOUS
 62
    7
 10
201.41679596858731
 20
168.10889059422109
 11
201.16634634198869
 21
167.97531746003514
  0
LINE
  8
_0-1_ADD_LINE
  6
CONTINUOUS
 62
    7
 10
201.16634634198869
 20
167.97531746003514
 11
201.03277320780273
 21
167.47441820683787
  0
LINE
  8
_0-1_ADD_LINE
  6
CONTINUOUS
 62
    7
 10
201.03277320780273
 20
167.47441820683787
 11
201.04946984957598
 21
166.77315925236169
  0
LINE
  8
_0-1_ADD_LINE
  6
CONTINUOUS
 62
    7
 10
201.04946984957598
 20
166.77315925236169
 11
201.24982955085488
 21
166.53940626753632
  0
LINE
  8
_0-1_ADD_LINE
  6
CONTINUOUS
 62
    7
 10
201.24982955085488
 20
166.53940626753632
 11
201.46688589390703
 21
166.47261970044335
  0
LINE
  8
_0-1_ADD_LINE
  6
CONTINUOUS
 62
    7
 10
201.46688589390703
 20
166.47261970044335
 11
201.80081872937188
 21
166.53940626753632
  0
LINE
  8
_0-1_ADD_LINE
  6
CONTINUOUS
 62
    7
 10
201.80081872937188
 20
166.53940626753632
 11
201.98448178887756
 21
166.8065525359082
  0
LINE
  8
_0-1_ADD_LINE
  6
CONTINUOUS
 62
    7
 10
201.98448178887756
 20
166.8065525359082
 11
202.10135828129026
 21
167.07369880428007
  0
LINE
  8
_0-1_ADD_LINE
  6
CONTINUOUS
 62
    7
 10
201.41679596858731
 20
168.10889059422109
 11
201.71733552050569
 21
168.19237380308729
  0
LINE
  8
_0-1_ADD_LINE
  6
CONTINUOUS
 62
    7
 10
198.26833602505602
 20
165.80881202901762
 11
198.78593192002654
 21
166.10935158093599
  0
LINE
  8
_0-1_ADD_LINE
  6
CONTINUOUS
 62
    7
 10
198.78593192002654
 20
166.10935158093599
 11
199.35361774031676
 21
166.12604822270922
  0
LINE
  8
_0-1_ADD_LINE
  6
CONTINUOUS
 62
    7
 10
199.45379759095621
 20
163.17074262884532
 11
198.86941512889274
 21
163.12065270352559
  0
LINE
  8
_0-1_ADD_LINE
  6
CONTINUOUS
 62
    7
 10
198.86941512889274
 20
163.12065270352559
 11
198.35181923392221
 21
163.42119225544397
  0
LINE
  8
_0-1_ADD_LINE
  6
CONTINUOUS
 62
    7
 10
198.35181923392221
 20
163.42119225544397
 11
198.16815617441657
 21
163.65494524026934
  0
LINE
  8
_0-1_ADD_LINE
  6
CONTINUOUS
 62
    7
 10
199.48719087450272
 20
165.75872210369789
 11
199.75433714287459
 21
165.67523889483169
  0
LINE
  8
_0-1_ADD_LINE
  6
CONTINUOUS
 62
    7
 10
199.48719087450272
 20
164.10575456814689
 11
199.13656139726461
 21
164.23932770233284
  0
LINE
  8
_0-1_ADD_LINE
  6
CONTINUOUS
 62
    7
 10
199.13656139726461
 20
164.23932770233284
 11
199.03638154662517
 21
164.60665382134417
  0
LINE
  8
_0-1_ADD_LINE
  6
CONTINUOUS
 62
    7
 10
199.03638154662517
 20
164.60665382134417
 11
199.06977483017164
 21
165.02406986567522
  0
LINE
  8
_0-1_ADD_LINE
  6
CONTINUOUS
 62
    7
 10
199.06977483017164
 20
165.02406986567522
 11
199.15325803903787
 21
165.52496911887249
  0
LINE
  8
_0-1_ADD_LINE
  6
CONTINUOUS
 62
    7
 10
199.15325803903787
 20
165.52496911887249
 11
199.48719087450272
 21
165.75872210369789
  0
LINE
  8
_0-1_ADD_LINE
  6
CONTINUOUS
 62
    7
 10
199.35361774031676
 20
166.12604822270922
 11
199.85451699351404
 21
166.00917173029654
  0
LINE
  8
_0-1_ADD_LINE
  6
CONTINUOUS
 62
    7
 10
199.85451699351404
 20
166.00917173029654
 11
200.15505654543242
 21
165.65854225305844
  0
LINE
  8
_0-1_ADD_LINE
  6
CONTINUOUS
 62
    7
 10
199.75433714287459
 20
165.67523889483169
 11
200.00478676947321
 21
165.39139598468657
  0
LINE
  8
_0-1_ADD_LINE
  6
CONTINUOUS
 62
    7
 10
200.00478676947321
 20
165.39139598468657
 11
200.03818005301972
 21
165.10755307454144
  0
LINE
  8
_0-1_ADD_LINE
  6
CONTINUOUS
 62
    7
 10
200.03818005301972
 20
165.10755307454144
 11
199.97139348592674
 21
164.70683367198362
  0
LINE
  8
_0-1_ADD_LINE
  6
CONTINUOUS
 62
    7
 10
199.97139348592674
 20
164.70683367198362
 11
199.80442706819431
 21
164.30611426942579
  0
LINE
  8
_0-1_ADD_LINE
  6
CONTINUOUS
 62
    7
 10
199.80442706819431
 20
164.30611426942579
 11
199.48719087450272
 21
164.10575456814689
  0
LINE
  8
_0-1_ADD_LINE
  6
CONTINUOUS
 62
    7
 10
199.90460691883376
 20
163.48797882253692
 11
199.45379759095621
 21
163.17074262884532
  0
LINE
  8
_0-1_ADD_LINE
  6
CONTINUOUS
 62
    7
 10
200.27193303784509
 20
163.93878815041447
 11
199.90460691883376
 21
163.48797882253692
  0
LINE
  8
_0-1_ADD_LINE
  6
CONTINUOUS
 62
    7
 10
200.37211288848457
 20
164.45638404538499
 11
200.27193303784509
 21
163.93878815041447
  0
LINE
  8
_0-1_ADD_LINE
  6
CONTINUOUS
 62
    7
 10
200.43889945557751
 20
165.05746314922172
 11
200.37211288848457
 21
164.45638404538499
  0
LINE
  8
_0-1_ADD_LINE
  6
CONTINUOUS
 62
    7
 10
200.15505654543242
 20
165.65854225305844
 11
200.43889945557751
 21
165.05746314922172
  0
LINE
  8
_0-1_ADD_LINE
  6
CONTINUOUS
 62
    7
 10
198.1970699213511
 20
161.49008614449883
 11
198.7146658163216
 21
161.79062569641721
  0
LINE
  8
_0-1_ADD_LINE
  6
CONTINUOUS
 62
    7
 10
198.7146658163216
 20
161.79062569641721
 11
199.28235163661185
 21
161.80732233819043
  0
LINE
  8
_0-1_ADD_LINE
  6
CONTINUOUS
 62
    7
 10
199.3825314872513
 20
158.85201674432653
 11
198.79814902518783
 21
158.80192681900681
  0
LINE
  8
_0-1_ADD_LINE
  6
CONTINUOUS
 62
    7
 10
198.79814902518783
 20
158.80192681900681
 11
198.2805531302173
 21
159.10246637092519
  0
LINE
  8
_0-1_ADD_LINE
  6
CONTINUOUS
 62
    7
 10
198.2805531302173
 20
159.10246637092519
 11
198.09689007071162
 21
159.33621935575056
  0
LINE
  8
_0-1_ADD_LINE
  6
CONTINUOUS
 62
    7
 10
199.41592477079777
 20
161.43999621917911
 11
199.68307103916965
 21
161.35651301031288
  0
LINE
  8
_0-1_ADD_LINE
  6
CONTINUOUS
 62
    7
 10
199.41592477079777
 20
159.78702868362811
 11
199.0652952935597
 21
159.92060181781406
  0
LINE
  8
_0-1_ADD_LINE
  6
CONTINUOUS
 62
    7
 10
199.0652952935597
 20
159.92060181781406
 11
198.96511544292022
 21
160.28792793682538
  0
LINE
  8
_0-1_ADD_LINE
  6
CONTINUOUS
 62
    7
 10
198.96511544292022
 20
160.28792793682538
 11
198.99850872646672
 21
160.70534398115643
  0
LINE
  8
_0-1_ADD_LINE
  6
CONTINUOUS
 62
    7
 10
198.99850872646672
 20
160.70534398115643
 11
199.08199193533292
 21
161.20624323435371
  0
LINE
  8
_0-1_ADD_LINE
  6
CONTINUOUS
 62
    7
 10
199.08199193533292
 20
161.20624323435371
 11
199.41592477079777
 21
161.43999621917911
  0
LINE
  8
_0-1_ADD_LINE
  6
CONTINUOUS
 62
    7
 10
199.28235163661185
 20
161.80732233819043
 11
199.78325088980912
 21
161.69044584577773
  0
LINE
  8
_0-1_ADD_LINE
  6
CONTINUOUS
 62
    7
 10
199.78325088980912
 20
161.69044584577773
 11
200.08379044172747
 21
161.33981636853966
  0
LINE
  8
_0-1_ADD_LINE
  6
CONTINUOUS
 62
    7
 10
199.68307103916965
 20
161.35651301031288
 11
199.9335206657683
 21
161.07267010016778
  0
LINE
  8
_0-1_ADD_LINE
  6
CONTINUOUS
 62
    7
 10
199.9335206657683
 20
161.07267010016778
 11
199.96691394931477
 21
160.78882719002266
  0
LINE
  8
_0-1_ADD_LINE
  6
CONTINUOUS
 62
    7
 10
199.96691394931477
 20
160.78882719002266
 11
199.9001273822218
 21
160.38810778746483
  0
LINE
  8
_0-1_ADD_LINE
  6
CONTINUOUS
 62
    7
 10
199.9001273822218
 20
160.38810778746483
 11
199.7331609644894
 21
159.98738838490704
  0
LINE
  8
_0-1_ADD_LINE
  6
CONTINUOUS
 62
    7
 10
199.7331609644894
 20
159.98738838490704
 11
199.41592477079777
 21
159.78702868362811
  0
LINE
  8
_0-1_ADD_LINE
  6
CONTINUOUS
 62
    7
 10
199.83334081512885
 20
159.16925293801813
 11
199.3825314872513
 21
158.85201674432653
  0
LINE
  8
_0-1_ADD_LINE
  6
CONTINUOUS
 62
    7
 10
200.20066693414017
 20
159.62006226589568
 11
199.83334081512885
 21
159.16925293801813
  0
LINE
  8
_0-1_ADD_LINE
  6
CONTINUOUS
 62
    7
 10
200.30084678477962
 20
160.13765816086621
 11
200.20066693414017
 21
159.62006226589568
  0
LINE
  8
_0-1_ADD_LINE
  6
CONTINUOUS
 62
    7
 10
200.3676333518726
 20
160.73873726470293
 11
200.30084678477962
 21
160.13765816086621
  0
LINE
  8
_0-1_ADD_LINE
  6
CONTINUOUS
 62
    7
 10
200.08379044172747
 20
161.33981636853966
 11
200.3676333518726
 21
160.73873726470293
  0
LINE
  8
_0-1_ADD_LINE
  6
CONTINUOUS
 62
    7
 10
198.16856347986911
 20
157.08584093553412
 11
198.68615937483963
 21
157.3863804874525
  0
LINE
  8
_0-1_ADD_LINE
  6
CONTINUOUS
 62
    7
 10
198.68615937483963
 20
157.3863804874525
 11
199.25384519512986
 21
157.40307712922575
  0
LINE
  8
_0-1_ADD_LINE
  6
CONTINUOUS
 62
    7
 10
199.35402504576933
 20
154.44777153536182
 11
198.76964258370583
 21
154.3976816100421
  0
LINE
  8
_0-1_ADD_LINE
  6
CONTINUOUS
 62
    7
 10
198.76964258370583
 20
154.3976816100421
 11
198.25204668873533
 21
154.69822116196048
  0
LINE
  8
_0-1_ADD_LINE
  6
CONTINUOUS
 62
    7
 10
198.25204668873533
 20
154.69822116196048
 11
198.06838362922966
 21
154.93197414678588
  0
LINE
  8
_0-1_ADD_LINE
  6
CONTINUOUS
 62
    7
 10
199.38741832931581
 20
157.0357510102144
 11
199.65456459768768
 21
156.9522678013482
  0
LINE
  8
_0-1_ADD_LINE
  6
CONTINUOUS
 62
    7
 10
199.38741832931581
 20
155.3827834746634
 11
199.03678885207771
 21
155.51635660884935
  0
LINE
  8
_0-1_ADD_LINE
  6
CONTINUOUS
 62
    7
 10
199.03678885207771
 20
155.51635660884935
 11
198.93660900143826
 21
155.88368272786067
  0
LINE
  8
_0-1_ADD_LINE
  6
CONTINUOUS
 62
    7
 10
198.93660900143826
 20
155.88368272786067
 11
198.97000228498476
 21
156.30109877219175
  0
LINE
  8
_0-1_ADD_LINE
  6
CONTINUOUS
 62
    7
 10
198.97000228498476
 20
156.30109877219175
 11
199.05348549385096
 21
156.80199802538903
  0
LINE
  8
_0-1_ADD_LINE
  6
CONTINUOUS
 62
    7
 10
199.05348549385096
 20
156.80199802538903
 11
199.38741832931581
 21
157.0357510102144
  0
LINE
  8
_0-1_ADD_LINE
  6
CONTINUOUS
 62
    7
 10
199.25384519512986
 20
157.40307712922575
 11
199.75474444832713
 21
157.28620063681305
  0
LINE
  8
_0-1_ADD_LINE
  6
CONTINUOUS
 62
    7
 10
199.75474444832713
 20
157.28620063681305
 11
200.05528400024551
 21
156.93557115957495
  0
LINE
  8
_0-1_ADD_LINE
  6
CONTINUOUS
 62
    7
 10
199.65456459768768
 20
156.9522678013482
 11
199.90501422428633
 21
156.66842489120307
  0
LINE
  8
_0-1_ADD_LINE
  6
CONTINUOUS
 62
    7
 10
199.90501422428633
 20
156.66842489120307
 11
199.93840750783281
 21
156.38458198105795
  0
LINE
  8
_0-1_ADD_LINE
  6
CONTINUOUS
 62
    7
 10
199.93840750783281
 20
156.38458198105795
 11
199.87162094073983
 21
155.98386257850012
  0
LINE
  8
_0-1_ADD_LINE
  6
CONTINUOUS
 62
    7
 10
199.87162094073983
 20
155.98386257850012
 11
199.70465452300741
 21
155.58314317594233
  0
LINE
  8
_0-1_ADD_LINE
  6
CONTINUOUS
 62
    7
 10
199.70465452300741
 20
155.58314317594233
 11
199.38741832931581
 21
155.3827834746634
  0
LINE
  8
_0-1_ADD_LINE
  6
CONTINUOUS
 62
    7
 10
199.80483437364686
 20
154.76500772905345
 11
199.35402504576933
 21
154.44777153536182
  0
LINE
  8
_0-1_ADD_LINE
  6
CONTINUOUS
 62
    7
 10
200.17216049265821
 20
155.21581705693097
 11
199.80483437364686
 21
154.76500772905345
  0
LINE
  8
_0-1_ADD_LINE
  6
CONTINUOUS
 62
    7
 10
200.27234034329766
 20
155.7334129519015
 11
200.17216049265821
 21
155.21581705693097
  0
LINE
  8
_0-1_ADD_LINE
  6
CONTINUOUS
 62
    7
 10
200.33912691039063
 20
156.33449205573822
 11
200.27234034329766
 21
155.7334129519015
  0
LINE
  8
_0-1_ADD_LINE
  6
CONTINUOUS
 62
    7
 10
200.05528400024551
 20
156.93557115957495
 11
200.33912691039063
 21
156.33449205573822
  0
LINE
  8
_0-1_ADD_LINE
  6
CONTINUOUS
 62
    7
 10
198.18281670061009
 20
152.74573521990388
 11
198.70041259558062
 21
153.04627477182223
  0
LINE
  8
_0-1_ADD_LINE
  6
CONTINUOUS
 62
    7
 10
198.70041259558062
 20
153.04627477182223
 11
199.26809841587087
 21
153.06297141359548
  0
LINE
  8
_0-1_ADD_LINE
  6
CONTINUOUS
 62
    7
 10
199.36827826651032
 20
150.10766581973158
 11
198.78389580444681
 21
150.05757589441185
  0
LINE
  8
_0-1_ADD_LINE
  6
CONTINUOUS
 62
    7
 10
198.78389580444681
 20
150.05757589441185
 11
198.26629990947632
 21
150.3581154463302
  0
LINE
  8
_0-1_ADD_LINE
  6
CONTINUOUS
 62
    7
 10
198.26629990947632
 20
150.3581154463302
 11
198.08263684997064
 21
150.5918684311556
  0
LINE
  8
_0-1_ADD_LINE
  6
CONTINUOUS
 62
    7
 10
199.40167155005679
 20
152.69564529458415
 11
199.66881781842866
 21
152.61216208571793
  0
LINE
  8
_0-1_ADD_LINE
  6
CONTINUOUS
 62
    7
 10
199.40167155005679
 20
151.04267775903315
 11
199.05104207281872
 21
151.17625089321908
  0
LINE
  8
_0-1_ADD_LINE
  6
CONTINUOUS
 62
    7
 10
199.05104207281872
 20
151.17625089321908
 11
198.95086222217924
 21
151.5435770122304
  0
LINE
  8
_0-1_ADD_LINE
  6
CONTINUOUS
 62
    7
 10
198.95086222217924
 20
151.5435770122304
 11
198.98425550572574
 21
151.96099305656148
  0
LINE
  8
_0-1_ADD_LINE
  6
CONTINUOUS
 62
    7
 10
198.98425550572574
 20
151.96099305656148
 11
199.06773871459194
 21
152.46189230975875
  0
LINE
  8
_0-1_ADD_LINE
  6
CONTINUOUS
 62
    7
 10
199.06773871459194
 20
152.46189230975875
 11
199.40167155005679
 21
152.69564529458415
  0
LINE
  8
_0-1_ADD_LINE
  6
CONTINUOUS
 62
    7
 10
199.26809841587087
 20
153.06297141359548
 11
199.76899766906811
 21
152.94609492118278
  0
LINE
  8
_0-1_ADD_LINE
  6
CONTINUOUS
 62
    7
 10
199.76899766906811
 20
152.94609492118278
 11
200.06953722098649
 21
152.59546544394468
  0
LINE
  8
_0-1_ADD_LINE
  6
CONTINUOUS
 62
    7
 10
199.66881781842866
 20
152.61216208571793
 11
199.91926744502732
 21
152.3283191755728
  0
LINE
  8
_0-1_ADD_LINE
  6
CONTINUOUS
 62
    7
 10
199.91926744502732
 20
152.3283191755728
 11
199.95266072857379
 21
152.04447626542768
  0
LINE
  8
_0-1_ADD_LINE
  6
CONTINUOUS
 62
    7
 10
199.95266072857379
 20
152.04447626542768
 11
199.88587416148081
 21
151.64375686286988
  0
LINE
  8
_0-1_ADD_LINE
  6
CONTINUOUS
 62
    7
 10
199.88587416148081
 20
151.64375686286988
 11
199.71890774374839
 21
151.24303746031205
  0
LINE
  8
_0-1_ADD_LINE
  6
CONTINUOUS
 62
    7
 10
199.71890774374839
 20
151.24303746031205
 11
199.40167155005679
 21
151.04267775903315
  0
LINE
  8
_0-1_ADD_LINE
  6
CONTINUOUS
 62
    7
 10
199.81908759438784
 20
150.42490201342318
 11
199.36827826651032
 21
150.10766581973158
  0
LINE
  8
_0-1_ADD_LINE
  6
CONTINUOUS
 62
    7
 10
200.18641371339919
 20
150.87571134130073
 11
199.81908759438784
 21
150.42490201342318
  0
LINE
  8
_0-1_ADD_LINE
  6
CONTINUOUS
 62
    7
 10
200.28659356403864
 20
151.39330723627123
 11
200.18641371339919
 21
150.87571134130073
  0
LINE
  8
_0-1_ADD_LINE
  6
CONTINUOUS
 62
    7
 10
200.35338013113162
 20
151.99438634010795
 11
200.28659356403864
 21
151.39330723627123
  0
LINE
  8
_0-1_ADD_LINE
  6
CONTINUOUS
 62
    7
 10
200.06953722098649
 20
152.59546544394468
 11
200.35338013113162
 21
151.99438634010795
  0
LINE
  8
_0-1_ADD_LINE
  6
CONTINUOUS
 62
    7
 10
198.18281670061009
 20
148.44126255612608
 11
198.70041259558062
 21
148.74180210804442
  0
LINE
  8
_0-1_ADD_LINE
  6
CONTINUOUS
 62
    7
 10
198.70041259558062
 20
148.74180210804442
 11
199.26809841587087
 21
148.75849874981768
  0
LINE
  8
_0-1_ADD_LINE
  6
CONTINUOUS
 62
    7
 10
199.36827826651032
 20
145.80319315595378
 11
198.78389580444681
 21
145.75310323063405
  0
LINE
  8
_0-1_ADD_LINE
  6
CONTINUOUS
 62
    7
 10
198.78389580444681
 20
145.75310323063405
 11
198.26629990947632
 21
146.0536427825524
  0
LINE
  8
_0-1_ADD_LINE
  6
CONTINUOUS
 62
    7
 10
198.26629990947632
 20
146.0536427825524
 11
198.08263684997064
 21
146.2873957673778
  0
LINE
  8
_0-1_ADD_LINE
  6
CONTINUOUS
 62
    7
 10
199.40167155005679
 20
148.39117263080635
 11
199.66881781842866
 21
148.30768942194013
  0
LINE
  8
_0-1_ADD_LINE
  6
CONTINUOUS
 62
    7
 10
199.40167155005679
 20
146.73820509525535
 11
199.05104207281872
 21
146.87177822944128
  0
LINE
  8
_0-1_ADD_LINE
  6
CONTINUOUS
 62
    7
 10
199.05104207281872
 20
146.87177822944128
 11
198.95086222217924
 21
147.2391043484526
  0
LINE
  8
_0-1_ADD_LINE
  6
CONTINUOUS
 62
    7
 10
198.95086222217924
 20
147.2391043484526
 11
198.98425550572574
 21
147.65652039278368
  0
LINE
  8
_0-1_ADD_LINE
  6
CONTINUOUS
 62
    7
 10
198.98425550572574
 20
147.65652039278368
 11
199.06773871459194
 21
148.15741964598095
  0
LINE
  8
_0-1_ADD_LINE
  6
CONTINUOUS
 62
    7
 10
199.06773871459194
 20
148.15741964598095
 11
199.40167155005679
 21
148.39117263080635
  0
LINE
  8
_0-1_ADD_LINE
  6
CONTINUOUS
 62
    7
 10
199.26809841587087
 20
148.75849874981768
 11
199.76899766906811
 21
148.64162225740498
  0
LINE
  8
_0-1_ADD_LINE
  6
CONTINUOUS
 62
    7
 10
199.76899766906811
 20
148.64162225740498
 11
200.06953722098649
 21
148.29099278016687
  0
LINE
  8
_0-1_ADD_LINE
  6
CONTINUOUS
 62
    7
 10
199.66881781842866
 20
148.30768942194013
 11
199.91926744502732
 21
148.023846511795
  0
LINE
  8
_0-1_ADD_LINE
  6
CONTINUOUS
 62
    7
 10
199.91926744502732
 20
148.023846511795
 11
199.95266072857379
 21
147.74000360164987
  0
LINE
  8
_0-1_ADD_LINE
  6
CONTINUOUS
 62
    7
 10
199.95266072857379
 20
147.74000360164987
 11
199.88587416148081
 21
147.33928419909208
  0
LINE
  8
_0-1_ADD_LINE
  6
CONTINUOUS
 62
    7
 10
199.88587416148081
 20
147.33928419909208
 11
199.71890774374839
 21
146.93856479653425
  0
LINE
  8
_0-1_ADD_LINE
  6
CONTINUOUS
 62
    7
 10
199.71890774374839
 20
146.93856479653425
 11
199.40167155005679
 21
146.73820509525535
  0
LINE
  8
_0-1_ADD_LINE
  6
CONTINUOUS
 62
    7
 10
199.81908759438784
 20
146.12042934964538
 11
199.36827826651032
 21
145.80319315595378
  0
LINE
  8
_0-1_ADD_LINE
  6
CONTINUOUS
 62
    7
 10
200.18641371339919
 20
146.57123867752293
 11
199.81908759438784
 21
146.12042934964538
  0
LINE
  8
_0-1_ADD_LINE
  6
CONTINUOUS
 62
    7
 10
200.28659356403864
 20
147.08883457249343
 11
200.18641371339919
 21
146.57123867752293
  0
LINE
  8
_0-1_ADD_LINE
  6
CONTINUOUS
 62
    7
 10
200.35338013113162
 20
147.68991367633015
 11
200.28659356403864
 21
147.08883457249343
  0
LINE
  8
_0-1_ADD_LINE
  6
CONTINUOUS
 62
    7
 10
200.06953722098649
 20
148.29099278016687
 11
200.35338013113162
 21
147.68991367633015
  0
LINE
  8
_0-1_ADD_LINE
  6
CONTINUOUS
 62
    7
 10
198.23982958357405
 20
139.81093739745899
 11
198.75742547854455
 21
140.11147694937733
  0
LINE
  8
_0-1_ADD_LINE
  6
CONTINUOUS
 62
    7
 10
198.75742547854455
 20
140.11147694937733
 11
199.3251112988348
 21
140.12817359115058
  0
LINE
  8
_0-1_ADD_LINE
  6
CONTINUOUS
 62
    7
 10
199.42529114947425
 20
137.17286799728669
 11
198.84090868741077
 21
137.12277807196696
  0
LINE
  8
_0-1_ADD_LINE
  6
CONTINUOUS
 62
    7
 10
198.84090868741077
 20
137.12277807196696
 11
198.32331279244025
 21
137.42331762388531
  0
LINE
  8
_0-1_ADD_LINE
  6
CONTINUOUS
 62
    7
 10
198.32331279244025
 20
137.42331762388531
 11
198.13964973293457
 21
137.65707060871071
  0
LINE
  8
_0-1_ADD_LINE
  6
CONTINUOUS
 62
    7
 10
199.45868443302072
 20
139.76084747213926
 11
199.72583070139262
 21
139.67736426327303
  0
LINE
  8
_0-1_ADD_LINE
  6
CONTINUOUS
 62
    7
 10
199.45868443302072
 20
138.10787993658826
 11
199.10805495578265
 21
138.24145307077418
  0
LINE
  8
_0-1_ADD_LINE
  6
CONTINUOUS
 62
    7
 10
199.10805495578265
 20
138.24145307077418
 11
199.0078751051432
 21
138.60877918978554
  0
LINE
  8
_0-1_ADD_LINE
  6
CONTINUOUS
 62
    7
 10
199.0078751051432
 20
138.60877918978554
 11
199.04126838868967
 21
139.02619523411659
  0
LINE
  8
_0-1_ADD_LINE
  6
CONTINUOUS
 62
    7
 10
199.04126838868967
 20
139.02619523411659
 11
199.1247515975559
 21
139.52709448731386
  0
LINE
  8
_0-1_ADD_LINE
  6
CONTINUOUS
 62
    7
 10
199.1247515975559
 20
139.52709448731386
 11
199.45868443302072
 21
139.76084747213926
  0
LINE
  8
_0-1_ADD_LINE
  6
CONTINUOUS
 62
    7
 10
199.3251112988348
 20
140.12817359115058
 11
199.82601055203207
 21
140.01129709873788
  0
LINE
  8
_0-1_ADD_LINE
  6
CONTINUOUS
 62
    7
 10
199.82601055203207
 20
140.01129709873788
 11
200.12655010395042
 21
139.66066762149981
  0
LINE
  8
_0-1_ADD_LINE
  6
CONTINUOUS
 62
    7
 10
199.72583070139262
 20
139.67736426327303
 11
199.97628032799125
 21
139.39352135312794
  0
LINE
  8
_0-1_ADD_LINE
  6
CONTINUOUS
 62
    7
 10
199.97628032799125
 20
139.39352135312794
 11
200.00967361153772
 21
139.10967844298281
  0
LINE
  8
_0-1_ADD_LINE
  6
CONTINUOUS
 62
    7
 10
200.00967361153772
 20
139.10967844298281
 11
199.94288704444477
 21
138.70895904042499
  0
LINE
  8
_0-1_ADD_LINE
  6
CONTINUOUS
 62
    7
 10
199.94288704444477
 20
138.70895904042499
 11
199.77592062671235
 21
138.30823963786716
  0
LINE
  8
_0-1_ADD_LINE
  6
CONTINUOUS
 62
    7
 10
199.77592062671235
 20
138.30823963786716
 11
199.45868443302072
 21
138.10787993658826
  0
LINE
  8
_0-1_ADD_LINE
  6
CONTINUOUS
 62
    7
 10
199.8761004773518
 20
137.49010419097829
 11
199.42529114947425
 21
137.17286799728669
  0
LINE
  8
_0-1_ADD_LINE
  6
CONTINUOUS
 62
    7
 10
200.24342659636312
 20
137.94091351885584
 11
199.8761004773518
 21
137.49010419097829
  0
LINE
  8
_0-1_ADD_LINE
  6
CONTINUOUS
 62
    7
 10
200.34360644700257
 20
138.45850941382633
 11
200.24342659636312
 21
137.94091351885584
  0
LINE
  8
_0-1_ADD_LINE
  6
CONTINUOUS
 62
    7
 10
200.41039301409555
 20
139.05958851766309
 11
200.34360644700257
 21
138.45850941382633
  0
LINE
  8
_0-1_ADD_LINE
  6
CONTINUOUS
 62
    7
 10
200.12655010395042
 20
139.66066762149981
 11
200.41039301409555
 21
139.05958851766309
  0
LINE
  8
_0-1_ADD_LINE
  6
CONTINUOUS
 62
    7
 10
198.1970699213511
 20
135.4922115129402
 11
198.7146658163216
 21
135.79275106485855
  0
LINE
  8
_0-1_ADD_LINE
  6
CONTINUOUS
 62
    7
 10
198.7146658163216
 20
135.79275106485855
 11
199.28235163661185
 21
135.8094477066318
  0
LINE
  8
_0-1_ADD_LINE
  6
CONTINUOUS
 62
    7
 10
199.3825314872513
 20
132.8541421127679
 11
198.79814902518783
 21
132.80405218744818
  0
LINE
  8
_0-1_ADD_LINE
  6
CONTINUOUS
 62
    7
 10
198.79814902518783
 20
132.80405218744818
 11
198.2805531302173
 21
133.10459173936653
  0
LINE
  8
_0-1_ADD_LINE
  6
CONTINUOUS
 62
    7
 10
198.2805531302173
 20
133.10459173936653
 11
198.09689007071162
 21
133.33834472419193
  0
LINE
  8
_0-1_ADD_LINE
  6
CONTINUOUS
 62
    7
 10
199.41592477079777
 20
135.44212158762048
 11
199.68307103916965
 21
135.35863837875425
  0
LINE
  8
_0-1_ADD_LINE
  6
CONTINUOUS
 62
    7
 10
199.41592477079777
 20
133.78915405206948
 11
199.0652952935597
 21
133.92272718625543
  0
LINE
  8
_0-1_ADD_LINE
  6
CONTINUOUS
 62
    7
 10
199.0652952935597
 20
133.92272718625543
 11
198.96511544292022
 21
134.29005330526675
  0
LINE
  8
_0-1_ADD_LINE
  6
CONTINUOUS
 62
    7
 10
198.96511544292022
 20
134.29005330526675
 11
198.99850872646672
 21
134.7074693495978
  0
LINE
  8
_0-1_ADD_LINE
  6
CONTINUOUS
 62
    7
 10
198.99850872646672
 20
134.7074693495978
 11
199.08199193533292
 21
135.20836860279508
  0
LINE
  8
_0-1_ADD_LINE
  6
CONTINUOUS
 62
    7
 10
199.08199193533292
 20
135.20836860279508
 11
199.41592477079777
 21
135.44212158762048
  0
LINE
  8
_0-1_ADD_LINE
  6
CONTINUOUS
 62
    7
 10
199.28235163661185
 20
135.8094477066318
 11
199.78325088980912
 21
135.6925712142191
  0
LINE
  8
_0-1_ADD_LINE
  6
CONTINUOUS
 62
    7
 10
199.78325088980912
 20
135.6925712142191
 11
200.08379044172747
 21
135.34194173698103
  0
LINE
  8
_0-1_ADD_LINE
  6
CONTINUOUS
 62
    7
 10
199.68307103916965
 20
135.35863837875425
 11
199.9335206657683
 21
135.07479546860912
  0
LINE
  8
_0-1_ADD_LINE
  6
CONTINUOUS
 62
    7
 10
199.9335206657683
 20
135.07479546860912
 11
199.96691394931477
 21
134.79095255846403
  0
LINE
  8
_0-1_ADD_LINE
  6
CONTINUOUS
 62
    7
 10
199.96691394931477
 20
134.79095255846403
 11
199.9001273822218
 21
134.3902331559062
  0
LINE
  8
_0-1_ADD_LINE
  6
CONTINUOUS
 62
    7
 10
199.9001273822218
 20
134.3902331559062
 11
199.7331609644894
 21
133.98951375334838
  0
LINE
  8
_0-1_ADD_LINE
  6
CONTINUOUS
 62
    7
 10
199.7331609644894
 20
133.98951375334838
 11
199.41592477079777
 21
133.78915405206948
  0
LINE
  8
_0-1_ADD_LINE
  6
CONTINUOUS
 62
    7
 10
199.83334081512885
 20
133.1713783064595
 11
199.3825314872513
 21
132.8541421127679
  0
LINE
  8
_0-1_ADD_LINE
  6
CONTINUOUS
 62
    7
 10
200.20066693414017
 20
133.62218763433705
 11
199.83334081512885
 21
133.1713783064595
  0
LINE
  8
_0-1_ADD_LINE
  6
CONTINUOUS
 62
    7
 10
200.30084678477962
 20
134.13978352930758
 11
200.20066693414017
 21
133.62218763433705
  0
LINE
  8
_0-1_ADD_LINE
  6
CONTINUOUS
 62
    7
 10
200.3676333518726
 20
134.74086263314427
 11
200.30084678477962
 21
134.13978352930758
  0
LINE
  8
_0-1_ADD_LINE
  6
CONTINUOUS
 62
    7
 10
200.08379044172747
 20
135.34194173698103
 11
200.3676333518726
 21
134.74086263314427
  0
LINE
  8
_0-1_ADD_LINE
  6
CONTINUOUS
 62
    7
 10
198.12580381764616
 20
131.066586472864
 11
198.64339971261666
 21
131.36712602478238
  0
LINE
  8
_0-1_ADD_LINE
  6
CONTINUOUS
 62
    7
 10
198.64339971261666
 20
131.36712602478238
 11
199.21108553290691
 21
131.38382266655563
  0
LINE
  8
_0-1_ADD_LINE
  6
CONTINUOUS
 62
    7
 10
199.31126538354636
 20
128.4285170726917
 11
198.72688292148288
 21
128.37842714737198
  0
LINE
  8
_0-1_ADD_LINE
  6
CONTINUOUS
 62
    7
 10
198.72688292148288
 20
128.37842714737198
 11
198.20928702651236
 21
128.67896669929036
  0
LINE
  8
_0-1_ADD_LINE
  6
CONTINUOUS
 62
    7
 10
198.20928702651236
 20
128.67896669929036
 11
198.02562396700671
 21
128.91271968411576
  0
LINE
  8
_0-1_ADD_LINE
  6
CONTINUOUS
 62
    7
 10
199.34465866709286
 20
131.01649654754428
 11
199.61180493546473
 21
130.93301333867808
  0
LINE
  8
_0-1_ADD_LINE
  6
CONTINUOUS
 62
    7
 10
199.34465866709286
 20
129.36352901199328
 11
198.99402918985476
 21
129.49710214617923
  0
LINE
  8
_0-1_ADD_LINE
  6
CONTINUOUS
 62
    7
 10
198.99402918985476
 20
129.49710214617923
 11
198.89384933921531
 21
129.86442826519055
  0
LINE
  8
_0-1_ADD_LINE
  6
CONTINUOUS
 62
    7
 10
198.89384933921531
 20
129.86442826519055
 11
198.92724262276178
 21
130.28184430952163
  0
LINE
  8
_0-1_ADD_LINE
  6
CONTINUOUS
 62
    7
 10
198.92724262276178
 20
130.28184430952163
 11
199.01072583162801
 21
130.78274356271891
  0
LINE
  8
_0-1_ADD_LINE
  6
CONTINUOUS
 62
    7
 10
199.01072583162801
 20
130.78274356271891
 11
199.34465866709286
 21
131.01649654754428
  0
LINE
  8
_0-1_ADD_LINE
  6
CONTINUOUS
 62
    7
 10
199.21108553290691
 20
131.38382266655563
 11
199.71198478610418
 21
131.26694617414293
  0
LINE
  8
_0-1_ADD_LINE
  6
CONTINUOUS
 62
    7
 10
199.71198478610418
 20
131.26694617414293
 11
200.01252433802256
 21
130.91631669690483
  0
LINE
  8
_0-1_ADD_LINE
  6
CONTINUOUS
 62
    7
 10
199.61180493546473
 20
130.93301333867808
 11
199.86225456206336
 21
130.64917042853295
  0
LINE
  8
_0-1_ADD_LINE
  6
CONTINUOUS
 62
    7
 10
199.86225456206336
 20
130.64917042853295
 11
199.89564784560986
 21
130.36532751838783
  0
LINE
  8
_0-1_ADD_LINE
  6
CONTINUOUS
 62
    7
 10
199.89564784560986
 20
130.36532751838783
 11
199.82886127851688
 21
129.96460811583
  0
LINE
  8
_0-1_ADD_LINE
  6
CONTINUOUS
 62
    7
 10
199.82886127851688
 20
129.96460811583
 11
199.66189486078446
 21
129.56388871327221
  0
LINE
  8
_0-1_ADD_LINE
  6
CONTINUOUS
 62
    7
 10
199.66189486078446
 20
129.56388871327221
 11
199.34465866709286
 21
129.36352901199328
  0
LINE
  8
_0-1_ADD_LINE
  6
CONTINUOUS
 62
    7
 10
199.76207471142391
 20
128.74575326638333
 11
199.31126538354636
 21
128.4285170726917
  0
LINE
  8
_0-1_ADD_LINE
  6
CONTINUOUS
 62
    7
 10
200.12940083043523
 20
129.19656259426085
 11
199.76207471142391
 21
128.74575326638333
  0
LINE
  8
_0-1_ADD_LINE
  6
CONTINUOUS
 62
    7
 10
200.22958068107471
 20
129.71415848923138
 11
200.12940083043523
 21
129.19656259426085
  0
LINE
  8
_0-1_ADD_LINE
  6
CONTINUOUS
 62
    7
 10
200.29636724816766
 20
130.3152375930681
 11
200.22958068107471
 21
129.71415848923138
  0
LINE
  8
_0-1_ADD_LINE
  6
CONTINUOUS
 62
    7
 10
200.01252433802256
 20
130.91631669690483
 11
200.29636724816766
 21
130.3152375930681
  0
LINE
  8
_0-1_ADD_LINE
  6
CONTINUOUS
 62
    7
 10
203.37613920580205
 20
168.60066539881507
 11
203.77685860835987
 21
168.70084524945452
  0
LINE
  8
_0-1_ADD_LINE
  6
CONTINUOUS
 62
    7
 10
203.77685860835987
 20
168.70084524945452
 11
204.19427465269092
 21
168.65075532413479
  0
LINE
  8
_0-1_ADD_LINE
  6
CONTINUOUS
 62
    7
 10
204.19427465269092
 20
168.65075532413479
 11
204.64508398056847
 21
168.45039562285586
  0
LINE
  8
_0-1_ADD_LINE
  6
CONTINUOUS
 62
    7
 10
204.64508398056847
 20
168.45039562285586
 11
204.9289268907136
 21
168.08306950384454
  0
LINE
  8
_0-1_ADD_LINE
  6
CONTINUOUS
 62
    7
 10
204.9289268907136
 20
168.08306950384454
 11
205.02910674135305
 21
167.44859711646131
  0
LINE
  8
_0-1_ADD_LINE
  6
CONTINUOUS
 62
    7
 10
205.02910674135305
 20
167.44859711646131
 11
204.96232017426007
 21
167.03118107213027
  0
LINE
  8
_0-1_ADD_LINE
  6
CONTINUOUS
 62
    7
 10
204.96232017426007
 20
167.03118107213027
 11
204.84544368184737
 21
166.44679861006679
  0
LINE
  8
_0-1_ADD_LINE
  6
CONTINUOUS
 62
    7
 10
204.84544368184737
 20
166.44679861006679
 11
204.52820748815577
 21
165.92920271509627
  0
LINE
  8
_0-1_ADD_LINE
  6
CONTINUOUS
 62
    7
 10
204.52820748815577
 20
165.92920271509627
 11
204.1441847273712
 21
165.72884301381737
  0
LINE
  8
_0-1_ADD_LINE
  6
CONTINUOUS
 62
    7
 10
204.1441847273712
 20
165.72884301381737
 11
203.52640898176122
 21
165.57857323785819
  0
LINE
  8
_0-1_ADD_LINE
  6
CONTINUOUS
 62
    7
 10
203.52640898176122
 20
165.57857323785819
 11
203.09229629565692
 21
165.84571950623007
  0
LINE
  8
_0-1_ADD_LINE
  6
CONTINUOUS
 62
    7
 10
203.09229629565692
 20
165.84571950623007
 11
202.77506010196532
 21
166.19634898346814
  0
LINE
  8
_0-1_ADD_LINE
  6
CONTINUOUS
 62
    7
 10
202.77506010196532
 20
166.19634898346814
 11
202.57470040068642
 21
167.19814748986269
  0
LINE
  8
_0-1_ADD_LINE
  6
CONTINUOUS
 62
    7
 10
202.57470040068642
 20
167.19814748986269
 11
202.7249701766456
 21
167.79922659369942
  0
LINE
  8
_0-1_ADD_LINE
  6
CONTINUOUS
 62
    7
 10
202.7249701766456
 20
167.79922659369942
 11
202.958723161471
 21
168.18324935448399
  0
LINE
  8
_0-1_ADD_LINE
  6
CONTINUOUS
 62
    7
 10
202.958723161471
 20
168.18324935448399
 11
203.37613920580205
 21
168.60066539881507
  0
LINE
  8
_0-1_ADD_LINE
  6
CONTINUOUS
 62
    7
 10
204.07739816027822
 20
168.33351913044316
 11
203.8269485336796
 21
168.19994599625724
  0
LINE
  8
_0-1_ADD_LINE
  6
CONTINUOUS
 62
    7
 10
203.8269485336796
 20
168.19994599625724
 11
203.69337539949365
 21
167.69904674305997
  0
LINE
  8
_0-1_ADD_LINE
  6
CONTINUOUS
 62
    7
 10
203.69337539949365
 20
167.69904674305997
 11
203.7100720412669
 21
166.99778778858379
  0
LINE
  8
_0-1_ADD_LINE
  6
CONTINUOUS
 62
    7
 10
203.7100720412669
 20
166.99778778858379
 11
203.9104317425458
 21
166.76403480375839
  0
LINE
  8
_0-1_ADD_LINE
  6
CONTINUOUS
 62
    7
 10
203.9104317425458
 20
166.76403480375839
 11
204.12748808559795
 21
166.69724823666542
  0
LINE
  8
_0-1_ADD_LINE
  6
CONTINUOUS
 62
    7
 10
204.12748808559795
 20
166.69724823666542
 11
204.4614209210628
 21
166.76403480375839
  0
LINE
  8
_0-1_ADD_LINE
  6
CONTINUOUS
 62
    7
 10
204.4614209210628
 20
166.76403480375839
 11
204.64508398056847
 21
167.03118107213027
  0
LINE
  8
_0-1_ADD_LINE
  6
CONTINUOUS
 62
    7
 10
204.64508398056847
 20
167.03118107213027
 11
204.76196047298117
 21
167.29832734050214
  0
LINE
  8
_0-1_ADD_LINE
  6
CONTINUOUS
 62
    7
 10
204.07739816027822
 20
168.33351913044316
 11
204.3779377121966
 21
168.41700233930939
  0
LINE
  8
_0-1_ADD_LINE
  6
CONTINUOUS
 62
    7
 10
205.37120857017035
 20
171.03908351082077
 11
205.77192797272818
 21
171.13926336146022
  0
LINE
  8
_0-1_ADD_LINE
  6
CONTINUOUS
 62
    7
 10
205.77192797272818
 20
171.13926336146022
 11
206.18934401705923
 21
171.0891734361405
  0
LINE
  8
_0-1_ADD_LINE
  6
CONTINUOUS
 62
    7
 10
206.18934401705923
 20
171.0891734361405
 11
206.64015334493678
 21
170.8888137348616
  0
LINE
  8
_0-1_ADD_LINE
  6
CONTINUOUS
 62
    7
 10
206.64015334493678
 20
170.8888137348616
 11
206.9239962550819
 21
170.52148761585025
  0
LINE
  8
_0-1_ADD_LINE
  6
CONTINUOUS
 62
    7
 10
206.9239962550819
 20
170.52148761585025
 11
207.02417610572135
 21
169.88701522846705
  0
LINE
  8
_0-1_ADD_LINE
  6
CONTINUOUS
 62
    7
 10
207.02417610572135
 20
169.88701522846705
 11
206.95738953862838
 21
169.46959918413597
  0
LINE
  8
_0-1_ADD_LINE
  6
CONTINUOUS
 62
    7
 10
206.95738953862838
 20
169.46959918413597
 11
206.84051304621568
 21
168.8852167220725
  0
LINE
  8
_0-1_ADD_LINE
  6
CONTINUOUS
 62
    7
 10
206.84051304621568
 20
168.8852167220725
 11
206.52327685252408
 21
168.367620827102
  0
LINE
  8
_0-1_ADD_LINE
  6
CONTINUOUS
 62
    7
 10
206.52327685252408
 20
168.367620827102
 11
206.1392540917395
 21
168.16726112582307
  0
LINE
  8
_0-1_ADD_LINE
  6
CONTINUOUS
 62
    7
 10
206.1392540917395
 20
168.16726112582307
 11
205.52147834612956
 21
168.0169913498639
  0
LINE
  8
_0-1_ADD_LINE
  6
CONTINUOUS
 62
    7
 10
205.52147834612956
 20
168.0169913498639
 11
205.08736566002523
 21
168.28413761823577
  0
LINE
  8
_0-1_ADD_LINE
  6
CONTINUOUS
 62
    7
 10
205.08736566002523
 20
168.28413761823577
 11
204.77012946633363
 21
168.63476709547388
  0
LINE
  8
_0-1_ADD_LINE
  6
CONTINUOUS
 62
    7
 10
204.77012946633363
 20
168.63476709547388
 11
204.56976976505473
 21
169.63656560186843
  0
LINE
  8
_0-1_ADD_LINE
  6
CONTINUOUS
 62
    7
 10
204.56976976505473
 20
169.63656560186843
 11
204.7200395410139
 21
170.23764470570512
  0
LINE
  8
_0-1_ADD_LINE
  6
CONTINUOUS
 62
    7
 10
204.7200395410139
 20
170.23764470570512
 11
204.9537925258393
 21
170.62166746648973
  0
LINE
  8
_0-1_ADD_LINE
  6
CONTINUOUS
 62
    7
 10
204.9537925258393
 20
170.62166746648973
 11
205.37120857017035
 21
171.03908351082077
  0
LINE
  8
_0-1_ADD_LINE
  6
CONTINUOUS
 62
    7
 10
206.07246752464656
 20
170.7719372424489
 11
205.8220178980479
 21
170.63836410826295
  0
LINE
  8
_0-1_ADD_LINE
  6
CONTINUOUS
 62
    7
 10
205.8220178980479
 20
170.63836410826295
 11
205.68844476386198
 21
170.13746485506567
  0
LINE
  8
_0-1_ADD_LINE
  6
CONTINUOUS
 62
    7
 10
205.68844476386198
 20
170.13746485506567
 11
205.7051414056352
 21
169.4362059005895
  0
LINE
  8
_0-1_ADD_LINE
  6
CONTINUOUS
 62
    7
 10
205.7051414056352
 20
169.4362059005895
 11
205.90550110691413
 21
169.2024529157641
  0
LINE
  8
_0-1_ADD_LINE
  6
CONTINUOUS
 62
    7
 10
205.90550110691413
 20
169.2024529157641
 11
206.12255744996628
 21
169.13566634867115
  0
LINE
  8
_0-1_ADD_LINE
  6
CONTINUOUS
 62
    7
 10
206.12255744996628
 20
169.13566634867115
 11
206.45649028543113
 21
169.2024529157641
  0
LINE
  8
_0-1_ADD_LINE
  6
CONTINUOUS
 62
    7
 10
206.45649028543113
 20
169.2024529157641
 11
206.64015334493678
 21
169.46959918413597
  0
LINE
  8
_0-1_ADD_LINE
  6
CONTINUOUS
 62
    7
 10
206.64015334493678
 20
169.46959918413597
 11
206.75702983734948
 21
169.73674545250788
  0
LINE
  8
_0-1_ADD_LINE
  6
CONTINUOUS
 62
    7
 10
206.07246752464656
 20
170.7719372424489
 11
206.3730070765649
 21
170.8554204513151
  0
LINE
  8
_0-1_ADD_LINE
  6
CONTINUOUS
 62
    7
 10
205.46621187323552
 20
166.57392826675834
 11
205.86693127579335
 21
166.67410811739782
  0
LINE
  8
_0-1_ADD_LINE
  6
CONTINUOUS
 62
    7
 10
205.86693127579335
 20
166.67410811739782
 11
206.2843473201244
 21
166.6240181920781
  0
LINE
  8
_0-1_ADD_LINE
  6
CONTINUOUS
 62
    7
 10
206.2843473201244
 20
166.6240181920781
 11
206.73515664800195
 21
166.42365849079917
  0
LINE
  8
_0-1_ADD_LINE
  6
CONTINUOUS
 62
    7
 10
206.73515664800195
 20
166.42365849079917
 11
207.01899955814707
 21
166.05633237178785
  0
LINE
  8
_0-1_ADD_LINE
  6
CONTINUOUS
 62
    7
 10
207.01899955814707
 20
166.05633237178785
 11
207.11917940878652
 21
165.42185998440462
  0
LINE
  8
_0-1_ADD_LINE
  6
CONTINUOUS
 62
    7
 10
207.11917940878652
 20
165.42185998440462
 11
207.05239284169355
 21
165.00444394007357
  0
LINE
  8
_0-1_ADD_LINE
  6
CONTINUOUS
 62
    7
 10
207.05239284169355
 20
165.00444394007357
 11
206.93551634928085
 21
164.4200614780101
  0
LINE
  8
_0-1_ADD_LINE
  6
CONTINUOUS
 62
    7
 10
206.93551634928085
 20
164.4200614780101
 11
206.61828015558925
 21
163.90246558303957
  0
LINE
  8
_0-1_ADD_LINE
  6
CONTINUOUS
 62
    7
 10
206.61828015558925
 20
163.90246558303957
 11
206.23425739480467
 21
163.70210588176067
  0
LINE
  8
_0-1_ADD_LINE
  6
CONTINUOUS
 62
    7
 10
206.23425739480467
 20
163.70210588176067
 11
205.6164816491947
 21
163.5518361058015
  0
LINE
  8
_0-1_ADD_LINE
  6
CONTINUOUS
 62
    7
 10
205.6164816491947
 20
163.5518361058015
 11
205.1823689630904
 21
163.81898237417337
  0
LINE
  8
_0-1_ADD_LINE
  6
CONTINUOUS
 62
    7
 10
205.1823689630904
 20
163.81898237417337
 11
204.8651327693988
 21
164.16961185141145
  0
LINE
  8
_0-1_ADD_LINE
  6
CONTINUOUS
 62
    7
 10
204.8651327693988
 20
164.16961185141145
 11
204.6647730681199
 21
165.171410357806
  0
LINE
  8
_0-1_ADD_LINE
  6
CONTINUOUS
 62
    7
 10
204.6647730681199
 20
165.171410357806
 11
204.81504284407907
 21
165.77248946164272
  0
LINE
  8
_0-1_ADD_LINE
  6
CONTINUOUS
 62
    7
 10
204.81504284407907
 20
165.77248946164272
 11
205.04879582890447
 21
166.1565122224273
  0
LINE
  8
_0-1_ADD_LINE
  6
CONTINUOUS
 62
    7
 10
205.04879582890447
 20
166.1565122224273
 11
205.46621187323552
 21
166.57392826675834
  0
LINE
  8
_0-1_ADD_LINE
  6
CONTINUOUS
 62
    7
 10
206.1674708277117
 20
166.30678199838647
 11
205.91702120111307
 21
166.17320886420055
  0
LINE
  8
_0-1_ADD_LINE
  6
CONTINUOUS
 62
    7
 10
205.91702120111307
 20
166.17320886420055
 11
205.78344806692712
 21
165.67230961100327
  0
LINE
  8
_0-1_ADD_LINE
  6
CONTINUOUS
 62
    7
 10
205.78344806692712
 20
165.67230961100327
 11
205.80014470870037
 21
164.9710506565271
  0
LINE
  8
_0-1_ADD_LINE
  6
CONTINUOUS
 62
    7
 10
205.80014470870037
 20
164.9710506565271
 11
206.00050440997927
 21
164.7372976717017
  0
LINE
  8
_0-1_ADD_LINE
  6
CONTINUOUS
 62
    7
 10
206.00050440997927
 20
164.7372976717017
 11
206.21756075303142
 21
164.67051110460872
  0
LINE
  8
_0-1_ADD_LINE
  6
CONTINUOUS
 62
    7
 10
206.21756075303142
 20
164.67051110460872
 11
206.55149358849627
 21
164.7372976717017
  0
LINE
  8
_0-1_ADD_LINE
  6
CONTINUOUS
 62
    7
 10
206.55149358849627
 20
164.7372976717017
 11
206.73515664800195
 21
165.00444394007357
  0
LINE
  8
_0-1_ADD_LINE
  6
CONTINUOUS
 62
    7
 10
206.73515664800195
 20
165.00444394007357
 11
206.85203314041465
 21
165.27159020844545
  0
LINE
  8
_0-1_ADD_LINE
  6
CONTINUOUS
 62
    7
 10
206.1674708277117
 20
166.30678199838647
 11
206.46801037963007
 21
166.3902652072527
  0
LINE
  8
_0-1_ADD_LINE
  6
CONTINUOUS
 62
    7
 10
203.42891881861601
 20
164.19884569012942
 11
203.82963822117384
 21
164.29902554076887
  0
LINE
  8
_0-1_ADD_LINE
  6
CONTINUOUS
 62
    7
 10
203.82963822117384
 20
164.29902554076887
 11
204.24705426550491
 21
164.24893561544914
  0
LINE
  8
_0-1_ADD_LINE
  6
CONTINUOUS
 62
    7
 10
204.24705426550491
 20
164.24893561544914
 11
204.69786359338244
 21
164.04857591417021
  0
LINE
  8
_0-1_ADD_LINE
  6
CONTINUOUS
 62
    7
 10
204.69786359338244
 20
164.04857591417021
 11
204.98170650352756
 21
163.68124979515889
  0
LINE
  8
_0-1_ADD_LINE
  6
CONTINUOUS
 62
    7
 10
204.98170650352756
 20
163.68124979515889
 11
205.08188635416701
 21
163.04677740777569
  0
LINE
  8
_0-1_ADD_LINE
  6
CONTINUOUS
 62
    7
 10
205.08188635416701
 20
163.04677740777569
 11
205.01509978707406
 21
162.62936136344462
  0
LINE
  8
_0-1_ADD_LINE
  6
CONTINUOUS
 62
    7
 10
205.01509978707406
 20
162.62936136344462
 11
204.89822329466136
 21
162.04497890138114
  0
LINE
  8
_0-1_ADD_LINE
  6
CONTINUOUS
 62
    7
 10
204.89822329466136
 20
162.04497890138114
 11
204.58098710096974
 21
161.52738300641062
  0
LINE
  8
_0-1_ADD_LINE
  6
CONTINUOUS
 62
    7
 10
204.58098710096974
 20
161.52738300641062
 11
204.19696434018516
 21
161.32702330513172
  0
LINE
  8
_0-1_ADD_LINE
  6
CONTINUOUS
 62
    7
 10
204.19696434018516
 20
161.32702330513172
 11
203.57918859457521
 21
161.17675352917254
  0
LINE
  8
_0-1_ADD_LINE
  6
CONTINUOUS
 62
    7
 10
203.57918859457521
 20
161.17675352917254
 11
203.14507590847091
 21
161.44389979754442
  0
LINE
  8
_0-1_ADD_LINE
  6
CONTINUOUS
 62
    7
 10
203.14507590847091
 20
161.44389979754442
 11
202.82783971477929
 21
161.79452927478252
  0
LINE
  8
_0-1_ADD_LINE
  6
CONTINUOUS
 62
    7
 10
202.82783971477929
 20
161.79452927478252
 11
202.62748001350039
 21
162.79632778117704
  0
LINE
  8
_0-1_ADD_LINE
  6
CONTINUOUS
 62
    7
 10
202.62748001350039
 20
162.79632778117704
 11
202.77774978945956
 21
163.39740688501377
  0
LINE
  8
_0-1_ADD_LINE
  6
CONTINUOUS
 62
    7
 10
202.77774978945956
 20
163.39740688501377
 11
203.01150277428496
 21
163.78142964579834
  0
LINE
  8
_0-1_ADD_LINE
  6
CONTINUOUS
 62
    7
 10
203.01150277428496
 20
163.78142964579834
 11
203.42891881861601
 21
164.19884569012942
  0
LINE
  8
_0-1_ADD_LINE
  6
CONTINUOUS
 62
    7
 10
204.13017777309221
 20
163.93169942175754
 11
203.87972814649356
 21
163.79812628757159
  0
LINE
  8
_0-1_ADD_LINE
  6
CONTINUOUS
 62
    7
 10
203.87972814649356
 20
163.79812628757159
 11
203.74615501230764
 21
163.29722703437432
  0
LINE
  8
_0-1_ADD_LINE
  6
CONTINUOUS
 62
    7
 10
203.74615501230764
 20
163.29722703437432
 11
203.76285165408086
 21
162.59596807989814
  0
LINE
  8
_0-1_ADD_LINE
  6
CONTINUOUS
 62
    7
 10
203.76285165408086
 20
162.59596807989814
 11
203.96321135535979
 21
162.36221509507274
  0
LINE
  8
_0-1_ADD_LINE
  6
CONTINUOUS
 62
    7
 10
203.96321135535979
 20
162.36221509507274
 11
204.18026769841194
 21
162.29542852797977
  0
LINE
  8
_0-1_ADD_LINE
  6
CONTINUOUS
 62
    7
 10
204.18026769841194
 20
162.29542852797977
 11
204.51420053387679
 21
162.36221509507274
  0
LINE
  8
_0-1_ADD_LINE
  6
CONTINUOUS
 62
    7
 10
204.51420053387679
 20
162.36221509507274
 11
204.69786359338244
 21
162.62936136344462
  0
LINE
  8
_0-1_ADD_LINE
  6
CONTINUOUS
 62
    7
 10
204.69786359338244
 20
162.62936136344462
 11
204.81474008579514
 21
162.89650763181649
  0
LINE
  8
_0-1_ADD_LINE
  6
CONTINUOUS
 62
    7
 10
204.13017777309221
 20
163.93169942175754
 11
204.43071732501056
 21
164.01518263062374
  0
LINE
  8
_0-1_ADD_LINE
  6
CONTINUOUS
 62
    7
 10
200.77938225535439
 20
164.07217461937586
 11
201.18010165791222
 21
164.17235447001531
  0
LINE
  8
_0-1_ADD_LINE
  6
CONTINUOUS
 62
    7
 10
201.18010165791222
 20
164.17235447001531
 11
201.59751770224327
 21
164.12226454469558
  0
LINE
  8
_0-1_ADD_LINE
  6
CONTINUOUS
 62
    7
 10
201.59751770224327
 20
164.12226454469558
 11
202.04832703012082
 21
163.92190484341668
  0
LINE
  8
_0-1_ADD_LINE
  6
CONTINUOUS
 62
    7
 10
202.04832703012082
 20
163.92190484341668
 11
202.33216994026594
 21
163.55457872440536
  0
LINE
  8
_0-1_ADD_LINE
  6
CONTINUOUS
 62
    7
 10
202.33216994026594
 20
163.55457872440536
 11
202.43234979090539
 21
162.92010633702213
  0
LINE
  8
_0-1_ADD_LINE
  6
CONTINUOUS
 62
    7
 10
202.43234979090539
 20
162.92010633702213
 11
202.36556322381244
 21
162.50269029269109
  0
LINE
  8
_0-1_ADD_LINE
  6
CONTINUOUS
 62
    7
 10
202.36556322381244
 20
162.50269029269109
 11
202.24868673139974
 21
161.91830783062761
  0
LINE
  8
_0-1_ADD_LINE
  6
CONTINUOUS
 62
    7
 10
202.24868673139974
 20
161.91830783062761
 11
201.93145053770812
 21
161.40071193565709
  0
LINE
  8
_0-1_ADD_LINE
  6
CONTINUOUS
 62
    7
 10
201.93145053770812
 20
161.40071193565709
 11
201.54742777692354
 21
161.20035223437819
  0
LINE
  8
_0-1_ADD_LINE
  6
CONTINUOUS
 62
    7
 10
201.54742777692354
 20
161.20035223437819
 11
200.92965203131359
 21
161.05008245841898
  0
LINE
  8
_0-1_ADD_LINE
  6
CONTINUOUS
 62
    7
 10
200.92965203131359
 20
161.05008245841898
 11
200.49553934520929
 21
161.31722872679086
  0
LINE
  8
_0-1_ADD_LINE
  6
CONTINUOUS
 62
    7
 10
200.49553934520929
 20
161.31722872679086
 11
200.17830315151767
 21
161.66785820402896
  0
LINE
  8
_0-1_ADD_LINE
  6
CONTINUOUS
 62
    7
 10
200.17830315151767
 20
161.66785820402896
 11
199.97794345023877
 21
162.66965671042351
  0
LINE
  8
_0-1_ADD_LINE
  6
CONTINUOUS
 62
    7
 10
199.97794345023877
 20
162.66965671042351
 11
200.12821322619794
 21
163.27073581426023
  0
LINE
  8
_0-1_ADD_LINE
  6
CONTINUOUS
 62
    7
 10
200.12821322619794
 20
163.27073581426023
 11
200.36196621102334
 21
163.65475857504481
  0
LINE
  8
_0-1_ADD_LINE
  6
CONTINUOUS
 62
    7
 10
200.36196621102334
 20
163.65475857504481
 11
200.77938225535439
 21
164.07217461937586
  0
LINE
  8
_0-1_ADD_LINE
  6
CONTINUOUS
 62
    7
 10
201.48064120983059
 20
163.80502835100398
 11
201.23019158323194
 21
163.67145521681806
  0
LINE
  8
_0-1_ADD_LINE
  6
CONTINUOUS
 62
    7
 10
201.23019158323194
 20
163.67145521681806
 11
201.09661844904602
 21
163.17055596362079
  0
LINE
  8
_0-1_ADD_LINE
  6
CONTINUOUS
 62
    7
 10
201.09661844904602
 20
163.17055596362079
 11
201.11331509081924
 21
162.46929700914461
  0
LINE
  8
_0-1_ADD_LINE
  6
CONTINUOUS
 62
    7
 10
201.11331509081924
 20
162.46929700914461
 11
201.31367479209817
 21
162.23554402431921
  0
LINE
  8
_0-1_ADD_LINE
  6
CONTINUOUS
 62
    7
 10
201.31367479209817
 20
162.23554402431921
 11
201.53073113515032
 21
162.16875745722623
  0
LINE
  8
_0-1_ADD_LINE
  6
CONTINUOUS
 62
    7
 10
201.53073113515032
 20
162.16875745722623
 11
201.86466397061517
 21
162.23554402431921
  0
LINE
  8
_0-1_ADD_LINE
  6
CONTINUOUS
 62
    7
 10
201.86466397061517
 20
162.23554402431921
 11
202.04832703012082
 21
162.50269029269109
  0
LINE
  8
_0-1_ADD_LINE
  6
CONTINUOUS
 62
    7
 10
202.04832703012082
 20
162.50269029269109
 11
202.16520352253352
 21
162.76983656106296
  0
LINE
  8
_0-1_ADD_LINE
  6
CONTINUOUS
 62
    7
 10
201.48064120983059
 20
163.80502835100398
 11
201.78118076174894
 21
163.88851155987021
  0
LINE
  8
_0-1_ADD_LINE
  6
CONTINUOUS
 62
    7
 10
205.44510002810992
 20
162.12988486782152
 11
205.84581943066775
 21
162.23006471846099
  0
LINE
  8
_0-1_ADD_LINE
  6
CONTINUOUS
 62
    7
 10
205.84581943066775
 20
162.23006471846099
 11
206.26323547499879
 21
162.17997479314124
  0
LINE
  8
_0-1_ADD_LINE
  6
CONTINUOUS
 62
    7
 10
206.26323547499879
 20
162.17997479314124
 11
206.71404480287634
 21
161.97961509186234
  0
LINE
  8
_0-1_ADD_LINE
  6
CONTINUOUS
 62
    7
 10
206.71404480287634
 20
161.97961509186234
 11
206.99788771302147
 21
161.61228897285102
  0
LINE
  8
_0-1_ADD_LINE
  6
CONTINUOUS
 62
    7
 10
206.99788771302147
 20
161.61228897285102
 11
207.09806756366092
 21
160.97781658546779
  0
LINE
  8
_0-1_ADD_LINE
  6
CONTINUOUS
 62
    7
 10
207.09806756366092
 20
160.97781658546779
 11
207.03128099656794
 21
160.56040054113674
  0
LINE
  8
_0-1_ADD_LINE
  6
CONTINUOUS
 62
    7
 10
207.03128099656794
 20
160.56040054113674
 11
206.91440450415527
 21
159.97601807907327
  0
LINE
  8
_0-1_ADD_LINE
  6
CONTINUOUS
 62
    7
 10
206.91440450415527
 20
159.97601807907327
 11
206.59716831046364
 21
159.45842218410274
  0
LINE
  8
_0-1_ADD_LINE
  6
CONTINUOUS
 62
    7
 10
206.59716831046364
 20
159.45842218410274
 11
206.21314554967907
 21
159.25806248282385
  0
LINE
  8
_0-1_ADD_LINE
  6
CONTINUOUS
 62
    7
 10
206.21314554967907
 20
159.25806248282385
 11
205.59536980406912
 21
159.10779270686464
  0
LINE
  8
_0-1_ADD_LINE
  6
CONTINUOUS
 62
    7
 10
205.59536980406912
 20
159.10779270686464
 11
205.16125711796482
 21
159.37493897523655
  0
LINE
  8
_0-1_ADD_LINE
  6
CONTINUOUS
 62
    7
 10
205.16125711796482
 20
159.37493897523655
 11
204.8440209242732
 21
159.72556845247462
  0
LINE
  8
_0-1_ADD_LINE
  6
CONTINUOUS
 62
    7
 10
204.8440209242732
 20
159.72556845247462
 11
204.6436612229943
 21
160.72736695886917
  0
LINE
  8
_0-1_ADD_LINE
  6
CONTINUOUS
 62
    7
 10
204.6436612229943
 20
160.72736695886917
 11
204.79393099895347
 21
161.32844606270589
  0
LINE
  8
_0-1_ADD_LINE
  6
CONTINUOUS
 62
    7
 10
204.79393099895347
 20
161.32844606270589
 11
205.02768398377887
 21
161.71246882349047
  0
LINE
  8
_0-1_ADD_LINE
  6
CONTINUOUS
 62
    7
 10
205.02768398377887
 20
161.71246882349047
 11
205.44510002810992
 21
162.12988486782152
  0
LINE
  8
_0-1_ADD_LINE
  6
CONTINUOUS
 62
    7
 10
206.14635898258612
 20
161.86273859944964
 11
205.89590935598747
 21
161.72916546526372
  0
LINE
  8
_0-1_ADD_LINE
  6
CONTINUOUS
 62
    7
 10
205.89590935598747
 20
161.72916546526372
 11
205.76233622180155
 21
161.22826621206644
  0
LINE
  8
_0-1_ADD_LINE
  6
CONTINUOUS
 62
    7
 10
205.76233622180155
 20
161.22826621206644
 11
205.77903286357477
 21
160.52700725759027
  0
LINE
  8
_0-1_ADD_LINE
  6
CONTINUOUS
 62
    7
 10
205.77903286357477
 20
160.52700725759027
 11
205.9793925648537
 21
160.29325427276487
  0
LINE
  8
_0-1_ADD_LINE
  6
CONTINUOUS
 62
    7
 10
205.9793925648537
 20
160.29325427276487
 11
206.19644890790585
 21
160.22646770567189
  0
LINE
  8
_0-1_ADD_LINE
  6
CONTINUOUS
 62
    7
 10
206.19644890790585
 20
160.22646770567189
 11
206.5303817433707
 21
160.29325427276487
  0
LINE
  8
_0-1_ADD_LINE
  6
CONTINUOUS
 62
    7
 10
206.5303817433707
 20
160.29325427276487
 11
206.71404480287634
 21
160.56040054113674
  0
LINE
  8
_0-1_ADD_LINE
  6
CONTINUOUS
 62
    7
 10
206.71404480287634
 20
160.56040054113674
 11
206.83092129528904
 21
160.82754680950862
  0
LINE
  8
_0-1_ADD_LINE
  6
CONTINUOUS
 62
    7
 10
206.14635898258612
 20
161.86273859944964
 11
206.44689853450447
 21
161.94622180831587
  0
LINE
  8
_0-1_ADD_LINE
  6
CONTINUOUS
 62
    7
 10
203.34447143811366
 20
159.73896840734838
 11
203.74519084067148
 21
159.83914825798786
  0
LINE
  8
_0-1_ADD_LINE
  6
CONTINUOUS
 62
    7
 10
203.74519084067148
 20
159.83914825798786
 11
204.16260688500253
 21
159.78905833266811
  0
LINE
  8
_0-1_ADD_LINE
  6
CONTINUOUS
 62
    7
 10
204.16260688500253
 20
159.78905833266811
 11
204.61341621288008
 21
159.58869863138921
  0
LINE
  8
_0-1_ADD_LINE
  6
CONTINUOUS
 62
    7
 10
204.61341621288008
 20
159.58869863138921
 11
204.89725912302521
 21
159.22137251237788
  0
LINE
  8
_0-1_ADD_LINE
  6
CONTINUOUS
 62
    7
 10
204.89725912302521
 20
159.22137251237788
 11
204.99743897366466
 21
158.58690012499466
  0
LINE
  8
_0-1_ADD_LINE
  6
CONTINUOUS
 62
    7
 10
204.99743897366466
 20
158.58690012499466
 11
204.93065240657168
 21
158.16948408066361
  0
LINE
  8
_0-1_ADD_LINE
  6
CONTINUOUS
 62
    7
 10
204.93065240657168
 20
158.16948408066361
 11
204.81377591415898
 21
157.58510161860013
  0
LINE
  8
_0-1_ADD_LINE
  6
CONTINUOUS
 62
    7
 10
204.81377591415898
 20
157.58510161860013
 11
204.49653972046738
 21
157.06750572362961
  0
LINE
  8
_0-1_ADD_LINE
  6
CONTINUOUS
 62
    7
 10
204.49653972046738
 20
157.06750572362961
 11
204.11251695968281
 21
156.86714602235071
  0
LINE
  8
_0-1_ADD_LINE
  6
CONTINUOUS
 62
    7
 10
204.11251695968281
 20
156.86714602235071
 11
203.49474121407283
 21
156.71687624639151
  0
LINE
  8
_0-1_ADD_LINE
  6
CONTINUOUS
 62
    7
 10
203.49474121407283
 20
156.71687624639151
 11
203.06062852796853
 21
156.98402251476341
  0
LINE
  8
_0-1_ADD_LINE
  6
CONTINUOUS
 62
    7
 10
203.06062852796853
 20
156.98402251476341
 11
202.74339233427693
 21
157.33465199200148
  0
LINE
  8
_0-1_ADD_LINE
  6
CONTINUOUS
 62
    7
 10
202.74339233427693
 20
157.33465199200148
 11
202.54303263299803
 21
158.33645049839603
  0
LINE
  8
_0-1_ADD_LINE
  6
CONTINUOUS
 62
    7
 10
202.54303263299803
 20
158.33645049839603
 11
202.69330240895721
 21
158.93752960223276
  0
LINE
  8
_0-1_ADD_LINE
  6
CONTINUOUS
 62
    7
 10
202.69330240895721
 20
158.93752960223276
 11
202.92705539378261
 21
159.32155236301733
  0
LINE
  8
_0-1_ADD_LINE
  6
CONTINUOUS
 62
    7
 10
202.92705539378261
 20
159.32155236301733
 11
203.34447143811366
 21
159.73896840734838
  0
LINE
  8
_0-1_ADD_LINE
  6
CONTINUOUS
 62
    7
 10
204.04573039258983
 20
159.47182213897651
 11
203.79528076599121
 21
159.33824900479058
  0
LINE
  8
_0-1_ADD_LINE
  6
CONTINUOUS
 62
    7
 10
203.79528076599121
 20
159.33824900479058
 11
203.66170763180526
 21
158.83734975159331
  0
LINE
  8
_0-1_ADD_LINE
  6
CONTINUOUS
 62
    7
 10
203.66170763180526
 20
158.83734975159331
 11
203.67840427357851
 21
158.13609079711713
  0
LINE
  8
_0-1_ADD_LINE
  6
CONTINUOUS
 62
    7
 10
203.67840427357851
 20
158.13609079711713
 11
203.87876397485741
 21
157.90233781229173
  0
LINE
  8
_0-1_ADD_LINE
  6
CONTINUOUS
 62
    7
 10
203.87876397485741
 20
157.90233781229173
 11
204.09582031790956
 21
157.83555124519876
  0
LINE
  8
_0-1_ADD_LINE
  6
CONTINUOUS
 62
    7
 10
204.09582031790956
 20
157.83555124519876
 11
204.42975315337441
 21
157.90233781229173
  0
LINE
  8
_0-1_ADD_LINE
  6
CONTINUOUS
 62
    7
 10
204.42975315337441
 20
157.90233781229173
 11
204.61341621288008
 21
158.16948408066361
  0
LINE
  8
_0-1_ADD_LINE
  6
CONTINUOUS
 62
    7
 10
204.61341621288008
 20
158.16948408066361
 11
204.73029270529278
 21
158.43663034903548
  0
LINE
  8
_0-1_ADD_LINE
  6
CONTINUOUS
 62
    7
 10
204.04573039258983
 20
159.47182213897651
 11
204.34626994450821
 21
159.55530534784273
  0
LINE
  8
_0-1_ADD_LINE
  6
CONTINUOUS
 62
    7
 10
200.69493487485204
 20
159.62285325915764
 11
201.09565427740986
 21
159.72303310979709
  0
LINE
  8
_0-1_ADD_LINE
  6
CONTINUOUS
 62
    7
 10
201.09565427740986
 20
159.72303310979709
 11
201.51307032174091
 21
159.67294318447736
  0
LINE
  8
_0-1_ADD_LINE
  6
CONTINUOUS
 62
    7
 10
201.51307032174091
 20
159.67294318447736
 11
201.96387964961846
 21
159.47258348319846
  0
LINE
  8
_0-1_ADD_LINE
  6
CONTINUOUS
 62
    7
 10
201.96387964961846
 20
159.47258348319846
 11
202.24772255976359
 21
159.10525736418714
  0
LINE
  8
_0-1_ADD_LINE
  6
CONTINUOUS
 62
    7
 10
202.24772255976359
 20
159.10525736418714
 11
202.34790241040304
 21
158.47078497680391
  0
LINE
  8
_0-1_ADD_LINE
  6
CONTINUOUS
 62
    7
 10
202.34790241040304
 20
158.47078497680391
 11
202.28111584331006
 21
158.05336893247286
  0
LINE
  8
_0-1_ADD_LINE
  6
CONTINUOUS
 62
    7
 10
202.28111584331006
 20
158.05336893247286
 11
202.16423935089736
 21
157.46898647040936
  0
LINE
  8
_0-1_ADD_LINE
  6
CONTINUOUS
 62
    7
 10
202.16423935089736
 20
157.46898647040936
 11
201.84700315720576
 21
156.95139057543886
  0
LINE
  8
_0-1_ADD_LINE
  6
CONTINUOUS
 62
    7
 10
201.84700315720576
 20
156.95139057543886
 11
201.46298039642119
 21
156.75103087415997
  0
LINE
  8
_0-1_ADD_LINE
  6
CONTINUOUS
 62
    7
 10
201.46298039642119
 20
156.75103087415997
 11
200.84520465081121
 21
156.60076109820076
  0
LINE
  8
_0-1_ADD_LINE
  6
CONTINUOUS
 62
    7
 10
200.84520465081121
 20
156.60076109820076
 11
200.41109196470691
 21
156.86790736657264
  0
LINE
  8
_0-1_ADD_LINE
  6
CONTINUOUS
 62
    7
 10
200.41109196470691
 20
156.86790736657264
 11
200.09385577101531
 21
157.21853684381074
  0
LINE
  8
_0-1_ADD_LINE
  6
CONTINUOUS
 62
    7
 10
200.09385577101531
 20
157.21853684381074
 11
199.89349606973641
 21
158.22033535020529
  0
LINE
  8
_0-1_ADD_LINE
  6
CONTINUOUS
 62
    7
 10
199.89349606973641
 20
158.22033535020529
 11
200.04376584569559
 21
158.82141445404201
  0
LINE
  8
_0-1_ADD_LINE
  6
CONTINUOUS
 62
    7
 10
200.04376584569559
 20
158.82141445404201
 11
200.27751883052099
 21
159.20543721482659
  0
LINE
  8
_0-1_ADD_LINE
  6
CONTINUOUS
 62
    7
 10
200.27751883052099
 20
159.20543721482659
 11
200.69493487485204
 21
159.62285325915764
  0
LINE
  8
_0-1_ADD_LINE
  6
CONTINUOUS
 62
    7
 10
201.39619382932821
 20
159.35570699078576
 11
201.14574420272959
 21
159.22213385659981
  0
LINE
  8
_0-1_ADD_LINE
  6
CONTINUOUS
 62
    7
 10
201.14574420272959
 20
159.22213385659981
 11
201.01217106854364
 21
158.72123460340256
  0
LINE
  8
_0-1_ADD_LINE
  6
CONTINUOUS
 62
    7
 10
201.01217106854364
 20
158.72123460340256
 11
201.02886771031689
 21
158.01997564892636
  0
LINE
  8
_0-1_ADD_LINE
  6
CONTINUOUS
 62
    7
 10
201.02886771031689
 20
158.01997564892636
 11
201.22922741159579
 21
157.78622266410099
  0
LINE
  8
_0-1_ADD_LINE
  6
CONTINUOUS
 62
    7
 10
201.22922741159579
 20
157.78622266410099
 11
201.44628375464794
 21
157.71943609700801
  0
LINE
  8
_0-1_ADD_LINE
  6
CONTINUOUS
 62
    7
 10
201.44628375464794
 20
157.71943609700801
 11
201.78021659011279
 21
157.78622266410099
  0
LINE
  8
_0-1_ADD_LINE
  6
CONTINUOUS
 62
    7
 10
201.78021659011279
 20
157.78622266410099
 11
201.96387964961846
 21
158.05336893247286
  0
LINE
  8
_0-1_ADD_LINE
  6
CONTINUOUS
 62
    7
 10
201.96387964961846
 20
158.05336893247286
 11
202.08075614203116
 21
158.32051520084474
  0
LINE
  8
_0-1_ADD_LINE
  6
CONTINUOUS
 62
    7
 10
201.39619382932821
 20
159.35570699078576
 11
201.69673338124659
 21
159.43919019965199
  0
LINE
  8
_0-1_ADD_LINE
  6
CONTINUOUS
 62
    7
 10
205.55065925373788
 20
157.64889573991491
 11
205.9513786562957
 21
157.74907559055438
  0
LINE
  8
_0-1_ADD_LINE
  6
CONTINUOUS
 62
    7
 10
205.9513786562957
 20
157.74907559055438
 11
206.36879470062675
 21
157.69898566523466
  0
LINE
  8
_0-1_ADD_LINE
  6
CONTINUOUS
 62
    7
 10
206.36879470062675
 20
157.69898566523466
 11
206.8196040285043
 21
157.49862596395573
  0
LINE
  8
_0-1_ADD_LINE
  6
CONTINUOUS
 62
    7
 10
206.8196040285043
 20
157.49862596395573
 11
207.10344693864943
 21
157.13129984494441
  0
LINE
  8
_0-1_ADD_LINE
  6
CONTINUOUS
 62
    7
 10
207.10344693864943
 20
157.13129984494441
 11
207.20362678928888
 21
156.49682745756121
  0
LINE
  8
_0-1_ADD_LINE
  6
CONTINUOUS
 62
    7
 10
207.20362678928888
 20
156.49682745756121
 11
207.1368402221959
 21
156.07941141323013
  0
LINE
  8
_0-1_ADD_LINE
  6
CONTINUOUS
 62
    7
 10
207.1368402221959
 20
156.07941141323013
 11
207.0199637297832
 21
155.49502895116666
  0
LINE
  8
_0-1_ADD_LINE
  6
CONTINUOUS
 62
    7
 10
207.0199637297832
 20
155.49502895116666
 11
206.7027275360916
 21
154.97743305619613
  0
LINE
  8
_0-1_ADD_LINE
  6
CONTINUOUS
 62
    7
 10
206.7027275360916
 20
154.97743305619613
 11
206.31870477530703
 21
154.77707335491723
  0
LINE
  8
_0-1_ADD_LINE
  6
CONTINUOUS
 62
    7
 10
206.31870477530703
 20
154.77707335491723
 11
205.70092902969705
 21
154.62680357895806
  0
LINE
  8
_0-1_ADD_LINE
  6
CONTINUOUS
 62
    7
 10
205.70092902969705
 20
154.62680357895806
 11
205.26681634359275
 21
154.89394984732994
  0
LINE
  8
_0-1_ADD_LINE
  6
CONTINUOUS
 62
    7
 10
205.26681634359275
 20
154.89394984732994
 11
204.94958014990115
 21
155.24457932456801
  0
LINE
  8
_0-1_ADD_LINE
  6
CONTINUOUS
 62
    7
 10
204.94958014990115
 20
155.24457932456801
 11
204.74922044862225
 21
156.24637783096256
  0
LINE
  8
_0-1_ADD_LINE
  6
CONTINUOUS
 62
    7
 10
204.74922044862225
 20
156.24637783096256
 11
204.89949022458143
 21
156.84745693479928
  0
LINE
  8
_0-1_ADD_LINE
  6
CONTINUOUS
 62
    7
 10
204.89949022458143
 20
156.84745693479928
 11
205.13324320940683
 21
157.23147969558386
  0
LINE
  8
_0-1_ADD_LINE
  6
CONTINUOUS
 62
    7
 10
205.13324320940683
 20
157.23147969558386
 11
205.55065925373788
 21
157.64889573991491
  0
LINE
  8
_0-1_ADD_LINE
  6
CONTINUOUS
 62
    7
 10
206.25191820821405
 20
157.38174947154303
 11
206.00146858161543
 21
157.24817633735711
  0
LINE
  8
_0-1_ADD_LINE
  6
CONTINUOUS
 62
    7
 10
206.00146858161543
 20
157.24817633735711
 11
205.86789544742948
 21
156.74727708415983
  0
LINE
  8
_0-1_ADD_LINE
  6
CONTINUOUS
 62
    7
 10
205.86789544742948
 20
156.74727708415983
 11
205.88459208920273
 21
156.04601812968366
  0
LINE
  8
_0-1_ADD_LINE
  6
CONTINUOUS
 62
    7
 10
205.88459208920273
 20
156.04601812968366
 11
206.08495179048163
 21
155.81226514485826
  0
LINE
  8
_0-1_ADD_LINE
  6
CONTINUOUS
 62
    7
 10
206.08495179048163
 20
155.81226514485826
 11
206.30200813353377
 21
155.74547857776528
  0
LINE
  8
_0-1_ADD_LINE
  6
CONTINUOUS
 62
    7
 10
206.30200813353377
 20
155.74547857776528
 11
206.63594096899863
 21
155.81226514485826
  0
LINE
  8
_0-1_ADD_LINE
  6
CONTINUOUS
 62
    7
 10
206.63594096899863
 20
155.81226514485826
 11
206.8196040285043
 21
156.07941141323013
  0
LINE
  8
_0-1_ADD_LINE
  6
CONTINUOUS
 62
    7
 10
206.8196040285043
 20
156.07941141323013
 11
206.936480520917
 21
156.34655768160201
  0
LINE
  8
_0-1_ADD_LINE
  6
CONTINUOUS
 62
    7
 10
206.25191820821405
 20
157.38174947154303
 11
206.55245776013243
 21
157.46523268040926
  0
LINE
  8
_0-1_ADD_LINE
  6
CONTINUOUS
 62
    7
 10
203.33391551555087
 20
155.36881646635112
 11
203.7346349181087
 21
155.4689963169906
  0
LINE
  8
_0-1_ADD_LINE
  6
CONTINUOUS
 62
    7
 10
203.7346349181087
 20
155.4689963169906
 11
204.15205096243974
 21
155.41890639167087
  0
LINE
  8
_0-1_ADD_LINE
  6
CONTINUOUS
 62
    7
 10
204.15205096243974
 20
155.41890639167087
 11
204.6028602903173
 21
155.21854669039195
  0
LINE
  8
_0-1_ADD_LINE
  6
CONTINUOUS
 62
    7
 10
204.6028602903173
 20
155.21854669039195
 11
204.88670320046242
 21
154.85122057138062
  0
LINE
  8
_0-1_ADD_LINE
  6
CONTINUOUS
 62
    7
 10
204.88670320046242
 20
154.85122057138062
 11
204.98688305110187
 21
154.2167481839974
  0
LINE
  8
_0-1_ADD_LINE
  6
CONTINUOUS
 62
    7
 10
204.98688305110187
 20
154.2167481839974
 11
204.92009648400889
 21
153.79933213966635
  0
LINE
  8
_0-1_ADD_LINE
  6
CONTINUOUS
 62
    7
 10
204.92009648400889
 20
153.79933213966635
 11
204.80321999159619
 21
153.21494967760287
  0
LINE
  8
_0-1_ADD_LINE
  6
CONTINUOUS
 62
    7
 10
204.80321999159619
 20
153.21494967760287
 11
204.48598379790459
 21
152.69735378263235
  0
LINE
  8
_0-1_ADD_LINE
  6
CONTINUOUS
 62
    7
 10
204.48598379790459
 20
152.69735378263235
 11
204.10196103712002
 21
152.49699408135345
  0
LINE
  8
_0-1_ADD_LINE
  6
CONTINUOUS
 62
    7
 10
204.10196103712002
 20
152.49699408135345
 11
203.48418529151004
 21
152.34672430539428
  0
LINE
  8
_0-1_ADD_LINE
  6
CONTINUOUS
 62
    7
 10
203.48418529151004
 20
152.34672430539428
 11
203.05007260540575
 21
152.61387057376615
  0
LINE
  8
_0-1_ADD_LINE
  6
CONTINUOUS
 62
    7
 10
203.05007260540575
 20
152.61387057376615
 11
202.73283641171415
 21
152.96450005100422
  0
LINE
  8
_0-1_ADD_LINE
  6
CONTINUOUS
 62
    7
 10
202.73283641171415
 20
152.96450005100422
 11
202.53247671043522
 21
153.96629855739877
  0
LINE
  8
_0-1_ADD_LINE
  6
CONTINUOUS
 62
    7
 10
202.53247671043522
 20
153.96629855739877
 11
202.68274648639442
 21
154.5673776612355
  0
LINE
  8
_0-1_ADD_LINE
  6
CONTINUOUS
 62
    7
 10
202.68274648639442
 20
154.5673776612355
 11
202.91649947121982
 21
154.95140042202007
  0
LINE
  8
_0-1_ADD_LINE
  6
CONTINUOUS
 62
    7
 10
202.91649947121982
 20
154.95140042202007
 11
203.33391551555087
 21
155.36881646635112
  0
LINE
  8
_0-1_ADD_LINE
  6
CONTINUOUS
 62
    7
 10
204.03517447002704
 20
155.10167019797925
 11
203.78472484342842
 21
154.96809706379332
  0
LINE
  8
_0-1_ADD_LINE
  6
CONTINUOUS
 62
    7
 10
203.78472484342842
 20
154.96809706379332
 11
203.65115170924247
 21
154.46719781059605
  0
LINE
  8
_0-1_ADD_LINE
  6
CONTINUOUS
 62
    7
 10
203.65115170924247
 20
154.46719781059605
 11
203.66784835101572
 21
153.76593885611987
  0
LINE
  8
_0-1_ADD_LINE
  6
CONTINUOUS
 62
    7
 10
203.66784835101572
 20
153.76593885611987
 11
203.86820805229462
 21
153.53218587129447
  0
LINE
  8
_0-1_ADD_LINE
  6
CONTINUOUS
 62
    7
 10
203.86820805229462
 20
153.53218587129447
 11
204.08526439534677
 21
153.4653993042015
  0
LINE
  8
_0-1_ADD_LINE
  6
CONTINUOUS
 62
    7
 10
204.08526439534677
 20
153.4653993042015
 11
204.41919723081162
 21
153.53218587129447
  0
LINE
  8
_0-1_ADD_LINE
  6
CONTINUOUS
 62
    7
 10
204.41919723081162
 20
153.53218587129447
 11
204.6028602903173
 21
153.79933213966635
  0
LINE
  8
_0-1_ADD_LINE
  6
CONTINUOUS
 62
    7
 10
204.6028602903173
 20
153.79933213966635
 11
204.71973678273
 21
154.06647840803822
  0
LINE
  8
_0-1_ADD_LINE
  6
CONTINUOUS
 62
    7
 10
204.03517447002704
 20
155.10167019797925
 11
204.33571402194542
 21
155.18515340684547
  0
LINE
  8
_0-1_ADD_LINE
  6
CONTINUOUS
 62
    7
 10
200.63159933947526
 20
155.34770462122555
 11
201.03231874203308
 21
155.447884471865
  0
LINE
  8
_0-1_ADD_LINE
  6
CONTINUOUS
 62
    7
 10
201.03231874203308
 20
155.447884471865
 11
201.44973478636413
 21
155.39779454654527
  0
LINE
  8
_0-1_ADD_LINE
  6
CONTINUOUS
 62
    7
 10
201.44973478636413
 20
155.39779454654527
 11
201.90054411424168
 21
155.19743484526637
  0
LINE
  8
_0-1_ADD_LINE
  6
CONTINUOUS
 62
    7
 10
201.90054411424168
 20
155.19743484526637
 11
202.18438702438681
 21
154.83010872625502
  0
LINE
  8
_0-1_ADD_LINE
  6
CONTINUOUS
 62
    7
 10
202.18438702438681
 20
154.83010872625502
 11
202.28456687502626
 21
154.19563633887182
  0
LINE
  8
_0-1_ADD_LINE
  6
CONTINUOUS
 62
    7
 10
202.28456687502626
 20
154.19563633887182
 11
202.21778030793328
 21
153.77822029454074
  0
LINE
  8
_0-1_ADD_LINE
  6
CONTINUOUS
 62
    7
 10
202.21778030793328
 20
153.77822029454074
 11
202.10090381552061
 21
153.19383783247727
  0
LINE
  8
_0-1_ADD_LINE
  6
CONTINUOUS
 62
    7
 10
202.10090381552061
 20
153.19383783247727
 11
201.78366762182898
 21
152.67624193750677
  0
LINE
  8
_0-1_ADD_LINE
  6
CONTINUOUS
 62
    7
 10
201.78366762182898
 20
152.67624193750677
 11
201.39964486104441
 21
152.47588223622785
  0
LINE
  8
_0-1_ADD_LINE
  6
CONTINUOUS
 62
    7
 10
201.39964486104441
 20
152.47588223622785
 11
200.78186911543446
 21
152.32561246026867
  0
LINE
  8
_0-1_ADD_LINE
  6
CONTINUOUS
 62
    7
 10
200.78186911543446
 20
152.32561246026867
 11
200.34775642933016
 21
152.59275872864055
  0
LINE
  8
_0-1_ADD_LINE
  6
CONTINUOUS
 62
    7
 10
200.34775642933016
 20
152.59275872864055
 11
200.03052023563853
 21
152.94338820587865
  0
LINE
  8
_0-1_ADD_LINE
  6
CONTINUOUS
 62
    7
 10
200.03052023563853
 20
152.94338820587865
 11
199.83016053435963
 21
153.9451867122732
  0
LINE
  8
_0-1_ADD_LINE
  6
CONTINUOUS
 62
    7
 10
199.83016053435963
 20
153.9451867122732
 11
199.98043031031881
 21
154.54626581610989
  0
LINE
  8
_0-1_ADD_LINE
  6
CONTINUOUS
 62
    7
 10
199.98043031031881
 20
154.54626581610989
 11
200.21418329514421
 21
154.9302885768945
  0
LINE
  8
_0-1_ADD_LINE
  6
CONTINUOUS
 62
    7
 10
200.21418329514421
 20
154.9302885768945
 11
200.63159933947526
 21
155.34770462122555
  0
LINE
  8
_0-1_ADD_LINE
  6
CONTINUOUS
 62
    7
 10
201.33285829395146
 20
155.08055835285367
 11
201.08240866735281
 21
154.94698521866772
  0
LINE
  8
_0-1_ADD_LINE
  6
CONTINUOUS
 62
    7
 10
201.08240866735281
 20
154.94698521866772
 11
200.94883553316686
 21
154.44608596547044
  0
LINE
  8
_0-1_ADD_LINE
  6
CONTINUOUS
 62
    7
 10
200.94883553316686
 20
154.44608596547044
 11
200.96553217494011
 21
153.74482701099427
  0
LINE
  8
_0-1_ADD_LINE
  6
CONTINUOUS
 62
    7
 10
200.96553217494011
 20
153.74482701099427
 11
201.16589187621904
 21
153.51107402616887
  0
LINE
  8
_0-1_ADD_LINE
  6
CONTINUOUS
 62
    7
 10
201.16589187621904
 20
153.51107402616887
 11
201.38294821927119
 21
153.44428745907592
  0
LINE
  8
_0-1_ADD_LINE
  6
CONTINUOUS
 62
    7
 10
201.38294821927119
 20
153.44428745907592
 11
201.71688105473604
 21
153.51107402616887
  0
LINE
  8
_0-1_ADD_LINE
  6
CONTINUOUS
 62
    7
 10
201.71688105473604
 20
153.51107402616887
 11
201.90054411424168
 21
153.77822029454074
  0
LINE
  8
_0-1_ADD_LINE
  6
CONTINUOUS
 62
    7
 10
201.90054411424168
 20
153.77822029454074
 11
202.01742060665438
 21
154.04536656291265
  0
LINE
  8
_0-1_ADD_LINE
  6
CONTINUOUS
 62
    7
 10
201.33285829395146
 20
155.08055835285367
 11
201.63339784586981
 21
155.16404156171987
  0
LINE
  8
_0-1_ADD_LINE
  6
CONTINUOUS
 62
    7
 10
205.39232041529596
 20
153.12568292175712
 11
205.79303981785378
 21
153.2258627723966
  0
LINE
  8
_0-1_ADD_LINE
  6
CONTINUOUS
 62
    7
 10
205.79303981785378
 20
153.2258627723966
 11
206.21045586218483
 21
153.17577284707684
  0
LINE
  8
_0-1_ADD_LINE
  6
CONTINUOUS
 62
    7
 10
206.21045586218483
 20
153.17577284707684
 11
206.66126519006238
 21
152.97541314579794
  0
LINE
  8
_0-1_ADD_LINE
  6
CONTINUOUS
 62
    7
 10
206.66126519006238
 20
152.97541314579794
 11
206.94510810020751
 21
152.60808702678662
  0
LINE
  8
_0-1_ADD_LINE
  6
CONTINUOUS
 62
    7
 10
206.94510810020751
 20
152.60808702678662
 11
207.04528795084696
 21
151.97361463940339
  0
LINE
  8
_0-1_ADD_LINE
  6
CONTINUOUS
 62
    7
 10
207.04528795084696
 20
151.97361463940339
 11
206.97850138375398
 21
151.55619859507235
  0
LINE
  8
_0-1_ADD_LINE
  6
CONTINUOUS
 62
    7
 10
206.97850138375398
 20
151.55619859507235
 11
206.86162489134128
 21
150.97181613300887
  0
LINE
  8
_0-1_ADD_LINE
  6
CONTINUOUS
 62
    7
 10
206.86162489134128
 20
150.97181613300887
 11
206.54438869764968
 21
150.45422023803835
  0
LINE
  8
_0-1_ADD_LINE
  6
CONTINUOUS
 62
    7
 10
206.54438869764968
 20
150.45422023803835
 11
206.16036593686511
 21
150.25386053675945
  0
LINE
  8
_0-1_ADD_LINE
  6
CONTINUOUS
 62
    7
 10
206.16036593686511
 20
150.25386053675945
 11
205.54259019125513
 21
150.10359076080024
  0
LINE
  8
_0-1_ADD_LINE
  6
CONTINUOUS
 62
    7
 10
205.54259019125513
 20
150.10359076080024
 11
205.10847750515083
 21
150.37073702917215
  0
LINE
  8
_0-1_ADD_LINE
  6
CONTINUOUS
 62
    7
 10
205.10847750515083
 20
150.37073702917215
 11
204.79124131145923
 21
150.72136650641022
  0
LINE
  8
_0-1_ADD_LINE
  6
CONTINUOUS
 62
    7
 10
204.79124131145923
 20
150.72136650641022
 11
204.5908816101803
 21
151.72316501280477
  0
LINE
  8
_0-1_ADD_LINE
  6
CONTINUOUS
 62
    7
 10
204.5908816101803
 20
151.72316501280477
 11
204.74115138613951
 21
152.32424411664149
  0
LINE
  8
_0-1_ADD_LINE
  6
CONTINUOUS
 62
    7
 10
204.74115138613951
 20
152.32424411664149
 11
204.97490437096491
 21
152.70826687742607
  0
LINE
  8
_0-1_ADD_LINE
  6
CONTINUOUS
 62
    7
 10
204.97490437096491
 20
152.70826687742607
 11
205.39232041529596
 21
153.12568292175712
  0
LINE
  8
_0-1_ADD_LINE
  6
CONTINUOUS
 62
    7
 10
206.09357936977213
 20
152.85853665338524
 11
205.84312974317351
 21
152.72496351919932
  0
LINE
  8
_0-1_ADD_LINE
  6
CONTINUOUS
 62
    7
 10
205.84312974317351
 20
152.72496351919932
 11
205.70955660898755
 21
152.22406426600205
  0
LINE
  8
_0-1_ADD_LINE
  6
CONTINUOUS
 62
    7
 10
205.70955660898755
 20
152.22406426600205
 11
205.72625325076081
 21
151.52280531152587
  0
LINE
  8
_0-1_ADD_LINE
  6
CONTINUOUS
 62
    7
 10
205.72625325076081
 20
151.52280531152587
 11
205.9266129520397
 21
151.28905232670047
  0
LINE
  8
_0-1_ADD_LINE
  6
CONTINUOUS
 62
    7
 10
205.9266129520397
 20
151.28905232670047
 11
206.14366929509185
 21
151.2222657596075
  0
LINE
  8
_0-1_ADD_LINE
  6
CONTINUOUS
 62
    7
 10
206.14366929509185
 20
151.2222657596075
 11
206.4776021305567
 21
151.28905232670047
  0
LINE
  8
_0-1_ADD_LINE
  6
CONTINUOUS
 62
    7
 10
206.4776021305567
 20
151.28905232670047
 11
206.66126519006238
 21
151.55619859507235
  0
LINE
  8
_0-1_ADD_LINE
  6
CONTINUOUS
 62
    7
 10
206.66126519006238
 20
151.55619859507235
 11
206.77814168247508
 21
151.82334486344422
  0
LINE
  8
_0-1_ADD_LINE
  6
CONTINUOUS
 62
    7
 10
206.09357936977213
 20
152.85853665338524
 11
206.39411892169051
 21
152.94201986225147
  0
LINE
  8
_0-1_ADD_LINE
  6
CONTINUOUS
 62
    7
 10
205.42398818298435
 20
148.75553098075986
 11
205.82470758554214
 21
148.85571083139934
  0
LINE
  8
_0-1_ADD_LINE
  6
CONTINUOUS
 62
    7
 10
205.82470758554214
 20
148.85571083139934
 11
206.24212362987322
 21
148.80562090607958
  0
LINE
  8
_0-1_ADD_LINE
  6
CONTINUOUS
 62
    7
 10
206.24212362987322
 20
148.80562090607958
 11
206.69293295775077
 21
148.60526120480068
  0
LINE
  8
_0-1_ADD_LINE
  6
CONTINUOUS
 62
    7
 10
206.69293295775077
 20
148.60526120480068
 11
206.97677586789587
 21
148.23793508578936
  0
LINE
  8
_0-1_ADD_LINE
  6
CONTINUOUS
 62
    7
 10
206.97677586789587
 20
148.23793508578936
 11
207.07695571853534
 21
147.60346269840613
  0
LINE
  8
_0-1_ADD_LINE
  6
CONTINUOUS
 62
    7
 10
207.07695571853534
 20
147.60346269840613
 11
207.01016915144237
 21
147.18604665407508
  0
LINE
  8
_0-1_ADD_LINE
  6
CONTINUOUS
 62
    7
 10
207.01016915144237
 20
147.18604665407508
 11
206.89329265902967
 21
146.60166419201161
  0
LINE
  8
_0-1_ADD_LINE
  6
CONTINUOUS
 62
    7
 10
206.89329265902967
 20
146.60166419201161
 11
206.57605646533807
 21
146.08406829704109
  0
LINE
  8
_0-1_ADD_LINE
  6
CONTINUOUS
 62
    7
 10
206.57605646533807
 20
146.08406829704109
 11
206.19203370455349
 21
145.88370859576219
  0
LINE
  8
_0-1_ADD_LINE
  6
CONTINUOUS
 62
    7
 10
206.19203370455349
 20
145.88370859576219
 11
205.57425795894352
 21
145.73343881980298
  0
LINE
  8
_0-1_ADD_LINE
  6
CONTINUOUS
 62
    7
 10
205.57425795894352
 20
145.73343881980298
 11
205.14014527283922
 21
146.00058508817489
  0
LINE
  8
_0-1_ADD_LINE
  6
CONTINUOUS
 62
    7
 10
205.14014527283922
 20
146.00058508817489
 11
204.82290907914762
 21
146.35121456541296
  0
LINE
  8
_0-1_ADD_LINE
  6
CONTINUOUS
 62
    7
 10
204.82290907914762
 20
146.35121456541296
 11
204.62254937786869
 21
147.35301307180751
  0
LINE
  8
_0-1_ADD_LINE
  6
CONTINUOUS
 62
    7
 10
204.62254937786869
 20
147.35301307180751
 11
204.7728191538279
 21
147.95409217564423
  0
LINE
  8
_0-1_ADD_LINE
  6
CONTINUOUS
 62
    7
 10
204.7728191538279
 20
147.95409217564423
 11
205.00657213865327
 21
148.33811493642881
  0
LINE
  8
_0-1_ADD_LINE
  6
CONTINUOUS
 62
    7
 10
205.00657213865327
 20
148.33811493642881
 11
205.42398818298435
 21
148.75553098075986
  0
LINE
  8
_0-1_ADD_LINE
  6
CONTINUOUS
 62
    7
 10
206.12524713746052
 20
148.48838471238798
 11
205.87479751086187
 21
148.35481157820206
  0
LINE
  8
_0-1_ADD_LINE
  6
CONTINUOUS
 62
    7
 10
205.87479751086187
 20
148.35481157820206
 11
205.74122437667594
 21
147.85391232500479
  0
LINE
  8
_0-1_ADD_LINE
  6
CONTINUOUS
 62
    7
 10
205.74122437667594
 20
147.85391232500479
 11
205.7579210184492
 21
147.15265337052861
  0
LINE
  8
_0-1_ADD_LINE
  6
CONTINUOUS
 62
    7
 10
205.7579210184492
 20
147.15265337052861
 11
205.95828071972809
 21
146.91890038570321
  0
LINE
  8
_0-1_ADD_LINE
  6
CONTINUOUS
 62
    7
 10
205.95828071972809
 20
146.91890038570321
 11
206.17533706278024
 21
146.85211381861023
  0
LINE
  8
_0-1_ADD_LINE
  6
CONTINUOUS
 62
    7
 10
206.17533706278024
 20
146.85211381861023
 11
206.50926989824509
 21
146.91890038570321
  0
LINE
  8
_0-1_ADD_LINE
  6
CONTINUOUS
 62
    7
 10
206.50926989824509
 20
146.91890038570321
 11
206.69293295775077
 21
147.18604665407508
  0
LINE
  8
_0-1_ADD_LINE
  6
CONTINUOUS
 62
    7
 10
206.69293295775077
 20
147.18604665407508
 11
206.80980945016347
 21
147.45319292244696
  0
LINE
  8
_0-1_ADD_LINE
  6
CONTINUOUS
 62
    7
 10
206.12524713746052
 20
148.48838471238798
 11
206.42578668937887
 21
148.57186792125421
  0
LINE
  8
_0-1_ADD_LINE
  6
CONTINUOUS
 62
    7
 10
203.31280367042527
 20
146.52823132001006
 11
203.71352307298309
 21
146.62841117064951
  0
LINE
  8
_0-1_ADD_LINE
  6
CONTINUOUS
 62
    7
 10
203.71352307298309
 20
146.62841117064951
 11
204.13093911731414
 21
146.57832124532979
  0
LINE
  8
_0-1_ADD_LINE
  6
CONTINUOUS
 62
    7
 10
204.13093911731414
 20
146.57832124532979
 11
204.58174844519169
 21
146.37796154405089
  0
LINE
  8
_0-1_ADD_LINE
  6
CONTINUOUS
 62
    7
 10
204.58174844519169
 20
146.37796154405089
 11
204.86559135533682
 21
146.01063542503954
  0
LINE
  8
_0-1_ADD_LINE
  6
CONTINUOUS
 62
    7
 10
204.86559135533682
 20
146.01063542503954
 11
204.96577120597627
 21
145.37616303765634
  0
LINE
  8
_0-1_ADD_LINE
  6
CONTINUOUS
 62
    7
 10
204.96577120597627
 20
145.37616303765634
 11
204.89898463888329
 21
144.95874699332526
  0
LINE
  8
_0-1_ADD_LINE
  6
CONTINUOUS
 62
    7
 10
204.89898463888329
 20
144.95874699332526
 11
204.78210814647059
 21
144.37436453126179
  0
LINE
  8
_0-1_ADD_LINE
  6
CONTINUOUS
 62
    7
 10
204.78210814647059
 20
144.37436453126179
 11
204.46487195277899
 21
143.85676863629129
  0
LINE
  8
_0-1_ADD_LINE
  6
CONTINUOUS
 62
    7
 10
204.46487195277899
 20
143.85676863629129
 11
204.08084919199442
 21
143.65640893501237
  0
LINE
  8
_0-1_ADD_LINE
  6
CONTINUOUS
 62
    7
 10
204.08084919199442
 20
143.65640893501237
 11
203.46307344638447
 21
143.50613915905319
  0
LINE
  8
_0-1_ADD_LINE
  6
CONTINUOUS
 62
    7
 10
203.46307344638447
 20
143.50613915905319
 11
203.02896076028014
 21
143.77328542742507
  0
LINE
  8
_0-1_ADD_LINE
  6
CONTINUOUS
 62
    7
 10
203.02896076028014
 20
143.77328542742507
 11
202.71172456658854
 21
144.12391490466317
  0
LINE
  8
_0-1_ADD_LINE
  6
CONTINUOUS
 62
    7
 10
202.71172456658854
 20
144.12391490466317
 11
202.51136486530964
 21
145.12571341105769
  0
LINE
  8
_0-1_ADD_LINE
  6
CONTINUOUS
 62
    7
 10
202.51136486530964
 20
145.12571341105769
 11
202.66163464126882
 21
145.72679251489441
  0
LINE
  8
_0-1_ADD_LINE
  6
CONTINUOUS
 62
    7
 10
202.66163464126882
 20
145.72679251489441
 11
202.89538762609422
 21
146.11081527567899
  0
LINE
  8
_0-1_ADD_LINE
  6
CONTINUOUS
 62
    7
 10
202.89538762609422
 20
146.11081527567899
 11
203.31280367042527
 21
146.52823132001006
  0
LINE
  8
_0-1_ADD_LINE
  6
CONTINUOUS
 62
    7
 10
204.01406262490147
 20
146.26108505163819
 11
203.76361299830282
 21
146.12751191745224
  0
LINE
  8
_0-1_ADD_LINE
  6
CONTINUOUS
 62
    7
 10
203.76361299830282
 20
146.12751191745224
 11
203.6300398641169
 21
145.62661266425496
  0
LINE
  8
_0-1_ADD_LINE
  6
CONTINUOUS
 62
    7
 10
203.6300398641169
 20
145.62661266425496
 11
203.64673650589012
 21
144.92535370977879
  0
LINE
  8
_0-1_ADD_LINE
  6
CONTINUOUS
 62
    7
 10
203.64673650589012
 20
144.92535370977879
 11
203.84709620716905
 21
144.69160072495339
  0
LINE
  8
_0-1_ADD_LINE
  6
CONTINUOUS
 62
    7
 10
203.84709620716905
 20
144.69160072495339
 11
204.06415255022119
 21
144.62481415786044
  0
LINE
  8
_0-1_ADD_LINE
  6
CONTINUOUS
 62
    7
 10
204.06415255022119
 20
144.62481415786044
 11
204.39808538568604
 21
144.69160072495339
  0
LINE
  8
_0-1_ADD_LINE
  6
CONTINUOUS
 62
    7
 10
204.39808538568604
 20
144.69160072495339
 11
204.58174844519169
 21
144.95874699332526
  0
LINE
  8
_0-1_ADD_LINE
  6
CONTINUOUS
 62
    7
 10
204.58174844519169
 20
144.95874699332526
 11
204.69862493760439
 21
145.22589326169714
  0
LINE
  8
_0-1_ADD_LINE
  6
CONTINUOUS
 62
    7
 10
204.01406262490147
 20
146.26108505163819
 11
204.31460217681982
 21
146.34456826050439
  0
LINE
  8
_0-1_ADD_LINE
  6
CONTINUOUS
 62
    7
 10
200.66326710716365
 20
146.60212277794963
 11
201.06398650972147
 21
146.70230262858908
  0
LINE
  8
_0-1_ADD_LINE
  6
CONTINUOUS
 62
    7
 10
201.06398650972147
 20
146.70230262858908
 11
201.48140255405252
 21
146.65221270326936
  0
LINE
  8
_0-1_ADD_LINE
  6
CONTINUOUS
 62
    7
 10
201.48140255405252
 20
146.65221270326936
 11
201.93221188193007
 21
146.45185300199046
  0
LINE
  8
_0-1_ADD_LINE
  6
CONTINUOUS
 62
    7
 10
201.93221188193007
 20
146.45185300199046
 11
202.2160547920752
 21
146.08452688297911
  0
LINE
  8
_0-1_ADD_LINE
  6
CONTINUOUS
 62
    7
 10
202.2160547920752
 20
146.08452688297911
 11
202.31623464271465
 21
145.45005449559591
  0
LINE
  8
_0-1_ADD_LINE
  6
CONTINUOUS
 62
    7
 10
202.31623464271465
 20
145.45005449559591
 11
202.24944807562167
 21
145.03263845126483
  0
LINE
  8
_0-1_ADD_LINE
  6
CONTINUOUS
 62
    7
 10
202.24944807562167
 20
145.03263845126483
 11
202.13257158320897
 21
144.44825598920136
  0
LINE
  8
_0-1_ADD_LINE
  6
CONTINUOUS
 62
    7
 10
202.13257158320897
 20
144.44825598920136
 11
201.81533538951737
 21
143.93066009423086
  0
LINE
  8
_0-1_ADD_LINE
  6
CONTINUOUS
 62
    7
 10
201.81533538951737
 20
143.93066009423086
 11
201.4313126287328
 21
143.73030039295193
  0
LINE
  8
_0-1_ADD_LINE
  6
CONTINUOUS
 62
    7
 10
201.4313126287328
 20
143.73030039295193
 11
200.81353688312282
 21
143.58003061699276
  0
LINE
  8
_0-1_ADD_LINE
  6
CONTINUOUS
 62
    7
 10
200.81353688312282
 20
143.58003061699276
 11
200.37942419701852
 21
143.84717688536463
  0
LINE
  8
_0-1_ADD_LINE
  6
CONTINUOUS
 62
    7
 10
200.37942419701852
 20
143.84717688536463
 11
200.06218800332692
 21
144.19780636260273
  0
LINE
  8
_0-1_ADD_LINE
  6
CONTINUOUS
 62
    7
 10
200.06218800332692
 20
144.19780636260273
 11
199.86182830204802
 21
145.19960486899726
  0
LINE
  8
_0-1_ADD_LINE
  6
CONTINUOUS
 62
    7
 10
199.86182830204802
 20
145.19960486899726
 11
200.0120980780072
 21
145.80068397283398
  0
LINE
  8
_0-1_ADD_LINE
  6
CONTINUOUS
 62
    7
 10
200.0120980780072
 20
145.80068397283398
 11
200.2458510628326
 21
146.18470673361855
  0
LINE
  8
_0-1_ADD_LINE
  6
CONTINUOUS
 62
    7
 10
200.2458510628326
 20
146.18470673361855
 11
200.66326710716365
 21
146.60212277794963
  0
LINE
  8
_0-1_ADD_LINE
  6
CONTINUOUS
 62
    7
 10
201.36452606163982
 20
146.33497650957776
 11
201.1140764350412
 21
146.20140337539181
  0
LINE
  8
_0-1_ADD_LINE
  6
CONTINUOUS
 62
    7
 10
201.1140764350412
 20
146.20140337539181
 11
200.98050330085525
 21
145.70050412219453
  0
LINE
  8
_0-1_ADD_LINE
  6
CONTINUOUS
 62
    7
 10
200.98050330085525
 20
145.70050412219453
 11
200.9971999426285
 21
144.99924516771836
  0
LINE
  8
_0-1_ADD_LINE
  6
CONTINUOUS
 62
    7
 10
200.9971999426285
 20
144.99924516771836
 11
201.19755964390743
 21
144.76549218289296
  0
LINE
  8
_0-1_ADD_LINE
  6
CONTINUOUS
 62
    7
 10
201.19755964390743
 20
144.76549218289296
 11
201.41461598695957
 21
144.69870561580001
  0
LINE
  8
_0-1_ADD_LINE
  6
CONTINUOUS
 62
    7
 10
201.41461598695957
 20
144.69870561580001
 11
201.7485488224244
 21
144.76549218289296
  0
LINE
  8
_0-1_ADD_LINE
  6
CONTINUOUS
 62
    7
 10
201.7485488224244
 20
144.76549218289296
 11
201.93221188193007
 21
145.03263845126483
  0
LINE
  8
_0-1_ADD_LINE
  6
CONTINUOUS
 62
    7
 10
201.93221188193007
 20
145.03263845126483
 11
202.04908837434277
 21
145.2997847196367
  0
LINE
  8
_0-1_ADD_LINE
  6
CONTINUOUS
 62
    7
 10
201.36452606163982
 20
146.33497650957776
 11
201.6650656135582
 21
146.41845971844396
  0
LINE
  8
_0-1_ADD_LINE
  6
CONTINUOUS
 62
    7
 10
198.5520825946046
 20
144.50677214923476
 11
198.9528019971624
 21
144.60695199987421
  0
LINE
  8
_0-1_ADD_LINE
  6
CONTINUOUS
 62
    7
 10
198.9528019971624
 20
144.60695199987421
 11
199.37021804149347
 21
144.55686207455449
  0
LINE
  8
_0-1_ADD_LINE
  6
CONTINUOUS
 62
    7
 10
199.37021804149347
 20
144.55686207455449
 11
199.82102736937102
 21
144.35650237327559
  0
LINE
  8
_0-1_ADD_LINE
  6
CONTINUOUS
 62
    7
 10
199.82102736937102
 20
144.35650237327559
 11
200.10487027951612
 21
143.98917625426424
  0
LINE
  8
_0-1_ADD_LINE
  6
CONTINUOUS
 62
    7
 10
200.10487027951612
 20
143.98917625426424
 11
200.2050501301556
 21
143.35470386688104
  0
LINE
  8
_0-1_ADD_LINE
  6
CONTINUOUS
 62
    7
 10
200.2050501301556
 20
143.35470386688104
 11
200.13826356306262
 21
142.93728782254996
  0
LINE
  8
_0-1_ADD_LINE
  6
CONTINUOUS
 62
    7
 10
200.13826356306262
 20
142.93728782254996
 11
200.02138707064992
 21
142.35290536048649
  0
LINE
  8
_0-1_ADD_LINE
  6
CONTINUOUS
 62
    7
 10
200.02138707064992
 20
142.35290536048649
 11
199.70415087695832
 21
141.83530946551599
  0
LINE
  8
_0-1_ADD_LINE
  6
CONTINUOUS
 62
    7
 10
199.70415087695832
 20
141.83530946551599
 11
199.32012811617375
 21
141.63494976423706
  0
LINE
  8
_0-1_ADD_LINE
  6
CONTINUOUS
 62
    7
 10
199.32012811617375
 20
141.63494976423706
 11
198.70235237056377
 21
141.48467998827789
  0
LINE
  8
_0-1_ADD_LINE
  6
CONTINUOUS
 62
    7
 10
198.70235237056377
 20
141.48467998827789
 11
198.26823968445947
 21
141.75182625664976
  0
LINE
  8
_0-1_ADD_LINE
  6
CONTINUOUS
 62
    7
 10
198.26823968445947
 20
141.75182625664976
 11
197.95100349076787
 21
142.10245573388787
  0
LINE
  8
_0-1_ADD_LINE
  6
CONTINUOUS
 62
    7
 10
197.95100349076787
 20
142.10245573388787
 11
197.75064378948895
 21
143.10425424028239
  0
LINE
  8
_0-1_ADD_LINE
  6
CONTINUOUS
 62
    7
 10
197.75064378948895
 20
143.10425424028239
 11
197.90091356544815
 21
143.70533334411911
  0
LINE
  8
_0-1_ADD_LINE
  6
CONTINUOUS
 62
    7
 10
197.90091356544815
 20
143.70533334411911
 11
198.13466655027352
 21
144.08935610490369
  0
LINE
  8
_0-1_ADD_LINE
  6
CONTINUOUS
 62
    7
 10
198.13466655027352
 20
144.08935610490369
 11
198.5520825946046
 21
144.50677214923476
  0
LINE
  8
_0-1_ADD_LINE
  6
CONTINUOUS
 62
    7
 10
199.25334154908077
 20
144.23962588086289
 11
199.00289192248215
 21
144.10605274667694
  0
LINE
  8
_0-1_ADD_LINE
  6
CONTINUOUS
 62
    7
 10
199.00289192248215
 20
144.10605274667694
 11
198.8693187882962
 21
143.60515349347966
  0
LINE
  8
_0-1_ADD_LINE
  6
CONTINUOUS
 62
    7
 10
198.8693187882962
 20
143.60515349347966
 11
198.88601543006945
 21
142.90389453900349
  0
LINE
  8
_0-1_ADD_LINE
  6
CONTINUOUS
 62
    7
 10
198.88601543006945
 20
142.90389453900349
 11
199.08637513134835
 21
142.67014155417809
  0
LINE
  8
_0-1_ADD_LINE
  6
CONTINUOUS
 62
    7
 10
199.08637513134835
 20
142.67014155417809
 11
199.3034314744005
 21
142.60335498708514
  0
LINE
  8
_0-1_ADD_LINE
  6
CONTINUOUS
 62
    7
 10
199.3034314744005
 20
142.60335498708514
 11
199.63736430986535
 21
142.67014155417809
  0
LINE
  8
_0-1_ADD_LINE
  6
CONTINUOUS
 62
    7
 10
199.63736430986535
 20
142.67014155417809
 11
199.82102736937102
 21
142.93728782254996
  0
LINE
  8
_0-1_ADD_LINE
  6
CONTINUOUS
 62
    7
 10
199.82102736937102
 20
142.93728782254996
 11
199.9379038617837
 21
143.20443409092184
  0
LINE
  8
_0-1_ADD_LINE
  6
CONTINUOUS
 62
    7
 10
199.25334154908077
 20
144.23962588086289
 11
199.55388110099915
 21
144.32310908972909
  0
LINE
  8
_0-1_ADD_LINE
  6
CONTINUOUS
 62
    7
 10
200.80049410047999
 20
142.34280802386172
 11
201.20121350303782
 21
142.44298787450117
  0
LINE
  8
_0-1_ADD_LINE
  6
CONTINUOUS
 62
    7
 10
201.20121350303782
 20
142.44298787450117
 11
201.61862954736887
 21
142.39289794918145
  0
LINE
  8
_0-1_ADD_LINE
  6
CONTINUOUS
 62
    7
 10
201.61862954736887
 20
142.39289794918145
 11
202.06943887524642
 21
142.19253824790255
  0
LINE
  8
_0-1_ADD_LINE
  6
CONTINUOUS
 62
    7
 10
202.06943887524642
 20
142.19253824790255
 11
202.35328178539154
 21
141.8252121288912
  0
LINE
  8
_0-1_ADD_LINE
  6
CONTINUOUS
 62
    7
 10
202.35328178539154
 20
141.8252121288912
 11
202.45346163603099
 21
141.190739741508
  0
LINE
  8
_0-1_ADD_LINE
  6
CONTINUOUS
 62
    7
 10
202.45346163603099
 20
141.190739741508
 11
202.38667506893802
 21
140.77332369717692
  0
LINE
  8
_0-1_ADD_LINE
  6
CONTINUOUS
 62
    7
 10
202.38667506893802
 20
140.77332369717692
 11
202.26979857652532
 21
140.18894123511345
  0
LINE
  8
_0-1_ADD_LINE
  6
CONTINUOUS
 62
    7
 10
202.26979857652532
 20
140.18894123511345
 11
201.95256238283372
 21
139.67134534014295
  0
LINE
  8
_0-1_ADD_LINE
  6
CONTINUOUS
 62
    7
 10
201.95256238283372
 20
139.67134534014295
 11
201.56853962204914
 21
139.47098563886402
  0
LINE
  8
_0-1_ADD_LINE
  6
CONTINUOUS
 62
    7
 10
201.56853962204914
 20
139.47098563886402
 11
200.95076387643917
 21
139.32071586290485
  0
LINE
  8
_0-1_ADD_LINE
  6
CONTINUOUS
 62
    7
 10
200.95076387643917
 20
139.32071586290485
 11
200.51665119033487
 21
139.58786213127672
  0
LINE
  8
_0-1_ADD_LINE
  6
CONTINUOUS
 62
    7
 10
200.51665119033487
 20
139.58786213127672
 11
200.19941499664327
 21
139.93849160851482
  0
LINE
  8
_0-1_ADD_LINE
  6
CONTINUOUS
 62
    7
 10
200.19941499664327
 20
139.93849160851482
 11
199.99905529536437
 21
140.94029011490937
  0
LINE
  8
_0-1_ADD_LINE
  6
CONTINUOUS
 62
    7
 10
199.99905529536437
 20
140.94029011490937
 11
200.14932507132355
 21
141.54136921874607
  0
LINE
  8
_0-1_ADD_LINE
  6
CONTINUOUS
 62
    7
 10
200.14932507132355
 20
141.54136921874607
 11
200.38307805614895
 21
141.92539197953067
  0
LINE
  8
_0-1_ADD_LINE
  6
CONTINUOUS
 62
    7
 10
200.38307805614895
 20
141.92539197953067
 11
200.80049410047999
 21
142.34280802386172
  0
LINE
  8
_0-1_ADD_LINE
  6
CONTINUOUS
 62
    7
 10
201.50175305495617
 20
142.07566175548985
 11
201.25130342835755
 21
141.9420886213039
  0
LINE
  8
_0-1_ADD_LINE
  6
CONTINUOUS
 62
    7
 10
201.25130342835755
 20
141.9420886213039
 11
201.11773029417159
 21
141.44118936810662
  0
LINE
  8
_0-1_ADD_LINE
  6
CONTINUOUS
 62
    7
 10
201.11773029417159
 20
141.44118936810662
 11
201.13442693594484
 21
140.73993041363045
  0
LINE
  8
_0-1_ADD_LINE
  6
CONTINUOUS
 62
    7
 10
201.13442693594484
 20
140.73993041363045
 11
201.33478663722374
 21
140.50617742880505
  0
LINE
  8
_0-1_ADD_LINE
  6
CONTINUOUS
 62
    7
 10
201.33478663722374
 20
140.50617742880505
 11
201.55184298027589
 21
140.4393908617121
  0
LINE
  8
_0-1_ADD_LINE
  6
CONTINUOUS
 62
    7
 10
201.55184298027589
 20
140.4393908617121
 11
201.88577581574074
 21
140.50617742880505
  0
LINE
  8
_0-1_ADD_LINE
  6
CONTINUOUS
 62
    7
 10
201.88577581574074
 20
140.50617742880505
 11
202.06943887524642
 21
140.77332369717692
  0
LINE
  8
_0-1_ADD_LINE
  6
CONTINUOUS
 62
    7
 10
202.06943887524642
 20
140.77332369717692
 11
202.18631536765912
 21
141.04046996554882
  0
LINE
  8
_0-1_ADD_LINE
  6
CONTINUOUS
 62
    7
 10
201.50175305495617
 20
142.07566175548985
 11
201.80229260687454
 21
142.15914496435605
  0
LINE
  8
_0-1_ADD_LINE
  6
CONTINUOUS
 62
    7
 10
203.37613920580205
 20
142.13168957260581
 11
203.77685860835987
 21
142.23186942324526
  0
LINE
  8
_0-1_ADD_LINE
  6
CONTINUOUS
 62
    7
 10
203.77685860835987
 20
142.23186942324526
 11
204.19427465269092
 21
142.18177949792553
  0
LINE
  8
_0-1_ADD_LINE
  6
CONTINUOUS
 62
    7
 10
204.19427465269092
 20
142.18177949792553
 11
204.64508398056847
 21
141.98141979664663
  0
LINE
  8
_0-1_ADD_LINE
  6
CONTINUOUS
 62
    7
 10
204.64508398056847
 20
141.98141979664663
 11
204.9289268907136
 21
141.61409367763531
  0
LINE
  8
_0-1_ADD_LINE
  6
CONTINUOUS
 62
    7
 10
204.9289268907136
 20
141.61409367763531
 11
205.02910674135305
 21
140.97962129025208
  0
LINE
  8
_0-1_ADD_LINE
  6
CONTINUOUS
 62
    7
 10
205.02910674135305
 20
140.97962129025208
 11
204.96232017426007
 21
140.56220524592104
  0
LINE
  8
_0-1_ADD_LINE
  6
CONTINUOUS
 62
    7
 10
204.96232017426007
 20
140.56220524592104
 11
204.84544368184737
 21
139.97782278385753
  0
LINE
  8
_0-1_ADD_LINE
  6
CONTINUOUS
 62
    7
 10
204.84544368184737
 20
139.97782278385753
 11
204.52820748815577
 21
139.46022688888704
  0
LINE
  8
_0-1_ADD_LINE
  6
CONTINUOUS
 62
    7
 10
204.52820748815577
 20
139.46022688888704
 11
204.1441847273712
 21
139.25986718760811
  0
LINE
  8
_0-1_ADD_LINE
  6
CONTINUOUS
 62
    7
 10
204.1441847273712
 20
139.25986718760811
 11
203.52640898176122
 21
139.10959741164893
  0
LINE
  8
_0-1_ADD_LINE
  6
CONTINUOUS
 62
    7
 10
203.52640898176122
 20
139.10959741164893
 11
203.09229629565692
 21
139.37674368002081
  0
LINE
  8
_0-1_ADD_LINE
  6
CONTINUOUS
 62
    7
 10
203.09229629565692
 20
139.37674368002081
 11
202.77506010196532
 21
139.72737315725891
  0
LINE
  8
_0-1_ADD_LINE
  6
CONTINUOUS
 62
    7
 10
202.77506010196532
 20
139.72737315725891
 11
202.57470040068642
 21
140.72917166365346
  0
LINE
  8
_0-1_ADD_LINE
  6
CONTINUOUS
 62
    7
 10
202.57470040068642
 20
140.72917166365346
 11
202.7249701766456
 21
141.33025076749018
  0
LINE
  8
_0-1_ADD_LINE
  6
CONTINUOUS
 62
    7
 10
202.7249701766456
 20
141.33025076749018
 11
202.958723161471
 21
141.71427352827476
  0
LINE
  8
_0-1_ADD_LINE
  6
CONTINUOUS
 62
    7
 10
202.958723161471
 20
141.71427352827476
 11
203.37613920580205
 21
142.13168957260581
  0
LINE
  8
_0-1_ADD_LINE
  6
CONTINUOUS
 62
    7
 10
204.07739816027822
 20
141.86454330423393
 11
203.8269485336796
 21
141.73097017004798
  0
LINE
  8
_0-1_ADD_LINE
  6
CONTINUOUS
 62
    7
 10
203.8269485336796
 20
141.73097017004798
 11
203.69337539949365
 21
141.23007091685074
  0
LINE
  8
_0-1_ADD_LINE
  6
CONTINUOUS
 62
    7
 10
203.69337539949365
 20
141.23007091685074
 11
203.7100720412669
 21
140.52881196237453
  0
LINE
  8
_0-1_ADD_LINE
  6
CONTINUOUS
 62
    7
 10
203.7100720412669
 20
140.52881196237453
 11
203.9104317425458
 21
140.29505897754916
  0
LINE
  8
_0-1_ADD_LINE
  6
CONTINUOUS
 62
    7
 10
203.9104317425458
 20
140.29505897754916
 11
204.12748808559795
 21
140.22827241045619
  0
LINE
  8
_0-1_ADD_LINE
  6
CONTINUOUS
 62
    7
 10
204.12748808559795
 20
140.22827241045619
 11
204.4614209210628
 21
140.29505897754916
  0
LINE
  8
_0-1_ADD_LINE
  6
CONTINUOUS
 62
    7
 10
204.4614209210628
 20
140.29505897754916
 11
204.64508398056847
 21
140.56220524592104
  0
LINE
  8
_0-1_ADD_LINE
  6
CONTINUOUS
 62
    7
 10
204.64508398056847
 20
140.56220524592104
 11
204.76196047298117
 21
140.82935151429291
  0
LINE
  8
_0-1_ADD_LINE
  6
CONTINUOUS
 62
    7
 10
204.07739816027822
 20
141.86454330423393
 11
204.3779377121966
 21
141.94802651310016
  0
LINE
  8
_0-1_ADD_LINE
  6
CONTINUOUS
 62
    7
 10
205.4873237183611
 20
144.34843331079281
 11
205.88804312091892
 21
144.44861316143229
  0
LINE
  8
_0-1_ADD_LINE
  6
CONTINUOUS
 62
    7
 10
205.88804312091892
 20
144.44861316143229
 11
206.30545916525
 21
144.39852323611257
  0
LINE
  8
_0-1_ADD_LINE
  6
CONTINUOUS
 62
    7
 10
206.30545916525
 20
144.39852323611257
 11
206.75626849312752
 21
144.19816353483364
  0
LINE
  8
_0-1_ADD_LINE
  6
CONTINUOUS
 62
    7
 10
206.75626849312752
 20
144.19816353483364
 11
207.04011140327265
 21
143.83083741582232
  0
LINE
  8
_0-1_ADD_LINE
  6
CONTINUOUS
 62
    7
 10
207.04011140327265
 20
143.83083741582232
 11
207.1402912539121
 21
143.19636502843912
  0
LINE
  8
_0-1_ADD_LINE
  6
CONTINUOUS
 62
    7
 10
207.1402912539121
 20
143.19636502843912
 11
207.07350468681915
 21
142.77894898410804
  0
LINE
  8
_0-1_ADD_LINE
  6
CONTINUOUS
 62
    7
 10
207.07350468681915
 20
142.77894898410804
 11
206.95662819440645
 21
142.19456652204457
  0
LINE
  8
_0-1_ADD_LINE
  6
CONTINUOUS
 62
    7
 10
206.95662819440645
 20
142.19456652204457
 11
206.63939200071485
 21
141.67697062707404
  0
LINE
  8
_0-1_ADD_LINE
  6
CONTINUOUS
 62
    7
 10
206.63939200071485
 20
141.67697062707404
 11
206.25536923993025
 21
141.47661092579514
  0
LINE
  8
_0-1_ADD_LINE
  6
CONTINUOUS
 62
    7
 10
206.25536923993025
 20
141.47661092579514
 11
205.6375934943203
 21
141.32634114983597
  0
LINE
  8
_0-1_ADD_LINE
  6
CONTINUOUS
 62
    7
 10
205.6375934943203
 20
141.32634114983597
 11
205.203480808216
 21
141.59348741820784
  0
LINE
  8
_0-1_ADD_LINE
  6
CONTINUOUS
 62
    7
 10
205.203480808216
 20
141.59348741820784
 11
204.88624461452437
 21
141.94411689544592
  0
LINE
  8
_0-1_ADD_LINE
  6
CONTINUOUS
 62
    7
 10
204.88624461452437
 20
141.94411689544592
 11
204.68588491324547
 21
142.94591540184047
  0
LINE
  8
_0-1_ADD_LINE
  6
CONTINUOUS
 62
    7
 10
204.68588491324547
 20
142.94591540184047
 11
204.83615468920465
 21
143.54699450567719
  0
LINE
  8
_0-1_ADD_LINE
  6
CONTINUOUS
 62
    7
 10
204.83615468920465
 20
143.54699450567719
 11
205.06990767403005
 21
143.93101726646177
  0
LINE
  8
_0-1_ADD_LINE
  6
CONTINUOUS
 62
    7
 10
205.06990767403005
 20
143.93101726646177
 11
205.4873237183611
 21
144.34843331079281
  0
LINE
  8
_0-1_ADD_LINE
  6
CONTINUOUS
 62
    7
 10
206.1885826728373
 20
144.08128704242094
 11
205.93813304623865
 21
143.94771390823502
  0
LINE
  8
_0-1_ADD_LINE
  6
CONTINUOUS
 62
    7
 10
205.93813304623865
 20
143.94771390823502
 11
205.80455991205272
 21
143.44681465503774
  0
LINE
  8
_0-1_ADD_LINE
  6
CONTINUOUS
 62
    7
 10
205.80455991205272
 20
143.44681465503774
 11
205.82125655382595
 21
142.74555570056157
  0
LINE
  8
_0-1_ADD_LINE
  6
CONTINUOUS
 62
    7
 10
205.82125655382595
 20
142.74555570056157
 11
206.02161625510487
 21
142.51180271573617
  0
LINE
  8
_0-1_ADD_LINE
  6
CONTINUOUS
 62
    7
 10
206.02161625510487
 20
142.51180271573617
 11
206.23867259815702
 21
142.44501614864319
  0
LINE
  8
_0-1_ADD_LINE
  6
CONTINUOUS
 62
    7
 10
206.23867259815702
 20
142.44501614864319
 11
206.57260543362187
 21
142.51180271573617
  0
LINE
  8
_0-1_ADD_LINE
  6
CONTINUOUS
 62
    7
 10
206.57260543362187
 20
142.51180271573617
 11
206.75626849312752
 21
142.77894898410804
  0
LINE
  8
_0-1_ADD_LINE
  6
CONTINUOUS
 62
    7
 10
206.75626849312752
 20
142.77894898410804
 11
206.87314498554022
 21
143.04609525247992
  0
LINE
  8
_0-1_ADD_LINE
  6
CONTINUOUS
 62
    7
 10
206.1885826728373
 20
144.08128704242094
 11
206.48912222475565
 21
144.16477025128717
  0
LINE
  8
_0-1_ADD_LINE
  6
CONTINUOUS
 62
    7
 10
205.5084355634867
 20
139.87272214416762
 11
205.90915496604453
 21
139.97290199480707
  0
LINE
  8
_0-1_ADD_LINE
  6
CONTINUOUS
 62
    7
 10
205.90915496604453
 20
139.97290199480707
 11
206.32657101037557
 21
139.92281206948735
  0
LINE
  8
_0-1_ADD_LINE
  6
CONTINUOUS
 62
    7
 10
206.32657101037557
 20
139.92281206948735
 11
206.77738033825312
 21
139.72245236820845
  0
LINE
  8
_0-1_ADD_LINE
  6
CONTINUOUS
 62
    7
 10
206.77738033825312
 20
139.72245236820845
 11
207.06122324839825
 21
139.3551262491971
  0
LINE
  8
_0-1_ADD_LINE
  6
CONTINUOUS
 62
    7
 10
207.06122324839825
 20
139.3551262491971
 11
207.1614030990377
 21
138.7206538618139
  0
LINE
  8
_0-1_ADD_LINE
  6
CONTINUOUS
 62
    7
 10
207.1614030990377
 20
138.7206538618139
 11
207.09461653194472
 21
138.30323781748282
  0
LINE
  8
_0-1_ADD_LINE
  6
CONTINUOUS
 62
    7
 10
207.09461653194472
 20
138.30323781748282
 11
206.97774003953202
 21
137.71885535541935
  0
LINE
  8
_0-1_ADD_LINE
  6
CONTINUOUS
 62
    7
 10
206.97774003953202
 20
137.71885535541935
 11
206.66050384584042
 21
137.20125946044885
  0
LINE
  8
_0-1_ADD_LINE
  6
CONTINUOUS
 62
    7
 10
206.66050384584042
 20
137.20125946044885
 11
206.27648108505585
 21
137.00089975916993
  0
LINE
  8
_0-1_ADD_LINE
  6
CONTINUOUS
 62
    7
 10
206.27648108505585
 20
137.00089975916993
 11
205.65870533944587
 21
136.85062998321075
  0
LINE
  8
_0-1_ADD_LINE
  6
CONTINUOUS
 62
    7
 10
205.65870533944587
 20
136.85062998321075
 11
205.22459265334157
 21
137.11777625158263
  0
LINE
  8
_0-1_ADD_LINE
  6
CONTINUOUS
 62
    7
 10
205.22459265334157
 20
137.11777625158263
 11
204.90735645964998
 21
137.46840572882073
  0
LINE
  8
_0-1_ADD_LINE
  6
CONTINUOUS
 62
    7
 10
204.90735645964998
 20
137.46840572882073
 11
204.70699675837108
 21
138.47020423521525
  0
LINE
  8
_0-1_ADD_LINE
  6
CONTINUOUS
 62
    7
 10
204.70699675837108
 20
138.47020423521525
 11
204.85726653433025
 21
139.07128333905197
  0
LINE
  8
_0-1_ADD_LINE
  6
CONTINUOUS
 62
    7
 10
204.85726653433025
 20
139.07128333905197
 11
205.09101951915565
 21
139.45530609983655
  0
LINE
  8
_0-1_ADD_LINE
  6
CONTINUOUS
 62
    7
 10
205.09101951915565
 20
139.45530609983655
 11
205.5084355634867
 21
139.87272214416762
  0
LINE
  8
_0-1_ADD_LINE
  6
CONTINUOUS
 62
    7
 10
206.20969451796287
 20
139.60557587579575
 11
205.95924489136425
 21
139.4720027416098
  0
LINE
  8
_0-1_ADD_LINE
  6
CONTINUOUS
 62
    7
 10
205.95924489136425
 20
139.4720027416098
 11
205.8256717571783
 21
138.97110348841252
  0
LINE
  8
_0-1_ADD_LINE
  6
CONTINUOUS
 62
    7
 10
205.8256717571783
 20
138.97110348841252
 11
205.84236839895155
 21
138.26984453393635
  0
LINE
  8
_0-1_ADD_LINE
  6
CONTINUOUS
 62
    7
 10
205.84236839895155
 20
138.26984453393635
 11
206.04272810023045
 21
138.03609154911095
  0
LINE
  8
_0-1_ADD_LINE
  6
CONTINUOUS
 62
    7
 10
206.04272810023045
 20
138.03609154911095
 11
206.2597844432826
 21
137.969304982018
  0
LINE
  8
_0-1_ADD_LINE
  6
CONTINUOUS
 62
    7
 10
206.2597844432826
 20
137.969304982018
 11
206.59371727874745
 21
138.03609154911095
  0
LINE
  8
_0-1_ADD_LINE
  6
CONTINUOUS
 62
    7
 10
206.59371727874745
 20
138.03609154911095
 11
206.77738033825312
 21
138.30323781748282
  0
LINE
  8
_0-1_ADD_LINE
  6
CONTINUOUS
 62
    7
 10
206.77738033825312
 20
138.30323781748282
 11
206.89425683066582
 21
138.5703840858547
  0
LINE
  8
_0-1_ADD_LINE
  6
CONTINUOUS
 62
    7
 10
206.20969451796287
 20
139.60557587579575
 11
206.51023406988125
 21
139.68905908466195
  0
LINE
  8
_0-1_ADD_LINE
  6
CONTINUOUS
 62
    7
 10
203.38669512836483
 20
137.6982020962318
 11
203.78741453092266
 21
137.79838194687125
  0
LINE
  8
_0-1_ADD_LINE
  6
CONTINUOUS
 62
    7
 10
203.78741453092266
 20
137.79838194687125
 11
204.20483057525371
 21
137.74829202155152
  0
LINE
  8
_0-1_ADD_LINE
  6
CONTINUOUS
 62
    7
 10
204.20483057525371
 20
137.74829202155152
 11
204.65563990313126
 21
137.54793232027259
  0
LINE
  8
_0-1_ADD_LINE
  6
CONTINUOUS
 62
    7
 10
204.65563990313126
 20
137.54793232027259
 11
204.93948281327638
 21
137.18060620126127
  0
LINE
  8
_0-1_ADD_LINE
  6
CONTINUOUS
 62
    7
 10
204.93948281327638
 20
137.18060620126127
 11
205.03966266391583
 21
136.54613381387804
  0
LINE
  8
_0-1_ADD_LINE
  6
CONTINUOUS
 62
    7
 10
205.03966266391583
 20
136.54613381387804
 11
204.97287609682286
 21
136.12871776954699
  0
LINE
  8
_0-1_ADD_LINE
  6
CONTINUOUS
 62
    7
 10
204.97287609682286
 20
136.12871776954699
 11
204.85599960441016
 21
135.54433530748352
  0
LINE
  8
_0-1_ADD_LINE
  6
CONTINUOUS
 62
    7
 10
204.85599960441016
 20
135.54433530748352
 11
204.53876341071856
 21
135.026739412513
  0
LINE
  8
_0-1_ADD_LINE
  6
CONTINUOUS
 62
    7
 10
204.53876341071856
 20
135.026739412513
 11
204.15474064993398
 21
134.8263797112341
  0
LINE
  8
_0-1_ADD_LINE
  6
CONTINUOUS
 62
    7
 10
204.15474064993398
 20
134.8263797112341
 11
203.53696490432404
 21
134.67610993527492
  0
LINE
  8
_0-1_ADD_LINE
  6
CONTINUOUS
 62
    7
 10
203.53696490432404
 20
134.67610993527492
 11
203.10285221821971
 21
134.9432562036468
  0
LINE
  8
_0-1_ADD_LINE
  6
CONTINUOUS
 62
    7
 10
203.10285221821971
 20
134.9432562036468
 11
202.78561602452811
 21
135.29388568088487
  0
LINE
  8
_0-1_ADD_LINE
  6
CONTINUOUS
 62
    7
 10
202.78561602452811
 20
135.29388568088487
 11
202.58525632324921
 21
136.29568418727942
  0
LINE
  8
_0-1_ADD_LINE
  6
CONTINUOUS
 62
    7
 10
202.58525632324921
 20
136.29568418727942
 11
202.73552609920839
 21
136.89676329111614
  0
LINE
  8
_0-1_ADD_LINE
  6
CONTINUOUS
 62
    7
 10
202.73552609920839
 20
136.89676329111614
 11
202.96927908403379
 21
137.28078605190072
  0
LINE
  8
_0-1_ADD_LINE
  6
CONTINUOUS
 62
    7
 10
202.96927908403379
 20
137.28078605190072
 11
203.38669512836483
 21
137.6982020962318
  0
LINE
  8
_0-1_ADD_LINE
  6
CONTINUOUS
 62
    7
 10
204.08795408284104
 20
137.43105582785989
 11
203.83750445624239
 21
137.29748269367397
  0
LINE
  8
_0-1_ADD_LINE
  6
CONTINUOUS
 62
    7
 10
203.83750445624239
 20
137.29748269367397
 11
203.70393132205646
 21
136.7965834404767
  0
LINE
  8
_0-1_ADD_LINE
  6
CONTINUOUS
 62
    7
 10
203.70393132205646
 20
136.7965834404767
 11
203.72062796382968
 21
136.09532448600052
  0
LINE
  8
_0-1_ADD_LINE
  6
CONTINUOUS
 62
    7
 10
203.72062796382968
 20
136.09532448600052
 11
203.92098766510861
 21
135.86157150117512
  0
LINE
  8
_0-1_ADD_LINE
  6
CONTINUOUS
 62
    7
 10
203.92098766510861
 20
135.86157150117512
 11
204.13804400816076
 21
135.79478493408214
  0
LINE
  8
_0-1_ADD_LINE
  6
CONTINUOUS
 62
    7
 10
204.13804400816076
 20
135.79478493408214
 11
204.47197684362561
 21
135.86157150117512
  0
LINE
  8
_0-1_ADD_LINE
  6
CONTINUOUS
 62
    7
 10
204.47197684362561
 20
135.86157150117512
 11
204.65563990313126
 21
136.12871776954699
  0
LINE
  8
_0-1_ADD_LINE
  6
CONTINUOUS
 62
    7
 10
204.65563990313126
 20
136.12871776954699
 11
204.77251639554396
 21
136.39586403791887
  0
LINE
  8
_0-1_ADD_LINE
  6
CONTINUOUS
 62
    7
 10
204.08795408284104
 20
137.43105582785989
 11
204.38849363475939
 21
137.51453903672612
  0
LINE
  8
_0-1_ADD_LINE
  6
CONTINUOUS
 62
    7
 10
200.66326710716365
 20
137.88820870236211
 11
201.06398650972147
 21
137.98838855300156
  0
LINE
  8
_0-1_ADD_LINE
  6
CONTINUOUS
 62
    7
 10
201.06398650972147
 20
137.98838855300156
 11
201.48140255405252
 21
137.93829862768183
  0
LINE
  8
_0-1_ADD_LINE
  6
CONTINUOUS
 62
    7
 10
201.48140255405252
 20
137.93829862768183
 11
201.93221188193007
 21
137.7379389264029
  0
LINE
  8
_0-1_ADD_LINE
  6
CONTINUOUS
 62
    7
 10
201.93221188193007
 20
137.7379389264029
 11
202.2160547920752
 21
137.37061280739158
  0
LINE
  8
_0-1_ADD_LINE
  6
CONTINUOUS
 62
    7
 10
202.2160547920752
 20
137.37061280739158
 11
202.31623464271465
 21
136.73614042000838
  0
LINE
  8
_0-1_ADD_LINE
  6
CONTINUOUS
 62
    7
 10
202.31623464271465
 20
136.73614042000838
 11
202.24944807562167
 21
136.31872437567731
  0
LINE
  8
_0-1_ADD_LINE
  6
CONTINUOUS
 62
    7
 10
202.24944807562167
 20
136.31872437567731
 11
202.13257158320897
 21
135.73434191361383
  0
LINE
  8
_0-1_ADD_LINE
  6
CONTINUOUS
 62
    7
 10
202.13257158320897
 20
135.73434191361383
 11
201.81533538951737
 21
135.21674601864331
  0
LINE
  8
_0-1_ADD_LINE
  6
CONTINUOUS
 62
    7
 10
201.81533538951737
 20
135.21674601864331
 11
201.4313126287328
 21
135.01638631736441
  0
LINE
  8
_0-1_ADD_LINE
  6
CONTINUOUS
 62
    7
 10
201.4313126287328
 20
135.01638631736441
 11
200.81353688312282
 21
134.86611654140523
  0
LINE
  8
_0-1_ADD_LINE
  6
CONTINUOUS
 62
    7
 10
200.81353688312282
 20
134.86611654140523
 11
200.37942419701852
 21
135.13326280977711
  0
LINE
  8
_0-1_ADD_LINE
  6
CONTINUOUS
 62
    7
 10
200.37942419701852
 20
135.13326280977711
 11
200.06218800332692
 21
135.48389228701518
  0
LINE
  8
_0-1_ADD_LINE
  6
CONTINUOUS
 62
    7
 10
200.06218800332692
 20
135.48389228701518
 11
199.86182830204802
 21
136.48569079340973
  0
LINE
  8
_0-1_ADD_LINE
  6
CONTINUOUS
 62
    7
 10
199.86182830204802
 20
136.48569079340973
 11
200.0120980780072
 21
137.08676989724646
  0
LINE
  8
_0-1_ADD_LINE
  6
CONTINUOUS
 62
    7
 10
200.0120980780072
 20
137.08676989724646
 11
200.2458510628326
 21
137.47079265803103
  0
LINE
  8
_0-1_ADD_LINE
  6
CONTINUOUS
 62
    7
 10
200.2458510628326
 20
137.47079265803103
 11
200.66326710716365
 21
137.88820870236211
  0
LINE
  8
_0-1_ADD_LINE
  6
CONTINUOUS
 62
    7
 10
201.36452606163982
 20
137.62106243399023
 11
201.1140764350412
 21
137.48748929980428
  0
LINE
  8
_0-1_ADD_LINE
  6
CONTINUOUS
 62
    7
 10
201.1140764350412
 20
137.48748929980428
 11
200.98050330085525
 21
136.98659004660701
  0
LINE
  8
_0-1_ADD_LINE
  6
CONTINUOUS
 62
    7
 10
200.98050330085525
 20
136.98659004660701
 11
200.9971999426285
 21
136.28533109213083
  0
LINE
  8
_0-1_ADD_LINE
  6
CONTINUOUS
 62
    7
 10
200.9971999426285
 20
136.28533109213083
 11
201.19755964390743
 21
136.05157810730543
  0
LINE
  8
_0-1_ADD_LINE
  6
CONTINUOUS
 62
    7
 10
201.19755964390743
 20
136.05157810730543
 11
201.41461598695957
 21
135.98479154021246
  0
LINE
  8
_0-1_ADD_LINE
  6
CONTINUOUS
 62
    7
 10
201.41461598695957
 20
135.98479154021246
 11
201.7485488224244
 21
136.05157810730543
  0
LINE
  8
_0-1_ADD_LINE
  6
CONTINUOUS
 62
    7
 10
201.7485488224244
 20
136.05157810730543
 11
201.93221188193007
 21
136.31872437567731
  0
LINE
  8
_0-1_ADD_LINE
  6
CONTINUOUS
 62
    7
 10
201.93221188193007
 20
136.31872437567731
 11
202.04908837434277
 21
136.58587064404918
  0
LINE
  8
_0-1_ADD_LINE
  6
CONTINUOUS
 62
    7
 10
201.36452606163982
 20
137.62106243399023
 11
201.6650656135582
 21
137.70454564285643
  0
LINE
  8
_0-1_ADD_LINE
  6
CONTINUOUS
 62
    7
 10
200.72660264254043
 20
133.50222287752064
 11
201.12732204509825
 21
133.60240272816009
  0
LINE
  8
_0-1_ADD_LINE
  6
CONTINUOUS
 62
    7
 10
201.12732204509825
 20
133.60240272816009
 11
201.5447380894293
 21
133.55231280284036
  0
LINE
  8
_0-1_ADD_LINE
  6
CONTINUOUS
 62
    7
 10
201.5447380894293
 20
133.55231280284036
 11
201.99554741730685
 21
133.35195310156146
  0
LINE
  8
_0-1_ADD_LINE
  6
CONTINUOUS
 62
    7
 10
201.99554741730685
 20
133.35195310156146
 11
202.27939032745198
 21
132.98462698255014
  0
LINE
  8
_0-1_ADD_LINE
  6
CONTINUOUS
 62
    7
 10
202.27939032745198
 20
132.98462698255014
 11
202.37957017809143
 21
132.35015459516691
  0
LINE
  8
_0-1_ADD_LINE
  6
CONTINUOUS
 62
    7
 10
202.37957017809143
 20
132.35015459516691
 11
202.31278361099845
 21
131.93273855083586
  0
LINE
  8
_0-1_ADD_LINE
  6
CONTINUOUS
 62
    7
 10
202.31278361099845
 20
131.93273855083586
 11
202.19590711858575
 21
131.34835608877239
  0
LINE
  8
_0-1_ADD_LINE
  6
CONTINUOUS
 62
    7
 10
202.19590711858575
 20
131.34835608877239
 11
201.87867092489415
 21
130.83076019380186
  0
LINE
  8
_0-1_ADD_LINE
  6
CONTINUOUS
 62
    7
 10
201.87867092489415
 20
130.83076019380186
 11
201.49464816410958
 21
130.63040049252297
  0
LINE
  8
_0-1_ADD_LINE
  6
CONTINUOUS
 62
    7
 10
201.49464816410958
 20
130.63040049252297
 11
200.8768724184996
 21
130.48013071656376
  0
LINE
  8
_0-1_ADD_LINE
  6
CONTINUOUS
 62
    7
 10
200.8768724184996
 20
130.48013071656376
 11
200.4427597323953
 21
130.74727698493564
  0
LINE
  8
_0-1_ADD_LINE
  6
CONTINUOUS
 62
    7
 10
200.4427597323953
 20
130.74727698493564
 11
200.1255235387037
 21
131.09790646217374
  0
LINE
  8
_0-1_ADD_LINE
  6
CONTINUOUS
 62
    7
 10
200.1255235387037
 20
131.09790646217374
 11
199.9251638374248
 21
132.09970496856829
  0
LINE
  8
_0-1_ADD_LINE
  6
CONTINUOUS
 62
    7
 10
199.9251638374248
 20
132.09970496856829
 11
200.07543361338398
 21
132.70078407240501
  0
LINE
  8
_0-1_ADD_LINE
  6
CONTINUOUS
 62
    7
 10
200.07543361338398
 20
132.70078407240501
 11
200.30918659820938
 21
133.08480683318959
  0
LINE
  8
_0-1_ADD_LINE
  6
CONTINUOUS
 62
    7
 10
200.30918659820938
 20
133.08480683318959
 11
200.72660264254043
 21
133.50222287752064
  0
LINE
  8
_0-1_ADD_LINE
  6
CONTINUOUS
 62
    7
 10
201.4278615970166
 20
133.23507660914876
 11
201.17741197041798
 21
133.10150347496284
  0
LINE
  8
_0-1_ADD_LINE
  6
CONTINUOUS
 62
    7
 10
201.17741197041798
 20
133.10150347496284
 11
201.04383883623203
 21
132.60060422176556
  0
LINE
  8
_0-1_ADD_LINE
  6
CONTINUOUS
 62
    7
 10
201.04383883623203
 20
132.60060422176556
 11
201.06053547800528
 21
131.89934526728939
  0
LINE
  8
_0-1_ADD_LINE
  6
CONTINUOUS
 62
    7
 10
201.06053547800528
 20
131.89934526728939
 11
201.26089517928418
 21
131.66559228246399
  0
LINE
  8
_0-1_ADD_LINE
  6
CONTINUOUS
 62
    7
 10
201.26089517928418
 20
131.66559228246399
 11
201.47795152233633
 21
131.59880571537101
  0
LINE
  8
_0-1_ADD_LINE
  6
CONTINUOUS
 62
    7
 10
201.47795152233633
 20
131.59880571537101
 11
201.81188435780118
 21
131.66559228246399
  0
LINE
  8
_0-1_ADD_LINE
  6
CONTINUOUS
 62
    7
 10
201.81188435780118
 20
131.66559228246399
 11
201.99554741730685
 21
131.93273855083586
  0
LINE
  8
_0-1_ADD_LINE
  6
CONTINUOUS
 62
    7
 10
201.99554741730685
 20
131.93273855083586
 11
202.11242390971955
 21
132.19988481920774
  0
LINE
  8
_0-1_ADD_LINE
  6
CONTINUOUS
 62
    7
 10
201.4278615970166
 20
133.23507660914876
 11
201.72840114893498
 21
133.31855981801499
  0
LINE
  8
_0-1_ADD_LINE
  6
CONTINUOUS
 62
    7
 10
203.29169182529969
 20
133.29110442626472
 11
203.69241122785749
 21
133.3912842769042
  0
LINE
  8
_0-1_ADD_LINE
  6
CONTINUOUS
 62
    7
 10
203.69241122785749
 20
133.3912842769042
 11
204.10982727218857
 21
133.34119435158448
  0
LINE
  8
_0-1_ADD_LINE
  6
CONTINUOUS
 62
    7
 10
204.10982727218857
 20
133.34119435158448
 11
204.56063660006612
 21
133.14083465030555
  0
LINE
  8
_0-1_ADD_LINE
  6
CONTINUOUS
 62
    7
 10
204.56063660006612
 20
133.14083465030555
 11
204.84447951021122
 21
132.77350853129423
  0
LINE
  8
_0-1_ADD_LINE
  6
CONTINUOUS
 62
    7
 10
204.84447951021122
 20
132.77350853129423
 11
204.94465936085069
 21
132.13903614391103
  0
LINE
  8
_0-1_ADD_LINE
  6
CONTINUOUS
 62
    7
 10
204.94465936085069
 20
132.13903614391103
 11
204.87787279375772
 21
131.72162009957995
  0
LINE
  8
_0-1_ADD_LINE
  6
CONTINUOUS
 62
    7
 10
204.87787279375772
 20
131.72162009957995
 11
204.76099630134502
 21
131.13723763751648
  0
LINE
  8
_0-1_ADD_LINE
  6
CONTINUOUS
 62
    7
 10
204.76099630134502
 20
131.13723763751648
 11
204.44376010765342
 21
130.61964174254595
  0
LINE
  8
_0-1_ADD_LINE
  6
CONTINUOUS
 62
    7
 10
204.44376010765342
 20
130.61964174254595
 11
204.05973734686884
 21
130.41928204126705
  0
LINE
  8
_0-1_ADD_LINE
  6
CONTINUOUS
 62
    7
 10
204.05973734686884
 20
130.41928204126705
 11
203.44196160125887
 21
130.26901226530788
  0
LINE
  8
_0-1_ADD_LINE
  6
CONTINUOUS
 62
    7
 10
203.44196160125887
 20
130.26901226530788
 11
203.00784891515457
 21
130.53615853367975
  0
LINE
  8
_0-1_ADD_LINE
  6
CONTINUOUS
 62
    7
 10
203.00784891515457
 20
130.53615853367975
 11
202.69061272146297
 21
130.88678801091783
  0
LINE
  8
_0-1_ADD_LINE
  6
CONTINUOUS
 62
    7
 10
202.69061272146297
 20
130.88678801091783
 11
202.49025302018404
 21
131.88858651731238
  0
LINE
  8
_0-1_ADD_LINE
  6
CONTINUOUS
 62
    7
 10
202.49025302018404
 20
131.88858651731238
 11
202.64052279614324
 21
132.4896656211491
  0
LINE
  8
_0-1_ADD_LINE
  6
CONTINUOUS
 62
    7
 10
202.64052279614324
 20
132.4896656211491
 11
202.87427578096862
 21
132.87368838193368
  0
LINE
  8
_0-1_ADD_LINE
  6
CONTINUOUS
 62
    7
 10
202.87427578096862
 20
132.87368838193368
 11
203.29169182529969
 21
133.29110442626472
  0
LINE
  8
_0-1_ADD_LINE
  6
CONTINUOUS
 62
    7
 10
203.99295077977587
 20
133.02395815789285
 11
203.74250115317722
 21
132.89038502370693
  0
LINE
  8
_0-1_ADD_LINE
  6
CONTINUOUS
 62
    7
 10
203.74250115317722
 20
132.89038502370693
 11
203.60892801899129
 21
132.38948577050965
  0
LINE
  8
_0-1_ADD_LINE
  6
CONTINUOUS
 62
    7
 10
203.60892801899129
 20
132.38948577050965
 11
203.62562466076454
 21
131.68822681603348
  0
LINE
  8
_0-1_ADD_LINE
  6
CONTINUOUS
 62
    7
 10
203.62562466076454
 20
131.68822681603348
 11
203.82598436204344
 21
131.45447383120808
  0
LINE
  8
_0-1_ADD_LINE
  6
CONTINUOUS
 62
    7
 10
203.82598436204344
 20
131.45447383120808
 11
204.04304070509559
 21
131.3876872641151
  0
LINE
  8
_0-1_ADD_LINE
  6
CONTINUOUS
 62
    7
 10
204.04304070509559
 20
131.3876872641151
 11
204.37697354056044
 21
131.45447383120808
  0
LINE
  8
_0-1_ADD_LINE
  6
CONTINUOUS
 62
    7
 10
204.37697354056044
 20
131.45447383120808
 11
204.56063660006612
 21
131.72162009957995
  0
LINE
  8
_0-1_ADD_LINE
  6
CONTINUOUS
 62
    7
 10
204.56063660006612
 20
131.72162009957995
 11
204.67751309247879
 21
131.98876636795183
  0
LINE
  8
_0-1_ADD_LINE
  6
CONTINUOUS
 62
    7
 10
203.99295077977587
 20
133.02395815789285
 11
204.29349033169422
 21
133.10744136675908
  0
LINE
  8
_0-1_ADD_LINE
  6
CONTINUOUS
 62
    7
 10
205.51899148604949
 20
135.4022889388238
 11
205.91971088860731
 21
135.50246878946325
  0
LINE
  8
_0-1_ADD_LINE
  6
CONTINUOUS
 62
    7
 10
205.91971088860731
 20
135.50246878946325
 11
206.33712693293836
 21
135.45237886414353
  0
LINE
  8
_0-1_ADD_LINE
  6
CONTINUOUS
 62
    7
 10
206.33712693293836
 20
135.45237886414353
 11
206.78793626081591
 21
135.25201916286463
  0
LINE
  8
_0-1_ADD_LINE
  6
CONTINUOUS
 62
    7
 10
206.78793626081591
 20
135.25201916286463
 11
207.07177917096104
 21
134.8846930438533
  0
LINE
  8
_0-1_ADD_LINE
  6
CONTINUOUS
 62
    7
 10
207.07177917096104
 20
134.8846930438533
 11
207.17195902160049
 21
134.25022065647008
  0
LINE
  8
_0-1_ADD_LINE
  6
CONTINUOUS
 62
    7
 10
207.17195902160049
 20
134.25022065647008
 11
207.10517245450751
 21
133.83280461213903
  0
LINE
  8
_0-1_ADD_LINE
  6
CONTINUOUS
 62
    7
 10
207.10517245450751
 20
133.83280461213903
 11
206.98829596209484
 21
133.24842215007553
  0
LINE
  8
_0-1_ADD_LINE
  6
CONTINUOUS
 62
    7
 10
206.98829596209484
 20
133.24842215007553
 11
206.67105976840321
 21
132.73082625510503
  0
LINE
  8
_0-1_ADD_LINE
  6
CONTINUOUS
 62
    7
 10
206.67105976840321
 20
132.73082625510503
 11
206.28703700761864
 21
132.5304665538261
  0
LINE
  8
_0-1_ADD_LINE
  6
CONTINUOUS
 62
    7
 10
206.28703700761864
 20
132.5304665538261
 11
205.66926126200869
 21
132.38019677786693
  0
LINE
  8
_0-1_ADD_LINE
  6
CONTINUOUS
 62
    7
 10
205.66926126200869
 20
132.38019677786693
 11
205.23514857590439
 21
132.6473430462388
  0
LINE
  8
_0-1_ADD_LINE
  6
CONTINUOUS
 62
    7
 10
205.23514857590439
 20
132.6473430462388
 11
204.91791238221276
 21
132.9979725234769
  0
LINE
  8
_0-1_ADD_LINE
  6
CONTINUOUS
 62
    7
 10
204.91791238221276
 20
132.9979725234769
 11
204.71755268093386
 21
133.99977102987145
  0
LINE
  8
_0-1_ADD_LINE
  6
CONTINUOUS
 62
    7
 10
204.71755268093386
 20
133.99977102987145
 11
204.86782245689304
 21
134.60085013370818
  0
LINE
  8
_0-1_ADD_LINE
  6
CONTINUOUS
 62
    7
 10
204.86782245689304
 20
134.60085013370818
 11
205.10157544171844
 21
134.98487289449275
  0
LINE
  8
_0-1_ADD_LINE
  6
CONTINUOUS
 62
    7
 10
205.10157544171844
 20
134.98487289449275
 11
205.51899148604949
 21
135.4022889388238
  0
LINE
  8
_0-1_ADD_LINE
  6
CONTINUOUS
 62
    7
 10
206.22025044052569
 20
135.13514267045193
 11
205.96980081392704
 21
135.00156953626598
  0
LINE
  8
_0-1_ADD_LINE
  6
CONTINUOUS
 62
    7
 10
205.96980081392704
 20
135.00156953626598
 11
205.83622767974111
 21
134.5006702830687
  0
LINE
  8
_0-1_ADD_LINE
  6
CONTINUOUS
 62
    7
 10
205.83622767974111
 20
134.5006702830687
 11
205.85292432151434
 21
133.79941132859253
  0
LINE
  8
_0-1_ADD_LINE
  6
CONTINUOUS
 62
    7
 10
205.85292432151434
 20
133.79941132859253
 11
206.05328402279326
 21
133.56565834376715
  0
LINE
  8
_0-1_ADD_LINE
  6
CONTINUOUS
 62
    7
 10
206.05328402279326
 20
133.56565834376715
 11
206.27034036584541
 21
133.49887177667418
  0
LINE
  8
_0-1_ADD_LINE
  6
CONTINUOUS
 62
    7
 10
206.27034036584541
 20
133.49887177667418
 11
206.60427320131026
 21
133.56565834376715
  0
LINE
  8
_0-1_ADD_LINE
  6
CONTINUOUS
 62
    7
 10
206.60427320131026
 20
133.56565834376715
 11
206.78793626081591
 21
133.83280461213903
  0
LINE
  8
_0-1_ADD_LINE
  6
CONTINUOUS
 62
    7
 10
206.78793626081591
 20
133.83280461213903
 11
206.90481275322861
 21
134.0999508805109
  0
LINE
  8
_0-1_ADD_LINE
  6
CONTINUOUS
 62
    7
 10
206.22025044052569
 20
135.13514267045193
 11
206.52078999244404
 21
135.21862587931813
  0
LINE
  8
_0-1_ADD_LINE
  6
CONTINUOUS
 62
    7
 10
205.40287633785874
 20
130.92657777219858
 11
205.80359574041657
 21
131.02675762283803
  0
LINE
  8
_0-1_ADD_LINE
  6
CONTINUOUS
 62
    7
 10
205.80359574041657
 20
131.02675762283803
 11
206.22101178474762
 21
130.97666769751831
  0
LINE
  8
_0-1_ADD_LINE
  6
CONTINUOUS
 62
    7
 10
206.22101178474762
 20
130.97666769751831
 11
206.67182111262517
 21
130.77630799623941
  0
LINE
  8
_0-1_ADD_LINE
  6
CONTINUOUS
 62
    7
 10
206.67182111262517
 20
130.77630799623941
 11
206.95566402277029
 21
130.40898187722809
  0
LINE
  8
_0-1_ADD_LINE
  6
CONTINUOUS
 62
    7
 10
206.95566402277029
 20
130.40898187722809
 11
207.05584387340974
 21
129.77450948984486
  0
LINE
  8
_0-1_ADD_LINE
  6
CONTINUOUS
 62
    7
 10
207.05584387340974
 20
129.77450948984486
 11
206.98905730631677
 21
129.35709344551381
  0
LINE
  8
_0-1_ADD_LINE
  6
CONTINUOUS
 62
    7
 10
206.98905730631677
 20
129.35709344551381
 11
206.87218081390407
 21
128.77271098345034
  0
LINE
  8
_0-1_ADD_LINE
  6
CONTINUOUS
 62
    7
 10
206.87218081390407
 20
128.77271098345034
 11
206.55494462021247
 21
128.25511508847981
  0
LINE
  8
_0-1_ADD_LINE
  6
CONTINUOUS
 62
    7
 10
206.55494462021247
 20
128.25511508847981
 11
206.17092185942789
 21
128.05475538720091
  0
LINE
  8
_0-1_ADD_LINE
  6
CONTINUOUS
 62
    7
 10
206.17092185942789
 20
128.05475538720091
 11
205.55314611381792
 21
127.90448561124172
  0
LINE
  8
_0-1_ADD_LINE
  6
CONTINUOUS
 62
    7
 10
205.55314611381792
 20
127.90448561124172
 11
205.11903342771362
 21
128.17163187961359
  0
LINE
  8
_0-1_ADD_LINE
  6
CONTINUOUS
 62
    7
 10
205.11903342771362
 20
128.17163187961359
 11
204.80179723402202
 21
128.52226135685169
  0
LINE
  8
_0-1_ADD_LINE
  6
CONTINUOUS
 62
    7
 10
204.80179723402202
 20
128.52226135685169
 11
204.60143753274312
 21
129.52405986324624
  0
LINE
  8
_0-1_ADD_LINE
  6
CONTINUOUS
 62
    7
 10
204.60143753274312
 20
129.52405986324624
 11
204.75170730870229
 21
130.12513896708296
  0
LINE
  8
_0-1_ADD_LINE
  6
CONTINUOUS
 62
    7
 10
204.75170730870229
 20
130.12513896708296
 11
204.98546029352769
 21
130.50916172786754
  0
LINE
  8
_0-1_ADD_LINE
  6
CONTINUOUS
 62
    7
 10
204.98546029352769
 20
130.50916172786754
 11
205.40287633785874
 21
130.92657777219858
  0
LINE
  8
_0-1_ADD_LINE
  6
CONTINUOUS
 62
    7
 10
206.10413529233492
 20
130.65943150382671
 11
205.85368566573629
 21
130.52585836964079
  0
LINE
  8
_0-1_ADD_LINE
  6
CONTINUOUS
 62
    7
 10
205.85368566573629
 20
130.52585836964079
 11
205.72011253155034
 21
130.02495911644351
  0
LINE
  8
_0-1_ADD_LINE
  6
CONTINUOUS
 62
    7
 10
205.72011253155034
 20
130.02495911644351
 11
205.73680917332359
 21
129.32370016196734
  0
LINE
  8
_0-1_ADD_LINE
  6
CONTINUOUS
 62
    7
 10
205.73680917332359
 20
129.32370016196734
 11
205.93716887460249
 21
129.08994717714194
  0
LINE
  8
_0-1_ADD_LINE
  6
CONTINUOUS
 62
    7
 10
205.93716887460249
 20
129.08994717714194
 11
206.15422521765464
 21
129.02316061004896
  0
LINE
  8
_0-1_ADD_LINE
  6
CONTINUOUS
 62
    7
 10
206.15422521765464
 20
129.02316061004896
 11
206.48815805311949
 21
129.08994717714194
  0
LINE
  8
_0-1_ADD_LINE
  6
CONTINUOUS
 62
    7
 10
206.48815805311949
 20
129.08994717714194
 11
206.67182111262517
 21
129.35709344551381
  0
LINE
  8
_0-1_ADD_LINE
  6
CONTINUOUS
 62
    7
 10
206.67182111262517
 20
129.35709344551381
 11
206.78869760503787
 21
129.62423971388569
  0
LINE
  8
_0-1_ADD_LINE
  6
CONTINUOUS
 62
    7
 10
206.10413529233492
 20
130.65943150382671
 11
206.40467484425329
 21
130.74291471269294
  0
LINE
  8
_0-1_ADD_LINE
  6
CONTINUOUS
 62
    7
 10
200.98742476634737
 20
128.4745160248753
 11
200.96631292122177
 21
127.59837445216331
  0
LINE
  8
_0-1_ADD_LINE
  6
CONTINUOUS
 62
    7
 10
200.96631292122177
 20
127.59837445216331
 11
201.17743137247768
 21
127.00724278864676
  0
LINE
  8
_0-1_ADD_LINE
  6
CONTINUOUS
 62
    7
 10
200.98742476634737
 20
128.4745160248753
 11
201.34632613348242
 21
128.50618379256369
  0
LINE
  8
_0-1_ADD_LINE
  6
CONTINUOUS
 62
    7
 10
201.34632613348242
 20
128.50618379256369
 11
201.33577021091961
 21
127.52448299422375
  0
LINE
  8
_0-1_ADD_LINE
  6
CONTINUOUS
 62
    7
 10
201.33577021091961
 20
127.52448299422375
 11
201.57855642986391
 21
126.99668686608398
  0
LINE
  8
_0-1_ADD_LINE
  6
CONTINUOUS
 62
    7
 10
201.34632613348242
 20
128.50618379256369
 11
201.62078012011509
 21
127.52448299422375
  0
LINE
  8
_0-1_ADD_LINE
  6
CONTINUOUS
 62
    7
 10
203.63696132960899
 20
128.2528416510566
 11
203.61584948448339
 21
127.34503231065622
  0
LINE
  8
_0-1_ADD_LINE
  6
CONTINUOUS
 62
    7
 10
203.61584948448339
 20
127.34503231065622
 11
203.81641201317652
 21
126.83834802764204
  0
LINE
  8
_0-1_ADD_LINE
  6
CONTINUOUS
 62
    7
 10
203.63696132960899
 20
128.2528416510566
 11
204.06975415468361
 21
128.21061796080542
  0
LINE
  8
_0-1_ADD_LINE
  6
CONTINUOUS
 62
    7
 10
204.06975415468361
 20
128.21061796080542
 11
204.0275304644324
 21
127.30280862040505
  0
LINE
  8
_0-1_ADD_LINE
  6
CONTINUOUS
 62
    7
 10
204.0275304644324
 20
127.30280862040505
 11
204.23864891568832
 21
126.82779210507925
  0
LINE
  8
_0-1_ADD_LINE
  6
CONTINUOUS
 62
    7
 10
200.99798068891016
 20
170.57153520530301
 11
201.32521428835682
 21
170.59264705042861
  0
LINE
  8
_0-1_ADD_LINE
  6
CONTINUOUS
 62
    7
 10
201.32521428835682
 20
170.59264705042861
 11
201.367437978608
 21
171.5110123133918
  0
LINE
  8
_0-1_ADD_LINE
  6
CONTINUOUS
 62
    7
 10
201.367437978608
 20
171.5110123133918
 11
201.59966827498948
 21
172.02825251896877
  0
LINE
  8
_0-1_ADD_LINE
  6
CONTINUOUS
 62
    7
 10
200.99798068891016
 20
170.57153520530301
 11
201.00853661147295
 21
171.5110123133918
  0
LINE
  8
_0-1_ADD_LINE
  6
CONTINUOUS
 62
    7
 10
201.00853661147295
 20
171.5110123133918
 11
201.25132283041725
 21
171.99658475128038
  0
LINE
  8
_0-1_ADD_LINE
  6
CONTINUOUS
 62
    7
 10
203.77418832292534
 20
172.23937097022468
 11
203.59473763935782
 21
171.75379853233608
  0
LINE
  8
_0-1_ADD_LINE
  6
CONTINUOUS
 62
    7
 10
203.59473763935782
 20
171.75379853233608
 11
203.72140871011135
 21
170.78265365655892
  0
LINE
  8
_0-1_ADD_LINE
  6
CONTINUOUS
 62
    7
 10
203.72140871011135
 20
170.78265365655892
 11
204.12253376749757
 21
170.81432142424731
  0
LINE
  8
_0-1_ADD_LINE
  6
CONTINUOUS
 62
    7
 10
204.12253376749757
 20
170.81432142424731
 11
204.11197784493478
 21
171.78546630002447
  0
LINE
  8
_0-1_ADD_LINE
  6
CONTINUOUS
 62
    7
 10
204.11197784493478
 20
171.78546630002447
 11
204.10142192237197
 21
172.20770320253629
  0
LINE
  8
_0-1_ADD_LINE
  6
CONTINUOUS
 62
    7
 10
211.210502742177
 20
179.37409144642663
 11
209.0305869964111
 21
173.20238193244006
  0
LINE
  8
_0-1_ADD_LINE
  6
CONTINUOUS
 62
    7
 10
198.51937220224016
 20
121.56403326690732
 11
198.64388224835031
 21
121.34228665039436
  0
LINE
  8
_0-1_ADD_LINE
  6
CONTINUOUS
 62
    7
 10
198.64388224835031
 20
121.34228665039436
 11
198.85347491866605
 21
121.14075523662922
  0
LINE
  8
_0-1_ADD_LINE
  6
CONTINUOUS
 62
    7
 10
198.85347491866605
 20
121.14075523662922
 11
199.01043948285397
 21
121.05477830923377
  0
ENDSEC
  0
EOF
