  0
SECTION
  2
HEADER
  9
$ACADVER
  1
AC1009
  9
$INSBASE
 10
0
 20
0
 30
0
  9
$EXTMIN
 10
0
 20
0
  9
$EXTMAX
 10
297
 20
210
  9
$LIMMIN
 10
0
 20
0
  9
$LIMMAX
 10
297
 20
210
  9
$LTSCALE
 40
1
  0
ENDSEC
  0
SECTION
  2
TABLES
  0
TABLE
  2
LTYPE
 70
     9
  0
LTYPE
  2
CONTINUOUS
 70
    64
  3
実線
 72
    65
 73
     0
 40
0.0
  0
LTYPE
  2
DASHED1
 70
    64
  3
--  --  --  --  --  --  --  --  
 72
    65
 73
     2
 40
2.5
 49
1.25
 49
-1.25
  0
LTYPE
  2
DASHED2
 70
    64
  3
----    ----    ----    ----    
 72
    65
 73
     2
 40
5.0
 49
2.5
 49
-2.5
  0
LTYPE
  2
DASHED3
 70
    64
  3
------  ------  ------  ------  
 72
    65
 73
     2
 40
5.0
 49
3.75
 49
-1.25
  0
LTYPE
  2
CENTER1
 70
    64
  3
----- - ----- - ----- - ----- - 
 72
    65
 73
     4
 40
10.0
 49
6.25
 49
-1.25
 49
1.25
 49
-1.25
  0
LTYPE
  2
CENTER2
 70
    64
  3
----------  --  ----------  --  
 72
    65
 73
     4
 40
20.0
 49
12.5
 49
-2.5
 49
2.5
 49
-2.5
  0
LTYPE
  2
PHANTOM1
 70
    64
  3
--- - - --- - - --- - - --- - - 
 72
    65
 73
     6
 40
10.0
 49
3.25
 49
-1.25
 49
1.25
 49
-1.25
 49
1.25
 49
-1.25
  0
LTYPE
  2
PHANTOM2
 70
    64
  3
--------  -  -  --------  -  -  
 72
    65
 73
     6
 40
20.0
 49
10.0
 49
-2.5
 49
1.25
 49
-2.5
 49
1.25
 49
-2.5
  0
LTYPE
  2
DOT
 70
    64
  3
-   -   -   -   -   -   -   -   
 72
    65
 73
     2
 40
2.5
 49
0.625
 49
-1.875
  0
LTYPE
  2
DUMMY
 70
    64
  3
ダミー
 72
    65
 73
     0
 40
0.0
  0
LTYPE
  2
RAND1
 70
    64
  3
ランダム線1
 72
    65
 73
     4
 40
10.0
 49
1.0
 49
-2.0
 49
3.0
 49
-4.0
  0
LTYPE
  2
RAND2
 70
    64
  3
ランダム線2
 72
    65
 73
     4
 40
14.0
 49
2.0
 49
-3.0
 49
4.0
 49
-5.0
  0
LTYPE
  2
RAND3
 70
    64
  3
ランダム線3
 72
    65
 73
     4
 40
18.0
 49
3.0
 49
-4.0
 49
5.0
 49
-6.0
  0
LTYPE
  2
RAND4
 70
    64
  3
ランダム線4
 72
    65
 73
     4
 40
22.0
 49
4.0
 49
-5.0
 49
6.0
 49
-7.0
  0
LTYPE
  2
RAND5
 70
    64
  3
ランダム線5
 72
    65
 73
     4
 40
26.0
 49
5.0
 49
-6.0
 49
7.0
 49
-8.0
  0
LTYPE
  2
LONG1
 70
    64
  3
----------  --  ----------  --  
 72
    65
 73
     4
 40
40.0
 49
32.5
 49
-2.5
 49
2.5
 49
-2.5
  0
LTYPE
  2
LONG2
 70
    64
  3
--------  -  -  --------  -  -  
 72
    65
 73
     6
 40
40.0
 49
30.0
 49
-2.5
 49
1.25
 49
-2.5
 49
1.25
 49
-2.5
  0
LTYPE
  2
LONG3
 70
    64
  3
+++++++++++++++..+++++++++++++++
 72
    65
 73
     2
 40
40.0
 49
37.5
 49
-2.5
  0
LTYPE
  2
LONG4
 70
    64
  3
+++++++++++++++..+++++++++++++++
 72
    65
 73
     2
 40
80.0
 49
75.0
 49
-5.0
  0
LTYPE
  2
LONG5
 70
    64
  3
----------  --  ----------  --  
 72
    65
 73
     4
 40
60.0
 49
37.5
 49
-7.5
 49
7.5
 49
-7.5
  0
LTYPE
  2
dashed
 70
   64
  3
-------   -------------   ------
 72
   65
 73
    2
 40
7.5
 49
6
 49
-1.5
  0
LTYPE
  2
dashed_spaced
 70
   64
  3
----        --------        ----
 72
   65
 73
    2
 40
12
 49
6
 49
-6
  0
LTYPE
  2
long_dashed_dotted
 70
   64
  3
------------- --- --------------
 72
   65
 73
    4
 40
15.25
 49
12
 49
-1.5
 49
0.25
 49
-1.5
  0
LTYPE
  2
long_dashed_double-dotted
 70
   64
  3
----------- --- --- ------------
 72
   65
 73
    6
 40
17
 49
12
 49
-1.5
 49
0.25
 49
-1.5
 49
0.25
 49
-1.5
  0
LTYPE
  2
long_dashed_triplicate-dotted
 70
   64
  3
--------- --- --- --- ----------
 72
   65
 73
    8
 40
18.75
 49
12
 49
-1.5
 49
0.25
 49
-1.5
 49
0.25
 49
-1.5
 49
0.25
 49
-1.5
  0
LTYPE
  2
dotted
 70
   64
  3
   -       -       -       -    
 72
   65
 73
    2
 40
1.75
 49
0.25
 49
-1.5
  0
LTYPE
  2
chain
 70
   64
  3
-------------- -- --------------
 72
   65
 73
    4
 40
18.5
 49
12
 49
-1.5
 49
3.5
 49
-1.5
  0
LTYPE
  2
chain_double_dash
 70
   64
  3
------------ -- -- -------------
 72
   65
 73
    6
 40
23.5
 49
12
 49
-1.5
 49
3.5
 49
-1.5
 49
3.5
 49
-1.5
  0
LTYPE
  2
dashed_dotted
 70
   64
  3
-----------     -     ----------
 72
   65
 73
    4
 40
9.25
 49
6
 49
-1.5
 49
0.25
 49
-1.5
  0
LTYPE
  2
double-dashed_dotted
 70
   64
  3
------   -----------   -   -----
 72
   65
 73
    6
 40
16.75
 49
6
 49
-1.5
 49
6
 49
-1.5
 49
0.25
 49
-1.5
  0
LTYPE
  2
dashed_double-dotted
 70
   64
  3
---------    -    -    ---------
 72
   65
 73
    6
 40
11
 49
6
 49
-1.5
 49
0.25
 49
-1.5
 49
0.25
 49
-1.5
  0
LTYPE
  2
double-dashed_double-dotted
 70
   64
  3
-----   ---------   -   -   ----
 72
   65
 73
    8
 40
18.5
 49
6
 49
-1.5
 49
6
 49
-1.5
 49
0.25
 49
-1.5
 49
0.25
 49
-1.5
  0
LTYPE
  2
dashed_triplicate-dotted
 70
   64
  3
-------    -    -    -    ------
 72
   65
 73
    8
 40
12.75
 49
6
 49
-1.5
 49
0.25
 49
-1.5
 49
0.25
 49
-1.5
 49
0.25
 49
-1.5
  0
LTYPE
  2
double-dashed_triplicate-dotted
 70
   64
  3
-----  ---------  -  -  -  -----
 72
   65
 73
   10
 40
20.25
 49
6
 49
-1.5
 49
6
 49
-1.5
 49
0.25
 49
-1.5
 49
0.25
 49
-1.5
 49
0.25
 49
-1.5
  0
LTYPE
  2
undefined
 70
   64
  3
--------------------------------
 72
   65
 73
    0
 40
0
  0
LTYPE
  2
_
 70
   64
  3
                                
 72
   65
 73
    0
 40
0
  0
LTYPE
  2
__18
 70
   64
  3
                                
 72
   65
 73
    0
 40
0
  0
LTYPE
  2
__19
 70
   64
  3
                                
 72
   65
 73
    0
 40
0
  0
LTYPE
  2
__20
 70
   64
  3
                                
 72
   65
 73
    0
 40
0
  0
LTYPE
  2
__21
 70
   64
  3
                                
 72
   65
 73
    0
 40
0
  0
LTYPE
  2
__22
 70
   64
  3
                                
 72
   65
 73
    0
 40
0
  0
LTYPE
  2
__23
 70
   64
  3
                                
 72
   65
 73
    0
 40
0
  0
LTYPE
  2
__24
 70
   64
  3
                                
 72
   65
 73
    0
 40
0
  0
LTYPE
  2
__25
 70
   64
  3
                                
 72
   65
 73
    0
 40
0
  0
LTYPE
  2
__26
 70
   64
  3
                                
 72
   65
 73
    0
 40
0
  0
LTYPE
  2
__27
 70
   64
  3
                                
 72
   65
 73
    0
 40
0
  0
LTYPE
  2
__28
 70
   64
  3
                                
 72
   65
 73
    0
 40
0
  0
LTYPE
  2
__29
 70
   64
  3
                                
 72
   65
 73
    0
 40
0
  0
LTYPE
  2
__30
 70
   64
  3
                                
 72
   65
 73
    0
 40
0
  0
LTYPE
  2
__31
 70
   64
  3
                                
 72
   65
 73
    0
 40
0
  0
LTYPE
  2
__32
 70
   64
  3
                                
 72
   65
 73
    0
 40
0
  0
ENDTAB
  0
TABLE
  2
STYLE
  5
3
100
AcDbSymbolTable
 70
     1
  0
STYLE
  5
10
100
AcDbSymbolTableRecord
100
AcDbTextStyleTableRecord
  2
STANDARD
 70
     0
 40
0.0
 41
1.0
 50
0.0
 71
     0
 42
0.2
  3
txt
  4
bigfont.shx
  0
STYLE
  5
26
100
AcDbSymbolTableRecord
100
AcDbTextStyleTableRecord
  2
TATEGAKI
 70
    68
 40
0.0
 41
1.0
 50
0.0
 71
     0
 42
1.0
  3
txt
  4
bigfont.shx
  0
ENDTAB
  0
TABLE
  2
LAYER
 70
    2
  0
LAYER
  2
_0-0_
 70
   64
 62
    7
  6
CONTINUOUS
  0
LAYER
  2
ADD_LINE
 70
   64
 62
    7
  6
CONTINUOUS
  0
ENDTAB
  0
ENDSEC
  0
SECTION
  2
BLOCKS
  0
BLOCK
  2
-007-3322
 70
   64
 10
0
 20
0
 30
0
  0
LINE
  8
_0-0_
  6
CONTINUOUS
 62
    7
 10
11.717757964619295
 20
27.876379408059883
 11
29.991513326636721
 21
10.211749224776383
  0
LINE
  8
_0-0_
  6
CONTINUOUS
 62
    7
 10
29.991513326636721
 20
10.211749224776383
 11
36.99645288207671
 21
0.8464496017424565
  0
LINE
  8
_0-0_
  6
CONTINUOUS
 62
    7
 10
12.3268831433532
 20
22.089690210087703
 11
28.31641908511844
 21
6.2524355630059461
  0
LINE
  8
_0-0_
  6
CONTINUOUS
 62
    7
 10
-13.104093068787705
 20
13.181234471104212
 11
8.6721320709497149
 21
-6.767615132431466
  0
LINE
  8
_0-0_
  6
CONTINUOUS
 62
    7
 10
31.590466920813242
 20
-8.8995532580001608
 11
46.285611857768913
 21
-23.1378543109054
  0
LINE
  8
_0-0_
  6
CONTINUOUS
 62
    7
 10
26.641324843600188
 20
-12.402023035720166
 11
37.453296766127153
 21
-23.290135605588876
  0
LINE
  8
_0-0_
  6
CONTINUOUS
 62
    7
 10
31.742748215496704
 20
-12.706585625087126
 11
37.986281297519326
 21
-18.721696765084523
  0
LINE
  8
_0-0_
  6
CONTINUOUS
 62
    7
 10
39.280672302328895
 20
-20.472931653944524
 11
41.336469780555859
 21
-22.528729132171488
  0
ARC
  8
_0-0_
  6
CONTINUOUS
 62
    7
 10
1.2965951297383356
 20
29.427486835784315
 40
21.709917929095013
 50
216.86218126241928
 51
228.44620012225135
  0
ARC
  8
_0-0_
  6
CONTINUOUS
 62
    7
 10
-9.860039705359668
 20
18.939514482529425
 40
6.7105515304167991
 50
161.58567275918557
 51
202.20109893230676
  0
ARC
  8
_0-0_
  6
CONTINUOUS
 62
    7
 10
1.0832022792220926
 20
10.658045240541632
 40
20.194766734820497
 50
131.95528941571723
 51
148.99944804194081
  0
ARC
  8
_0-0_
  6
CONTINUOUS
 62
    7
 10
6.6349198378285621
 20
3.6047379066277117
 40
29.157587007220073
 50
110.3231658443453
 51
130.80200059321004
  0
ARC
  8
_0-0_
  6
CONTINUOUS
 62
    7
 10
1.2427486984681479
 20
19.927203729836791
 40
11.994087916883499
 50
83.009691348456471
 51
113.25051335985556
  0
ARC
  8
_0-0_
  6
CONTINUOUS
 62
    7
 10
2.2142757584254298
 20
17.753475088646525
 40
14.087122522714111
 50
56.387180269451768
 51
88.014091673044774
  0
ARC
  8
_0-0_
  6
CONTINUOUS
 62
    7
 10
7.2162478267427161
 20
24.81333279862811
 40
5.4448000930205858
 50
34.233277234148083
 51
59.097324541027966
  0
ARC
  8
_0-0_
  6
CONTINUOUS
 62
    7
 10
4.0947591752399148
 20
4.6378254273250192
 40
26.47899904756995
 50
101.32830538984837
 51
120.1998314126991
  0
ARC
  8
_0-0_
  6
CONTINUOUS
 62
    7
 10
1.5009939861162707
 20
12.696335675689234
 40
18.093493397277872
 50
83.623725867586685
 51
98.285956640157849
  0
ARC
  8
_0-0_
  6
CONTINUOUS
 62
    7
 10
2.0544803351533574
 20
24.794593508343119
 40
6.0607803399141282
 50
45.790409531283025
 51
76.100382270562079
  0
ARC
  8
_0-0_
  6
CONTINUOUS
 62
    7
 10
-8.2627764942801036
 20
15.442013564684522
 40
19.977846271804079
 50
32.894343973238591
 51
43.283201788711928
  0
ARC
  8
_0-0_
  6
CONTINUOUS
 62
    7
 10
23.604637318013971
 20
37.240352867965633
 40
18.689928759593908
 50
217.32853967303643
 51
229.53275071746572
  0
ARC
  8
_0-0_
  6
CONTINUOUS
 62
    7
 10
-8.6634839775026649
 20
14.459277438834981
 40
5.1313788274873575
 50
150.0708885356803
 51
186.22310312883084
  0
ARC
  8
_0-0_
  6
CONTINUOUS
 62
    7
 10
8.5441780958275331
 20
-4.5752667398838689
 40
30.5108921124875
 50
108.89710423870361
 51
133.49575270004982
  0
ARC
  8
_0-0_
  6
CONTINUOUS
 62
    7
 10
3.8057138902546512
 20
11.213954611688926
 40
14.117685748389706
 50
90.886213860859328
 51
108.54028818902123
  0
ARC
  8
_0-0_
  6
CONTINUOUS
 62
    7
 10
2.9985123848525461
 20
10.294411369228563
 40
15.047066563764098
 50
66.921521330474704
 51
87.757232829007748
  0
ARC
  8
_0-0_
  6
CONTINUOUS
 62
    7
 10
0.023827724513211
 20
7.6732668301505029
 40
18.702748207712052
 50
50.283068290529236
 51
61.678231729817512
  0
ARC
  8
_0-0_
  6
CONTINUOUS
 62
    7
 10
-35.534761352166782
 20
68.139208853197886
 40
62.779085861945809
 50
293.73728115266692
 51
302.00662390013974
  0
ARC
  8
_0-0_
  6
CONTINUOUS
 62
    7
 10
-81.03509379746707
 20
164.63744761749521
 40
169.19128056976166
 50
297.7486290497298
 51
301.74113354415471
  0
ARC
  8
_0-0_
  6
CONTINUOUS
 62
    7
 10
-3.0708608880635495
 20
40.884323758532169
 40
22.963182863457885
 50
298.74794101046859
 51
308.93217125946626
  0
ARC
  8
_0-0_
  6
CONTINUOUS
 62
    7
 10
7.9891882333474484
 20
26.870679172673363
 40
5.1159845472782326
 50
311.2025075370384
 51
355.66739010880593
  0
ARC
  8
_0-0_
  6
CONTINUOUS
 62
    7
 10
14.668005977329983
 20
19.383897616771414
 40
4.8333441692957306
 50
317.75699071519409
 51
11.732771878690762
  0
ARC
  8
_0-0_
  6
CONTINUOUS
 62
    7
 10
5.5215758120960459
 20
32.069395821083511
 40
20.391995987128478
 50
297.25581373010277
 51
308.60864835259042
  0
ARC
  8
_0-0_
  6
CONTINUOUS
 62
    7
 10
-97.596432998764612
 20
218.85221957550073
 40
233.74116791591774
 50
294.4848534930079
 51
298.7583698106082
  0
ARC
  8
_0-0_
  6
CONTINUOUS
 62
    7
 10
-1.6631946286282755
 20
8.1743750406820723
 40
2.2496343473394647
 50
243.01510600620861
 51
294.73828856564467
  0
ARC
  8
_0-0_
  6
CONTINUOUS
 62
    7
 10
-117.69640320443486
 20
163.37109358981112
 40
195.97818438810936
 50
305.71277627970346
 51
306.64646461613933
  0
ARC
  8
_0-0_
  6
CONTINUOUS
 62
    7
 10
2.6409629600336473
 20
28.138964952644123
 40
29.269897961964464
 50
273.88902529467856
 51
290.83595953675001
  0
ARC
  8
_0-0_
  6
CONTINUOUS
 62
    7
 10
7.5447626945083641
 20
19.779589748472468
 40
19.778568469557445
 50
286.16763700362344
 51
318.18583211876228
  0
ARC
  8
_0-0_
  6
CONTINUOUS
 62
    7
 10
-1392.7633771390981
 20
-1486.9791058175697
 40
2063.0197458256916
 50
46.443981180080129
 51
46.815874590688182
  0
ARC
  8
_0-0_
  6
CONTINUOUS
 62
    7
 10
63.052283761936081
 20
38.414696312309083
 40
45.753835427052145
 50
221.50651674219537
 51
227.8807000132704
  0
ARC
  8
_0-0_
  6
CONTINUOUS
 62
    7
 10
-50.161471312489738
 20
-83.206520424051476
 40
120.41258066562203
 50
44.792876529851739
 51
46.734920392007744
  0
ARC
  8
_0-0_
  6
CONTINUOUS
 62
    7
 10
20.525743613741071
 20
-11.53500037774127
 40
19.781343054137828
 50
32.886438926449358
 51
41.721457629517161
  0
ARC
  8
_0-0_
  6
CONTINUOUS
 62
    7
 10
32.397909257166447
 20
-3.4508115151085192
 40
5.4329920922349935
 50
1.2369724485275346
 51
29.273264957588534
  0
ARC
  8
_0-0_
  6
CONTINUOUS
 62
    7
 10
19.075643700448524
 20
4.5391245533620079
 40
15.364745899214027
 50
227.38234590475923
 51
244.55787372930723
  0
ARC
  8
_0-0_
  6
CONTINUOUS
 62
    7
 10
18.165988962793705
 20
0.3220801970934985
 40
11.209705063852185
 50
239.49007948718449
 51
272.77054763580554
  0
ARC
  8
_0-0_
  6
CONTINUOUS
 62
    7
 10
19.870504668713181
 20
73.476524580172679
 40
84.359059306452579
 50
269.21029530661878
 51
273.55041284027004
  0
ARC
  8
_0-0_
  6
CONTINUOUS
 62
    7
 10
68.587509798927044
 20
27.736887482654573
 40
58.056994151511006
 50
221.48390432164334
 51
223.73871778995277
  0
ARC
  8
_0-0_
  6
CONTINUOUS
 62
    7
 10
27.057916028737452
 20
-7.3903195348950277
 40
4.7530906736555991
 50
259.72809545914021
 51
287.90005420944061
  0
ARC
  8
_0-0_
  6
CONTINUOUS
 62
    7
 10
26.528701124121795
 20
-6.4651902967774788
 40
5.8002418019895101
 50
290.06638260712174
 51
337.94667968031297
  0
ARC
  8
_0-0_
  6
CONTINUOUS
 62
    7
 10
28.588540555237074
 20
1.5691708174328127
 40
10.737063187157426
 50
287.98929335946457
 51
319.17902759172131
  0
ARC
  8
_0-0_
  6
CONTINUOUS
 62
    7
 10
33.191724809126384
 20
-2.240285396732439
 40
4.7650172371548498
 50
317.66063707984358
 51
21.100052367846306
  0
ARC
  8
_0-0_
  6
CONTINUOUS
 62
    7
 10
33.386357530338358
 20
-1.6758941226866142
 40
4.4039761934880577
 50
15.150513115384562
 51
34.941681203594683
  0
ARC
  8
_0-0_
  6
CONTINUOUS
 62
    7
 10
32.955786836700781
 20
-3.3351144248262443
 40
4.5799977854271923
 50
351.32305517935743
 51
52.977420677343986
  0
ARC
  8
_0-0_
  6
CONTINUOUS
 62
    7
 10
16.811520649667642
 20
-19.29289097509708
 40
27.477448873472575
 50
49.344865792511648
 51
61.36177429534748
  0
ARC
  8
_0-0_
  6
CONTINUOUS
 62
    7
 10
32.044724286058511
 20
8.7337153847653752
 40
4.4218574015755552
 50
221.82575671445451
 51
242.17677840053688
  0
ARC
  8
_0-0_
  6
CONTINUOUS
 62
    7
 10
26.795384369962761
 20
-5.2930838699688785
 40
9.939019420347833
 50
13.87117199979699
 51
60.094641852891968
  0
ARC
  8
_0-0_
  6
CONTINUOUS
 62
    7
 10
33.289648118708982
 20
-4.314625360109698
 40
3.4143244608877903
 50
343.30075576600757
 51
16.699244233992445
  0
ARC
  8
_0-0_
  6
CONTINUOUS
 62
    7
 10
20.345738070613464
 20
-4.4163078806574099
 40
12.6135780556376
 50
17.053168334048074
 51
37.404190020134301
  0
ARC
  8
_0-0_
  6
CONTINUOUS
 62
    7
 10
25.654174116686136
 20
-0.4801373997996734
 40
7.0090499154227972
 50
301.59962096209608
 51
354.90980419319334
  0
ARC
  8
_0-0_
  6
CONTINUOUS
 62
    7
 10
25.276800890013078
 20
-3.0465932284146504
 40
5.2901047525364504
 50
271.36026848843471
 51
319.95826054550002
  0
ARC
  8
_0-0_
  6
CONTINUOUS
 62
    7
 10
20.432763651262547
 20
5.718660706422682
 40
14.906653300079141
 50
281.03602335380947
 51
289.47421405230659
  0
ARC
  8
_0-0_
  6
CONTINUOUS
 62
    7
 10
17.829782731116438
 20
26.165397218112986
 40
35.499577101591065
 50
266.26042431564588
 51
278.84176586235594
  0
ARC
  8
_0-0_
  6
CONTINUOUS
 62
    7
 10
16.294431203847381
 20
-0.2390441325357741
 40
9.053213057261269
 50
238.40667960390306
 51
265.05750798161461
  0
ARC
  8
_0-0_
  6
CONTINUOUS
 62
    7
 10
-8.7052328674785144
 20
-34.978775745809244
 40
41.45724269667982
 50
36.471093556106617
 51
38.48126556661505
  0
ARC
  8
_0-0_
  6
CONTINUOUS
 62
    7
 10
31.365924756996492
 20
-2.6506046522281466
 40
5.9943741625926519
 50
253.97883277955574
 51
271.47115730466612
  0
LINE
  8
_0-0_
  6
CONTINUOUS
 62
    7
 10
-7.9165062891774767
 20
10.440332824226957
 11
4.6261700291895238
 21
-1.0635328788151739
  0
LINE
  8
_0-0_
  6
CONTINUOUS
 62
    7
 10
8.2427699492094746
 20
20.482168772367416
 11
22.285950489712405
 21
6.5928861008014863
  0
LINE
  8
_0-0_
  6
CONTINUOUS
 62
    7
 10
1.7021105193861672
 20
5.2078052803683264
 11
13.475297493068098
 21
10.90202643103801
  0
LINE
  8
_0-0_
  6
CONTINUOUS
 62
    7
 10
13.475297493068098
 20
10.90202643103801
 11
17.59206548713334
 21
6.9776307731440355
  0
LINE
  8
_0-0_
  6
CONTINUOUS
 62
    7
 10
17.59206548713334
 20
6.9776307731440355
 11
5.4726083083431263
 21
1.6296798275826418
  0
LINE
  8
_0-0_
  6
CONTINUOUS
 62
    7
 10
5.4726083083431263
 20
1.6296798275826418
 11
1.7021105193861672
 21
5.2078052803683264
  0
LINE
  8
_0-0_
  6
CONTINUOUS
 62
    7
 10
11.063740759119781
 20
-3.8719239266149117
 11
12.744037555316396
 21
-5.7301345012323779
  0
LINE
  8
_0-0_
  6
CONTINUOUS
 62
    7
 10
11.478872908768352
 20
-3.5951691601825289
 11
13.139401507362692
 21
-5.3743069443907352
  0
ARC
  8
_0-0_
  6
CONTINUOUS
 62
    7
 10
11.359077631298334
 20
-3.8652027394301101
 40
0.2954133416509485
 50
66.076440071959667
 51
181.3036949800015
  0
ARC
  8
_0-0_
  6
CONTINUOUS
 62
    7
 10
12.902800892309983
 20
-5.5089777905564858
 40
0.2722427002700338
 50
234.32629977414285
 51
29.648125217486669
  0
LINE
  8
_0-0_
  6
CONTINUOUS
 62
    7
 10
13.626335457239918
 20
-3.5532976466361319
 11
15.306632253436533
 21
-5.4115082212535981
  0
LINE
  8
_0-0_
  6
CONTINUOUS
 62
    7
 10
14.041467606888489
 20
-3.2765428802037491
 11
15.701996205482828
 21
-5.0556806644119554
  0
ARC
  8
_0-0_
  6
CONTINUOUS
 62
    7
 10
13.92167232941847
 20
-3.5465764594513303
 40
0.2954133416509485
 50
66.076440071959667
 51
181.3036949800015
  0
ARC
  8
_0-0_
  6
CONTINUOUS
 62
    7
 10
15.46539559043012
 20
-5.1903515105777061
 40
0.2722427002700338
 50
234.32629977414285
 51
29.648125217486669
  0
LINE
  8
_0-0_
  6
CONTINUOUS
 62
    7
 10
15.860141786301341
 20
-3.1777018921921751
 11
17.540438582497956
 21
-5.0359124668096413
  0
LINE
  8
_0-0_
  6
CONTINUOUS
 62
    7
 10
16.275273935949912
 20
-2.9009471257597923
 11
17.935802534544251
 21
-4.6800849099679986
  0
ARC
  8
_0-0_
  6
CONTINUOUS
 62
    7
 10
16.155478658479893
 20
-3.1709807050073735
 40
0.2954133416509485
 50
66.076440071959667
 51
181.3036949800015
  0
ARC
  8
_0-0_
  6
CONTINUOUS
 62
    7
 10
17.699201919491543
 20
-4.8147557561337493
 40
0.2722427002700338
 50
234.32629977414285
 51
29.648125217486669
  0
LINE
  8
_0-0_
  6
CONTINUOUS
 62
    7
 10
18.014875324953493
 20
-2.6241923593274024
 11
19.695172121150108
 21
-4.4824029339448686
  0
LINE
  8
_0-0_
  6
CONTINUOUS
 62
    7
 10
18.430007474602064
 20
-2.3474375928950195
 11
20.090536073196404
 21
-4.1265753771032259
  0
ARC
  8
_0-0_
  6
CONTINUOUS
 62
    7
 10
18.310212197132046
 20
-2.6174711721426007
 40
0.2954133416509485
 50
66.076440071959667
 51
181.3036949800015
  0
ARC
  8
_0-0_
  6
CONTINUOUS
 62
    7
 10
19.853935458143695
 20
-4.2612462232689765
 40
0.2722427002700338
 50
234.32629977414285
 51
29.648125217486669
  0
LINE
  8
_0-0_
  6
CONTINUOUS
 62
    7
 10
20.050999677991769
 20
-1.8334644552348678
 11
21.731296474188383
 21
-3.691675029852334
  0
LINE
  8
_0-0_
  6
CONTINUOUS
 62
    7
 10
20.466131827640339
 20
-1.5567096888024849
 11
22.126660426234679
 21
-3.3358474730106948
  0
ARC
  8
_0-0_
  6
CONTINUOUS
 62
    7
 10
20.346336550170321
 20
-1.8267432680500661
 40
0.2954133416509485
 50
66.076440071959667
 51
181.3036949800015
  0
ARC
  8
_0-0_
  6
CONTINUOUS
 62
    7
 10
21.89005981118197
 20
-3.4705183191764419
 40
0.2722427002700338
 50
234.32629977414285
 51
29.648125217486669
  0
LINE
  8
_0-0_
  6
CONTINUOUS
 62
    7
 10
21.632455486176866
 20
-0.6869089943006869
 11
23.312752282373481
 21
-2.5451195689181532
  0
LINE
  8
_0-0_
  6
CONTINUOUS
 62
    7
 10
22.047587635825437
 20
-0.4101542278683041
 11
23.708116234419776
 21
-2.189292012076514
  0
ARC
  8
_0-0_
  6
CONTINUOUS
 62
    7
 10
21.927792358355418
 20
-0.6801878071158853
 40
0.2954133416509485
 50
66.076440071959667
 51
181.3036949800015
  0
ARC
  8
_0-0_
  6
CONTINUOUS
 62
    7
 10
23.471515619367068
 20
-2.3239628582422611
 40
0.2722427002700338
 50
234.32629977414285
 51
29.648125217486669
  0
LINE
  8
_0-0_
  6
CONTINUOUS
 62
    7
 10
23.095302108748058
 20
0.4794146642358043
 11
24.775598904944673
 21
-1.3787959103816618
  0
LINE
  8
_0-0_
  6
CONTINUOUS
 62
    7
 10
23.510434258396629
 20
0.7561694306681872
 11
25.170962856990968
 21
-1.0229683535400156
  0
ARC
  8
_0-0_
  6
CONTINUOUS
 62
    7
 10
23.39063898092661
 20
0.486135851420606
 40
0.2954133416509485
 50
66.076440071959667
 51
181.3036949800015
  0
ARC
  8
_0-0_
  6
CONTINUOUS
 62
    7
 10
24.93436224193826
 20
-1.1576391997057698
 40
0.2722427002700338
 50
234.32629977414285
 51
29.648125217486669
  0
LINE
  8
_0-0_
  6
CONTINUOUS
 62
    7
 10
23.826725420033654
 20
2.3771616340578916
 11
25.507022216230268
 21
0.5189510594404254
  0
LINE
  8
_0-0_
  6
CONTINUOUS
 62
    7
 10
24.241857569682224
 20
2.6539164004902744
 11
25.902386168276564
 21
0.8747786162820645
  0
ARC
  8
_0-0_
  6
CONTINUOUS
 62
    7
 10
24.122062292212206
 20
2.3838828212426932
 40
0.2954133416509485
 50
66.076440071959667
 51
181.3036949800015
  0
ARC
  8
_0-0_
  6
CONTINUOUS
 62
    7
 10
25.665785553223856
 20
0.7401077701163174
 40
0.2722427002700338
 50
234.32629977414285
 51
29.648125217486669
  0
LINE
  8
_0-0_
  6
CONTINUOUS
 62
    7
 10
-6.516314630886626
 20
11.793428332568681
 11
7.7125905732244178
 21
19.544996093017232
  0
LINE
  8
_0-0_
  6
CONTINUOUS
 62
    7
 10
-5.8791994724935819
 20
11.241261861961391
 11
8.1373340121531044
 21
18.525611839588386
  0
LINE
  8
_0-0_
  6
CONTINUOUS
 62
    7
 10
8.9231093741711902
 20
18.079631228713261
 11
-5.7305392688685401
 21
10.519198015782621
  0
LINE
  8
_0-0_
  6
CONTINUOUS
 62
    7
 10
-6.4313659431008716
 20
9.7334226537645492
 11
-3.3519760108679009
 21
7.0575389885138193
  0
LINE
  8
_0-0_
  6
CONTINUOUS
 62
    7
 10
-7.8754936354584117
 20
10.965178626657746
 11
-6.9410580698153126
 21
11.220024690014952
  0
LINE
  8
_0-0_
  6
CONTINUOUS
 62
    7
 10
12.321056885600683
 20
14.320651794194376
 11
-1.5892907393138387
 21
7.4185709116032044
  0
LINE
  8
_0-0_
  6
CONTINUOUS
 62
    7
 10
-5.7942507847078559
 20
9.9033200293360224
 11
-2.9484697438856529
 21
7.2911478799245941
  0
LINE
  8
_0-0_
  6
CONTINUOUS
 62
    7
 10
-1.2282588162244394
 20
7.1000133324066823
 11
13.404152654868824
 21
13.917145527212121
  0
ARC
  8
_0-0_
  6
CONTINUOUS
 62
    7
 10
-5.5719927955444462
 20
11.003869336468235
 40
1.2309131313895225
 50
140.10059330463665
 51
199.99815331946135
  0
ARC
  8
_0-0_
  6
CONTINUOUS
 62
    7
 10
-5.3159810042409106
 20
10.266302304951104
 40
1.2361408837524597
 50
150.2214805315526
 51
205.5363266751238
  0
ARC
  8
_0-0_
  6
CONTINUOUS
 62
    7
 10
12.820130426175865
 20
-15.698090751854995
 40
32.793195298884925
 50
124.76555584621393
 51
125.85687103305494
  0
ARC
  8
_0-0_
  6
CONTINUOUS
 62
    7
 10
-5.2537647586718492
 20
10.682724239769961
 40
1.478295192971929
 50
183.87156496596677
 51
208.01922683587998
  0
ARC
  8
_0-0_
  6
CONTINUOUS
 62
    7
 10
-5.5867934521402276
 20
10.193093342423317
 40
0.3563805800175847
 50
113.78771991213451
 51
234.39999786032161
  0
ARC
  8
_0-0_
  6
CONTINUOUS
 62
    7
 10
-2.3264817590136033
 20
8.8969934338326269
 40
2.1059988406903973
 50
240.86037135410365
 51
301.43115432224579
  0
ARC
  8
_0-0_
  6
CONTINUOUS
 62
    7
 10
-2.4269338097395519
 20
8.1900520232726919
 40
1.0392441433724846
 50
239.8780863566306
 51
292.14008744650926
  0
ARC
  8
_0-0_
  6
CONTINUOUS
 62
    7
 10
-1.1433101284386566
 20
5.7620714997811859
 40
1.7154850645351873
 50
105.06848815949296
 51
121.32869286780364
  0
LINE
  8
_0-0_
  6
CONTINUOUS
 62
    7
 10
9.8150705959214122
 20
17.867259509248917
 11
12.91569770010085
 21
14.915292608694536
  0
ARC
  8
_0-0_
  6
CONTINUOUS
 62
    7
 10
8.375512927906783
 20
18.735026484477899
 40
1.0466693914961829
 50
66.331861655557375
 51
129.29872543797515
  0
ARC
  8
_0-0_
  6
CONTINUOUS
 62
    7
 10
11.694560313180858
 20
12.366831975122345
 40
7.1122730807861876
 50
113.11996471383746
 51
120.01013764031789
  0
ARC
  8
_0-0_
  6
CONTINUOUS
 62
    7
 10
9.273082106060258
 20
18.232212818859594
 40
0.770924247488979
 50
45.328803401920517
 51
118.78425297689972
  0
ARC
  8
_0-0_
  6
CONTINUOUS
 62
    7
 10
9.2416669533676838
 20
17.438268635930967
 40
0.7161179418810597
 50
36.801931153982153
 51
116.4130733385134
  0
ARC
  8
_0-0_
  6
CONTINUOUS
 62
    7
 10
12.651008130038548
 20
14.742682455684644
 40
0.3159981541431305
 50
271.78508207795556
 51
33.109294768609722
  0
ARC
  8
_0-0_
  6
CONTINUOUS
 62
    7
 10
11.269816874251376
 20
18.281384362207085
 40
4.0978662785379214
 50
284.86447171426335
 51
289.8435775582584
  0
ARC
  8
_0-0_
  6
CONTINUOUS
 62
    7
 10
13.221571968273764
 20
14.523289809849956
 40
0.6330454948043293
 50
286.76317041302195
 51
26.839648559679528
  0
LINE
  8
_0-0_
  6
CONTINUOUS
 62
    7
 10
-1.8866111465639221
 20
6.8239300971030374
 11
-0.84598972118863
 21
6.2930007984421792
  0
ARC
  8
_0-0_
  6
CONTINUOUS
 62
    7
 10
-3.568015969122996
 20
11.159981412966381
 40
0.9359143360344398
 50
230.84364936906653
 51
325.16580834552013
  0
ARC
  8
_0-0_
  6
CONTINUOUS
 62
    7
 10
-2.0352713501889639
 20
11.517345097265036
 40
0.9359143360344398
 50
230.84364936906653
 51
325.16580834552013
  0
ARC
  8
_0-0_
  6
CONTINUOUS
 62
    7
 10
-0.6123808297778623
 20
12.239408943443806
 40
0.9359143360344398
 50
230.84364936906653
 51
325.16580834552013
  0
ARC
  8
_0-0_
  6
CONTINUOUS
 62
    7
 10
0.8742212064725549
 20
12.812812585997534
 40
0.9359143360344398
 50
230.84364936906653
 51
325.16580834552013
  0
ARC
  8
_0-0_
  6
CONTINUOUS
 62
    7
 10
3.0404127450088652
 20
13.980857043051422
 40
0.9359143360344398
 50
230.84364936906653
 51
325.16580834552013
  0
ARC
  8
_0-0_
  6
CONTINUOUS
 62
    7
 10
4.7606236726700502
 20
14.979004124533844
 40
0.9359143360344398
 50
230.84364936906653
 51
325.16580834552013
  0
ARC
  8
_0-0_
  6
CONTINUOUS
 62
    7
 10
6.3746487405990422
 20
15.807253830444786
 40
0.9359143360344398
 50
230.84364936906653
 51
325.16580834552013
  0
ARC
  8
_0-0_
  6
CONTINUOUS
 62
    7
 10
8.1798083560459816
 20
16.508080504677118
 40
0.9359143360344398
 50
230.84364936906653
 51
325.16580834552013
  0
ARC
  8
_0-0_
  6
CONTINUOUS
 62
    7
 10
10.388474238475141
 20
16.104574237694862
 40
0.9359143360344398
 50
230.84364936906653
 51
325.16580834552013
  0
ARC
  8
_0-0_
  6
CONTINUOUS
 62
    7
 10
10.409711410421579
 20
14.533023513658719
 40
0.9359143360344398
 50
230.84364936906653
 51
325.16580834552013
  0
ARC
  8
_0-0_
  6
CONTINUOUS
 62
    7
 10
8.7319748266532713
 20
13.726010979694216
 40
0.9359143360344398
 50
230.84364936906653
 51
325.16580834552013
  0
ARC
  8
_0-0_
  6
CONTINUOUS
 62
    7
 10
7.2028984465100052
 20
12.961472789622576
 40
0.9359143360344398
 50
230.84364936906653
 51
325.16580834552013
  0
ARC
  8
_0-0_
  6
CONTINUOUS
 62
    7
 10
5.4189760030095044
 20
12.260646115390237
 40
0.9359143360344398
 50
230.84364936906653
 51
325.16580834552013
  0
ARC
  8
_0-0_
  6
CONTINUOUS
 62
    7
 10
2.9554640572231108
 20
10.837755594979136
 40
0.9359143360344398
 50
230.84364936906653
 51
325.16580834552013
  0
ARC
  8
_0-0_
  6
CONTINUOUS
 62
    7
 10
1.6175222245977636
 20
10.306826296318278
 40
0.9359143360344398
 50
230.84364936906653
 51
325.16580834552013
  0
ARC
  8
_0-0_
  6
CONTINUOUS
 62
    7
 10
0.0672086725080305
 20
9.4573394184609043
 40
0.9359143360344398
 50
230.84364936906653
 51
325.16580834552013
  0
ARC
  8
_0-0_
  6
CONTINUOUS
 62
    7
 10
-1.5680535673674001
 20
8.7777499161750043
 40
0.9359143360344398
 50
230.84364936906653
 51
325.16580834552013
  0
ARC
  8
_0-0_
  6
CONTINUOUS
 62
    7
 10
-3.3732131828143395
 20
9.287442042889424
 40
0.9359143360344398
 50
230.84364936906653
 51
325.16580834552013
  0
ENDBLK
  0
ENDSEC
  0
SECTION
  2
ENTITIES
  0
LINE
  8
_0-0_
  6
CONTINUOUS
 62
    7
 10
-1244.420826261083
 20
-1127.4836411798831
 11
1755.579173738917
 21
-1127.4836411798831
  0
LINE
  8
_0-0_
  6
CONTINUOUS
 62
    7
 10
1755.579173738917
 20
-1127.4836411798831
 11
1755.579173738917
 21
1392.5163588201169
  0
LINE
  8
_0-0_
  6
CONTINUOUS
 62
    7
 10
1755.579173738917
 20
1392.5163588201169
 11
-1244.420826261083
 21
1392.5163588201169
  0
LINE
  8
_0-0_
  6
CONTINUOUS
 62
    7
 10
-1244.420826261083
 20
1392.5163588201169
 11
-1244.420826261083
 21
-1127.4836411798831
  0
LINE
  8
_0-0_
  6
CONTINUOUS
 62
    7
 10
-1215.1881720287051
 20
-1099.7116744577415
 11
1784.8118279712949
 21
-1099.7116744577415
  0
LINE
  8
_0-0_
  6
CONTINUOUS
 62
    7
 10
1784.8118279712949
 20
-1099.7116744577415
 11
1784.8118279712949
 21
1420.2883255422585
  0
LINE
  8
_0-0_
  6
CONTINUOUS
 62
    7
 10
1784.8118279712949
 20
1420.2883255422585
 11
-1215.1881720287051
 21
1420.2883255422585
  0
LINE
  8
_0-0_
  6
CONTINUOUS
 62
    7
 10
-1215.1881720287051
 20
1420.2883255422585
 11
-1215.1881720287051
 21
-1099.7116744577415
  0
INSERT
  2
-007-3322
  8
_0-0_
 10
134.86224489795919
 20
101.29591836734693
 41
1
 42
1
 50
0
  0
ENDSEC
  0
EOF
