  0
SECTION
  2
HEADER
  9
$ACADVER
  1
AC1009
  9
$INSBASE
 10
0
 20
0
 30
0
  9
$EXTMIN
 10
0
 20
0
  9
$EXTMAX
 10
297
 20
210
  9
$LIMMIN
 10
0
 20
0
  9
$LIMMAX
 10
297
 20
210
  9
$LTSCALE
 40
1
  0
ENDSEC
  0
SECTION
  2
TABLES
  0
TABLE
  2
LTYPE
 70
     9
  0
LTYPE
  2
CONTINUOUS
 70
    64
  3
実線
 72
    65
 73
     0
 40
0.0
  0
LTYPE
  2
DASHED1
 70
    64
  3
--  --  --  --  --  --  --  --  
 72
    65
 73
     2
 40
2.5
 49
1.25
 49
-1.25
  0
LTYPE
  2
DASHED2
 70
    64
  3
----    ----    ----    ----    
 72
    65
 73
     2
 40
5.0
 49
2.5
 49
-2.5
  0
LTYPE
  2
DASHED3
 70
    64
  3
------  ------  ------  ------  
 72
    65
 73
     2
 40
5.0
 49
3.75
 49
-1.25
  0
LTYPE
  2
CENTER1
 70
    64
  3
----- - ----- - ----- - ----- - 
 72
    65
 73
     4
 40
10.0
 49
6.25
 49
-1.25
 49
1.25
 49
-1.25
  0
LTYPE
  2
CENTER2
 70
    64
  3
----------  --  ----------  --  
 72
    65
 73
     4
 40
20.0
 49
12.5
 49
-2.5
 49
2.5
 49
-2.5
  0
LTYPE
  2
PHANTOM1
 70
    64
  3
--- - - --- - - --- - - --- - - 
 72
    65
 73
     6
 40
10.0
 49
3.25
 49
-1.25
 49
1.25
 49
-1.25
 49
1.25
 49
-1.25
  0
LTYPE
  2
PHANTOM2
 70
    64
  3
--------  -  -  --------  -  -  
 72
    65
 73
     6
 40
20.0
 49
10.0
 49
-2.5
 49
1.25
 49
-2.5
 49
1.25
 49
-2.5
  0
LTYPE
  2
DOT
 70
    64
  3
-   -   -   -   -   -   -   -   
 72
    65
 73
     2
 40
2.5
 49
0.625
 49
-1.875
  0
LTYPE
  2
DUMMY
 70
    64
  3
ダミー
 72
    65
 73
     0
 40
0.0
  0
LTYPE
  2
RAND1
 70
    64
  3
ランダム線1
 72
    65
 73
     4
 40
10.0
 49
1.0
 49
-2.0
 49
3.0
 49
-4.0
  0
LTYPE
  2
RAND2
 70
    64
  3
ランダム線2
 72
    65
 73
     4
 40
14.0
 49
2.0
 49
-3.0
 49
4.0
 49
-5.0
  0
LTYPE
  2
RAND3
 70
    64
  3
ランダム線3
 72
    65
 73
     4
 40
18.0
 49
3.0
 49
-4.0
 49
5.0
 49
-6.0
  0
LTYPE
  2
RAND4
 70
    64
  3
ランダム線4
 72
    65
 73
     4
 40
22.0
 49
4.0
 49
-5.0
 49
6.0
 49
-7.0
  0
LTYPE
  2
RAND5
 70
    64
  3
ランダム線5
 72
    65
 73
     4
 40
26.0
 49
5.0
 49
-6.0
 49
7.0
 49
-8.0
  0
LTYPE
  2
LONG1
 70
    64
  3
----------  --  ----------  --  
 72
    65
 73
     4
 40
40.0
 49
32.5
 49
-2.5
 49
2.5
 49
-2.5
  0
LTYPE
  2
LONG2
 70
    64
  3
--------  -  -  --------  -  -  
 72
    65
 73
     6
 40
40.0
 49
30.0
 49
-2.5
 49
1.25
 49
-2.5
 49
1.25
 49
-2.5
  0
LTYPE
  2
LONG3
 70
    64
  3
+++++++++++++++..+++++++++++++++
 72
    65
 73
     2
 40
40.0
 49
37.5
 49
-2.5
  0
LTYPE
  2
LONG4
 70
    64
  3
+++++++++++++++..+++++++++++++++
 72
    65
 73
     2
 40
80.0
 49
75.0
 49
-5.0
  0
LTYPE
  2
LONG5
 70
    64
  3
----------  --  ----------  --  
 72
    65
 73
     4
 40
60.0
 49
37.5
 49
-7.5
 49
7.5
 49
-7.5
  0
LTYPE
  2
dashed
 70
   64
  3
-------   -------------   ------
 72
   65
 73
    2
 40
7.5
 49
6
 49
-1.5
  0
LTYPE
  2
dashed_spaced
 70
   64
  3
----        --------        ----
 72
   65
 73
    2
 40
12
 49
6
 49
-6
  0
LTYPE
  2
long_dashed_dotted
 70
   64
  3
------------- --- --------------
 72
   65
 73
    4
 40
15.25
 49
12
 49
-1.5
 49
0.25
 49
-1.5
  0
LTYPE
  2
long_dashed_double-dotted
 70
   64
  3
----------- --- --- ------------
 72
   65
 73
    6
 40
17
 49
12
 49
-1.5
 49
0.25
 49
-1.5
 49
0.25
 49
-1.5
  0
LTYPE
  2
long_dashed_triplicate-dotted
 70
   64
  3
--------- --- --- --- ----------
 72
   65
 73
    8
 40
18.75
 49
12
 49
-1.5
 49
0.25
 49
-1.5
 49
0.25
 49
-1.5
 49
0.25
 49
-1.5
  0
LTYPE
  2
dotted
 70
   64
  3
   -       -       -       -    
 72
   65
 73
    2
 40
1.75
 49
0.25
 49
-1.5
  0
LTYPE
  2
chain
 70
   64
  3
-------------- -- --------------
 72
   65
 73
    4
 40
18.5
 49
12
 49
-1.5
 49
3.5
 49
-1.5
  0
LTYPE
  2
chain_double_dash
 70
   64
  3
------------ -- -- -------------
 72
   65
 73
    6
 40
23.5
 49
12
 49
-1.5
 49
3.5
 49
-1.5
 49
3.5
 49
-1.5
  0
LTYPE
  2
dashed_dotted
 70
   64
  3
-----------     -     ----------
 72
   65
 73
    4
 40
9.25
 49
6
 49
-1.5
 49
0.25
 49
-1.5
  0
LTYPE
  2
double-dashed_dotted
 70
   64
  3
------   -----------   -   -----
 72
   65
 73
    6
 40
16.75
 49
6
 49
-1.5
 49
6
 49
-1.5
 49
0.25
 49
-1.5
  0
LTYPE
  2
dashed_double-dotted
 70
   64
  3
---------    -    -    ---------
 72
   65
 73
    6
 40
11
 49
6
 49
-1.5
 49
0.25
 49
-1.5
 49
0.25
 49
-1.5
  0
LTYPE
  2
double-dashed_double-dotted
 70
   64
  3
-----   ---------   -   -   ----
 72
   65
 73
    8
 40
18.5
 49
6
 49
-1.5
 49
6
 49
-1.5
 49
0.25
 49
-1.5
 49
0.25
 49
-1.5
  0
LTYPE
  2
dashed_triplicate-dotted
 70
   64
  3
-------    -    -    -    ------
 72
   65
 73
    8
 40
12.75
 49
6
 49
-1.5
 49
0.25
 49
-1.5
 49
0.25
 49
-1.5
 49
0.25
 49
-1.5
  0
LTYPE
  2
double-dashed_triplicate-dotted
 70
   64
  3
-----  ---------  -  -  -  -----
 72
   65
 73
   10
 40
20.25
 49
6
 49
-1.5
 49
6
 49
-1.5
 49
0.25
 49
-1.5
 49
0.25
 49
-1.5
 49
0.25
 49
-1.5
  0
LTYPE
  2
undefined
 70
   64
  3
--------------------------------
 72
   65
 73
    0
 40
0
  0
LTYPE
  2
_
 70
   64
  3
                                
 72
   65
 73
    0
 40
0
  0
LTYPE
  2
__18
 70
   64
  3
                                
 72
   65
 73
    0
 40
0
  0
LTYPE
  2
__19
 70
   64
  3
                                
 72
   65
 73
    0
 40
0
  0
LTYPE
  2
__20
 70
   64
  3
                                
 72
   65
 73
    0
 40
0
  0
LTYPE
  2
__21
 70
   64
  3
                                
 72
   65
 73
    0
 40
0
  0
LTYPE
  2
__22
 70
   64
  3
                                
 72
   65
 73
    0
 40
0
  0
LTYPE
  2
__23
 70
   64
  3
                                
 72
   65
 73
    0
 40
0
  0
LTYPE
  2
__24
 70
   64
  3
                                
 72
   65
 73
    0
 40
0
  0
LTYPE
  2
__25
 70
   64
  3
                                
 72
   65
 73
    0
 40
0
  0
LTYPE
  2
__26
 70
   64
  3
                                
 72
   65
 73
    0
 40
0
  0
LTYPE
  2
__27
 70
   64
  3
                                
 72
   65
 73
    0
 40
0
  0
LTYPE
  2
__28
 70
   64
  3
                                
 72
   65
 73
    0
 40
0
  0
LTYPE
  2
__29
 70
   64
  3
                                
 72
   65
 73
    0
 40
0
  0
LTYPE
  2
__30
 70
   64
  3
                                
 72
   65
 73
    0
 40
0
  0
LTYPE
  2
__31
 70
   64
  3
                                
 72
   65
 73
    0
 40
0
  0
LTYPE
  2
__32
 70
   64
  3
                                
 72
   65
 73
    0
 40
0
  0
ENDTAB
  0
TABLE
  2
STYLE
  5
3
100
AcDbSymbolTable
 70
     1
  0
STYLE
  5
10
100
AcDbSymbolTableRecord
100
AcDbTextStyleTableRecord
  2
STANDARD
 70
     0
 40
0.0
 41
1.0
 50
0.0
 71
     0
 42
0.2
  3
txt
  4
bigfont.shx
  0
STYLE
  5
26
100
AcDbSymbolTableRecord
100
AcDbTextStyleTableRecord
  2
TATEGAKI
 70
    68
 40
0.0
 41
1.0
 50
0.0
 71
     0
 42
1.0
  3
txt
  4
bigfont.shx
  0
ENDTAB
  0
TABLE
  2
LAYER
 70
    2
  0
LAYER
  2
_0-0_
 70
   64
 62
    7
  6
CONTINUOUS
  0
LAYER
  2
ADD_LINE
 70
   64
 62
    7
  6
CONTINUOUS
  0
ENDTAB
  0
ENDSEC
  0
SECTION
  2
BLOCKS
  0
BLOCK
  2
-002-5
 70
   64
 10
0
 20
0
 30
0
  0
LINE
  8
_0-0_
  6
CONTINUOUS
 62
    7
 10
-23.903614871986264
 20
17.284962356229414
 11
11.304224830083854
 21
15.770646670118879
  0
LINE
  8
_0-0_
  6
CONTINUOUS
 62
    7
 10
11.304224830083854
 20
15.770646670118879
 11
14.522145663068756
 21
15.770646670118879
  0
LINE
  8
_0-0_
  6
CONTINUOUS
 62
    7
 10
14.522145663068756
 20
15.770646670118879
 11
18.623417312951474
 21
15.51826072243378
  0
LINE
  8
_0-0_
  6
CONTINUOUS
 62
    7
 10
-22.389299185875728
 20
16.527804513174146
 11
10.420874013186037
 21
15.076585313984879
  0
LINE
  8
_0-0_
  6
CONTINUOUS
 62
    7
 10
10.420874013186037
 20
15.076585313984879
 11
2.6600061218695004
 21
-20.005061414242697
  0
LINE
  8
_0-0_
  6
CONTINUOUS
 62
    7
 10
2.6600061218695004
 20
-20.005061414242697
 11
-27.373921652656264
 21
-6.5655097000116314
  0
LINE
  8
_0-0_
  6
CONTINUOUS
 62
    7
 10
-27.373921652656264
 20
-6.5655097000116314
 11
-22.389299185875728
 21
16.527804513174146
  0
LINE
  8
_0-0_
  6
CONTINUOUS
 62
    7
 10
-23.903614871986264
 20
17.284962356229414
 11
-28.383465443396631
 21
-6.0607378046414482
  0
LINE
  8
_0-0_
  6
CONTINUOUS
 62
    7
 10
-28.383465443396631
 20
-6.0607378046414482
 11
-27.563211113420067
 21
-6.7547991607754483
  0
LINE
  8
_0-0_
  6
CONTINUOUS
 62
    7
 10
-27.563211113420067
 20
-6.7547991607754483
 11
4.3005147818225993
 21
-21.393184126510697
  0
LINE
  8
_0-0_
  6
CONTINUOUS
 62
    7
 10
4.3005147818225993
 20
-21.393184126510697
 11
17.613873522211122
 21
-21.456280613431971
  0
LINE
  8
_0-0_
  6
CONTINUOUS
 62
    7
 10
17.613873522211122
 20
-21.456280613431971
 11
18.181741904502573
 21
-20.762219257297971
  0
LINE
  8
_0-0_
  6
CONTINUOUS
 62
    7
 10
18.181741904502573
 20
-20.762219257297971
 11
18.560320826030207
 21
-19.689578979636337
  0
LINE
  8
_0-0_
  6
CONTINUOUS
 62
    7
 10
18.560320826030207
 20
-19.689578979636337
 11
20.957987329038559
 21
-10.225105941445442
  0
LINE
  8
_0-0_
  6
CONTINUOUS
 62
    7
 10
20.831794355196024
 20
14.003945036323245
 11
12.439961594666755
 21
-21.582473587274514
  0
LINE
  8
_0-0_
  6
CONTINUOUS
 62
    7
 10
20.831794355196024
 20
14.003945036323245
 11
21.525855711330024
 21
13.499173140953062
  0
LINE
  8
_0-0_
  6
CONTINUOUS
 62
    7
 10
21.525855711330024
 20
13.499173140953062
 11
22.661592475912926
 21
13.436076654031794
  0
LINE
  8
_0-0_
  6
CONTINUOUS
 62
    7
 10
21.525855711330024
 20
13.499173140953062
 11
14.332856202304939
 21
-21.393184126510697
  0
LINE
  8
_0-0_
  6
CONTINUOUS
 62
    7
 10
15.026917558438939
 20
-21.393184126510697
 11
23.166364371283109
 21
13.436076654031794
  0
LINE
  8
_0-0_
  6
CONTINUOUS
 62
    7
 10
25.81641682197656
 20
11.858664480999977
 11
23.04017139744056
 21
0.5643933220921724
  0
LINE
  8
_0-0_
  6
CONTINUOUS
 62
    7
 10
22.787785449755475
 20
0.2489108874858061
 11
35.470179320931265
 21
2.962059825100539
  0
LINE
  8
_0-0_
  6
CONTINUOUS
 62
    7
 10
35.470179320931265
 20
2.962059825100539
 11
35.091600399403632
 21
3.2144457727856235
  0
LINE
  8
_0-0_
  6
CONTINUOUS
 62
    7
 10
35.091600399403632
 20
3.2144457727856235
 11
23.860425727417109
 21
4.3501825373685392
  0
LINE
  8
_0-0_
  6
CONTINUOUS
 62
    7
 10
20.957987329038559
 20
-10.225105941445442
 11
34.64992499095473
 21
-3.599974814711814
  0
LINE
  8
_0-0_
  6
CONTINUOUS
 62
    7
 10
34.64992499095473
 20
-3.599974814711814
 11
35.470179320931265
 21
2.962059825100539
  0
ARC
  8
_0-0_
  6
CONTINUOUS
 62
    7
 10
18.30532427213879
 20
7.425343820688866
 40
8.0991658311928596
 50
61.875390664126812
 51
87.749141351363036
  0
ARC
  8
_0-0_
  6
CONTINUOUS
 62
    7
 10
9.8863964307299881
 20
-10.43339768725432
 40
27.835570222483231
 50
56.360978138744883
 51
63.92098953140939
  0
ARC
  8
_0-0_
  6
CONTINUOUS
 62
    7
 10
25.984004306346975
 20
13.374587720917233
 40
0.9278943989031869
 50
223.06941255882847
 51
249.55045238920917
  0
ARC
  8
_0-0_
  6
CONTINUOUS
 62
    7
 10
24.59925783285999
 20
11.906051720148071
 40
1.2180810955028247
 50
357.77044882722561
 51
29.462472520042308
  0
ARC
  8
_0-0_
  6
CONTINUOUS
 62
    7
 10
24.751044501534622
 20
-3.619167976833964
 40
4.3377897834023758
 50
116.91025556691542
 51
164.99346173583555
  0
ARC
  8
_0-0_
  6
CONTINUOUS
 62
    7
 10
28.147972674675657
 20
-6.9020242969250845
 40
8.7733939867354209
 50
149.8540506194349
 51
182.40657650355496
  0
ARC
  8
_0-0_
  6
CONTINUOUS
 62
    7
 10
22.501179155619198
 20
-7.8040622765233181
 40
3.16418632276832
 50
170.29065968282174
 51
222.76093309702932
  0
ARC
  8
_0-0_
  6
CONTINUOUS
 62
    7
 10
20.996635803361968
 20
-8.8630971775722145
 40
1.3625569997013007
 50
233.07511262935748
 51
268.37460634320814
  0
ARC
  8
_0-0_
  6
CONTINUOUS
 62
    7
 10
23.607412269693413
 20
-2.4539511158996987
 40
3.0607970640533777
 50
85.781569251949762
 51
148.299478567102
  0
ARC
  8
_0-0_
  6
CONTINUOUS
 62
    7
 10
30.246451917858195
 20
-7.6023227125964965
 40
11.449464711269282
 50
143.83324058049442
 51
170.92702952342472
  0
ARC
  8
_0-0_
  6
CONTINUOUS
 62
    7
 10
23.878622209730452
 20
-7.0515893704273793
 40
5.0952962078863795
 50
165.74380019224014
 51
210.76125790203241
  0
ARC
  8
_0-0_
  6
CONTINUOUS
 62
    7
 10
20.939269206066086
 20
-8.116984417532052
 40
2.1082046218796013
 50
226.95267042960495
 51
270.50871890081481
  0
ARC
  8
_0-0_
  6
CONTINUOUS
 62
    7
 10
22.663744621376338
 20
-3.8594183457044551
 40
0.3116028882411991
 50
340.39987393889049
 51
90.675481645058952
  0
ARC
  8
_0-0_
  6
CONTINUOUS
 62
    7
 10
23.444228930904828
 20
-5.1629492853596162
 40
1.7954082636696862
 50
115.89717221584453
 51
173.21140712896016
  0
ARC
  8
_0-0_
  6
CONTINUOUS
 62
    7
 10
27.451245218010683
 20
-6.4076999521597529
 40
5.97034349692695
 50
165.87512412185103
 51
186.45423768388241
  0
ARC
  8
_0-0_
  6
CONTINUOUS
 62
    7
 10
21.887296209336228
 20
-6.7578251276813219
 40
0.4887457558866545
 50
221.05481377096021
 51
265.81508387488282
  0
ARC
  8
_0-0_
  6
CONTINUOUS
 62
    7
 10
21.725646275211673
 20
-6.1227307245727118
 40
1.129584523542088
 50
276.40356368998573
 51
302.17652874839246
  0
ARC
  8
_0-0_
  6
CONTINUOUS
 62
    7
 10
21.731539809784579
 20
-6.7419559231122861
 40
0.5103431164089562
 50
192.55997610126053
 51
279.52190425938676
  0
ARC
  8
_0-0_
  6
CONTINUOUS
 62
    7
 10
28.381921411097352
 20
-6.5005200736211393
 40
7.1571932840247872
 50
163.8592351484784
 51
182.8223503192479
  0
ARC
  8
_0-0_
  6
CONTINUOUS
 62
    7
 10
23.152089988190198
 20
-5.0902259743692184
 40
1.7442762848144637
 50
123.22286073887803
 51
160.59959349917261
  0
ARC
  8
_0-0_
  6
CONTINUOUS
 62
    7
 10
22.658990297962021
 20
-4.8750644800829974
 40
1.3272278081800732
 50
89.953342209415482
 51
110.39767947667201
  0
ARC
  8
_0-0_
  6
CONTINUOUS
 62
    7
 10
26.163102310872588
 20
-5.3214620416152059
 40
1.0724912345645341
 50
107.18191450048042
 51
159.77654617723206
  0
ARC
  8
_0-0_
  6
CONTINUOUS
 62
    7
 10
29.42735575831469
 20
-6.3701648437792713
 40
4.5003421119974227
 50
161.61455151186013
 51
184.78968348756706
  0
ARC
  8
_0-0_
  6
CONTINUOUS
 62
    7
 10
25.846497776837424
 20
-6.633218910818762
 40
0.9107704224640687
 50
187.10917992546266
 51
246.9305925841978
  0
ARC
  8
_0-0_
  6
CONTINUOUS
 62
    7
 10
25.186450558817626
 20
-6.6448811049062328
 40
0.8801359040982429
 50
290.14841414028785
 51
339.85158585971215
  0
ARC
  8
_0-0_
  6
CONTINUOUS
 62
    7
 10
22.864162932636162
 20
-5.6915090028853612
 40
3.3900341458662608
 50
338.24389906102641
 51
5.4958962306615717
  0
ARC
  8
_0-0_
  6
CONTINUOUS
 62
    7
 10
21.15926091571589
 20
-5.6931478160370332
 40
5.089823545464351
 50
3.6758537900999819
 51
12.333603924483588
  0
ARC
  8
_0-0_
  6
CONTINUOUS
 62
    7
 10
25.80127366023963
 20
-4.6246267426369627
 40
0.3308679108381731
 50
3.2369301090222793
 51
82.181849805703536
  0
ARC
  8
_0-0_
  6
CONTINUOUS
 62
    7
 10
24.396703487850047
 20
-5.3480818876421949
 40
1.3234684765639868
 50
116.73120153757041
 51
176.1765812946141
  0
ARC
  8
_0-0_
  6
CONTINUOUS
 62
    7
 10
25.923558917981012
 20
-6.1693273248008111
 40
2.9891047187763466
 50
162.28571479959552
 51
197.71428520040448
  0
ARC
  8
_0-0_
  6
CONTINUOUS
 62
    7
 10
23.755033680700294
 20
-6.8755246882573644
 40
0.7086409567943748
 50
196.67162293795923
 51
227.71984493146792
  0
ARC
  8
_0-0_
  6
CONTINUOUS
 62
    7
 10
24.306676065622597
 20
-13.431033547010657
 40
9.2787441854646051
 50
80.299917301275741
 51
93.121597341740639
  0
ARC
  8
_0-0_
  6
CONTINUOUS
 62
    7
 10
25.067562113791283
 20
13.756376061616564
 40
21.231727164932209
 50
265.16575274353022
 51
271.13902672448052
  0
ARC
  8
_0-0_
  6
CONTINUOUS
 62
    7
 10
23.474340393139045
 20
-5.335243292831592
 40
1.4655351404687957
 50
110.65897996237862
 51
150.69089916814406
  0
ARC
  8
_0-0_
  6
CONTINUOUS
 62
    7
 10
24.402291973025967
 20
-5.8986017579726848
 40
2.5507450878168987
 50
149.85994078581624
 51
191.0907232706046
  0
ARC
  8
_0-0_
  6
CONTINUOUS
 62
    7
 10
22.350961144939063
 20
-6.5097805991944639
 40
0.4675726815124822
 50
165.06431720398092
 51
239.43373011044093
  0
ARC
  8
_0-0_
  6
CONTINUOUS
 62
    7
 10
22.420545852469147
 20
-6.5266920036741496
 40
0.4931799510428787
 50
231.44804548317668
 51
267.43986407765766
  0
LINE
  8
_0-0_
  6
CONTINUOUS
 62
    7
 10
22.327183455933749
 20
-7.0788239292524366
 11
23.064291815097164
 21
-7.1026016182577081
  0
LINE
  8
_0-0_
  6
CONTINUOUS
 62
    7
 10
23.706289418239493
 20
-4.2136124041172422
 11
22.683848791012821
 21
-4.1541681816040636
  0
LINE
  8
_0-0_
  6
CONTINUOUS
 62
    7
 10
22.661592475912926
 20
13.436076654031794
 11
14.598383704941199
 21
-21.44198919249704
  0
LINE
  8
_0-0_
  6
CONTINUOUS
 62
    7
 10
-25.457487819120715
 20
-6.7607423938786937
 11
-27.072900542952894
 21
-6.6779007157334505
  0
LINE
  8
_0-0_
  6
CONTINUOUS
 62
    7
 10
-24.390648743795708
 20
-1.2993093293708853
 11
-25.457487819120715
 21
-6.7607423938786937
  0
ARC
  8
_0-0_
  6
CONTINUOUS
 62
    7
 10
-20.459475579938982
 20
13.598444719569869
 40
1.334092959472321
 50
81.588274033687355
 51
179.26388344651053
  0
ARC
  8
_0-0_
  6
CONTINUOUS
 62
    7
 10
8.5443637158039962
 20
12.162535669734666
 40
1.0918859170265394
 50
337.61041183694698
 51
96.474537709218481
  0
ARC
  8
_0-0_
  6
CONTINUOUS
 62
    7
 10
5.6039719408921655
 20
1.093008694438538
 40
2.162611578166401
 50
258.28145123002685
 51
304.71167480514504
  0
ARC
  8
_0-0_
  6
CONTINUOUS
 62
    7
 10
-21.237952666252966
 20
6.3208613637666531
 40
1.6165176374011274
 50
163.08901001404976
 51
239.91385863404588
  0
ARC
  8
_0-0_
  6
CONTINUOUS
 62
    7
 10
51.129408167644499
 20
-0.4590926453569323
 40
74.268708098288258
 50
169.07579925956585
 51
174.39781402765416
  0
LINE
  8
_0-0_
  6
CONTINUOUS
 62
    7
 10
-20.264317142015926
 20
14.91818606112929
 11
8.4212408489429151
 21
13.24745760953347
  0
LINE
  8
_0-0_
  6
CONTINUOUS
 62
    7
 10
5.1647362399001935
 20
-1.0245278074885107
 11
-22.048315319143683
 21
4.9221327829373109
  0
LINE
  8
_0-0_
  6
CONTINUOUS
 62
    7
 10
-20.320952004781901
 20
14.295202570703722
 11
7.2602261622407269
 21
12.341299805278098
  0
LINE
  8
_0-0_
  6
CONTINUOUS
 62
    7
 10
-21.453649260101102
 20
6.1397823324054599
 11
4.428483023942718
 21
1.240866703149905
  0
LINE
  8
_0-0_
  6
CONTINUOUS
 62
    7
 10
6.5239729462832372
 20
2.316929095703145
 11
8.3929234175599277
 21
10.075905294639696
  0
LINE
  8
_0-0_
  6
CONTINUOUS
 62
    7
 10
-21.991680456377722
 20
5.4884814105969184
 11
4.9381967888363505
 21
-0.1183700032331387
  0
LINE
  8
_0-0_
  6
CONTINUOUS
 62
    7
 10
-20.858983201058521
 20
13.530631923363273
 11
-22.048315319143683
 21
7.0459401366608176
  0
LINE
  8
_0-0_
  6
CONTINUOUS
 62
    7
 10
-21.651871279781957
 20
6.9326704111288961
 11
4.6833399063895342
 21
2.1187070760222895
  0
LINE
  8
_0-0_
  6
CONTINUOUS
 62
    7
 10
6.5797173974707448
 20
11.622456478867619
 11
-20.264317142015926
 21
13.813806237193063
  0
LINE
  8
_0-0_
  6
CONTINUOUS
 62
    7
 10
5.2496885340491417
 20
2.7983254292138042
 11
7.3420423612672181
 21
11.195271709496907
  0
ARC
  8
_0-0_
  6
CONTINUOUS
 62
    7
 10
6.9015386980562994
 20
10.746084504036887
 40
1.6350438998012085
 50
335.80241829047986
 51
77.327684063675989
  0
ARC
  8
_0-0_
  6
CONTINUOUS
 62
    7
 10
6.5569567555149888
 20
10.688050285154958
 40
0.9346833590424173
 50
32.865349841164068
 51
88.604642280263164
  0
ARC
  8
_0-0_
  6
CONTINUOUS
 62
    7
 10
4.3982126662574643
 20
2.9321008809196201
 40
0.8619205444301076
 50
289.31761582867392
 51
351.07124198679435
  0
ARC
  8
_0-0_
  6
CONTINUOUS
 62
    7
 10
4.8504127515491149
 20
2.9975907226824745
 40
1.806683142070207
 50
256.49452319568076
 51
337.86769897527353
  0
ARC
  8
_0-0_
  6
CONTINUOUS
 62
    7
 10
5.3161754237498258
 20
2.0837390500547315
 40
2.2343124515213773
 50
260.26043544540903
 51
326.31169439103792
  0
ARC
  8
_0-0_
  6
CONTINUOUS
 62
    7
 10
-21.797152014703329
 20
7.1745997705530726
 40
0.2821990554390419
 50
207.12401665791285
 51
300.98519154024115
  0
ARC
  8
_0-0_
  6
CONTINUOUS
 62
    7
 10
-20.335110720473381
 20
13.19648623304407
 40
0.6213660099114908
 50
83.457961853788021
 51
147.46872826995252
  0
ARC
  8
_0-0_
  6
CONTINUOUS
 62
    7
 10
-21.443961717785839
 20
6.1986527818595647
 40
0.8968495933910819
 50
157.88917332673734
 51
232.35884128988423
  0
ARC
  8
_0-0_
  6
CONTINUOUS
 62
    7
 10
-21.331530337261981
 20
6.7785679608795846
 40
0.6503538348164497
 50
166.29330290042827
 51
259.17714964378763
  0
LINE
  8
_0-0_
  6
CONTINUOUS
 62
    7
 10
-22.274854770207526
 20
6.5362263717671851
 11
-21.28374467180322
 21
11.378507138256779
  0
ARC
  8
_0-0_
  6
CONTINUOUS
 62
    7
 10
-19.640212169159369
 20
13.0998424845519
 40
1.3756062152259585
 50
119.66087101215331
 51
171.46115037023995
  0
ARC
  8
_0-0_
  6
CONTINUOUS
 62
    7
 10
-19.885178199610493
 20
11.125795515763215
 40
0.9961500470094985
 50
110.62055120344209
 51
218.86921139044244
  0
ARC
  8
_0-0_
  6
CONTINUOUS
 62
    7
 10
-20.190395475208035
 20
11.039685779034812
 40
0.7153917770125021
 50
228.89098020971838
 51
307.52919857378947
  0
ARC
  8
_0-0_
  6
CONTINUOUS
 62
    7
 10
-17.987901150493656
 20
10.940165673110315
 40
0.9961500470094985
 50
110.62055120344209
 51
218.86921139044244
  0
ARC
  8
_0-0_
  6
CONTINUOUS
 62
    7
 10
-18.293118426091198
 20
10.854055936381911
 40
0.7153917770125021
 50
228.89098020971838
 51
307.52919857378947
  0
ARC
  8
_0-0_
  6
CONTINUOUS
 62
    7
 10
-15.835776365387161
 20
10.656991359280511
 40
0.9961500470094985
 50
110.62055120344209
 51
218.86921139044244
  0
ARC
  8
_0-0_
  6
CONTINUOUS
 62
    7
 10
-16.140993640984703
 20
10.570881622552108
 40
0.7153917770125021
 50
228.89098020971838
 51
307.52919857378947
  0
ARC
  8
_0-0_
  6
CONTINUOUS
 62
    7
 10
-13.428794697833851
 20
10.260547319918786
 40
0.9961500470094985
 50
110.62055120344209
 51
218.86921139044244
  0
ARC
  8
_0-0_
  6
CONTINUOUS
 62
    7
 10
-13.734011973431393
 20
10.174437583190382
 40
0.7153917770125021
 50
228.89098020971838
 51
307.52919857378947
  0
ARC
  8
_0-0_
  6
CONTINUOUS
 62
    7
 10
-20.508152543578873
 20
8.5898188683229648
 40
0.9961500470094985
 50
110.62055120344209
 51
218.86921139044244
  0
ARC
  8
_0-0_
  6
CONTINUOUS
 62
    7
 10
-20.813369819176415
 20
8.5037091315945617
 40
0.7153917770125021
 50
228.89098020971838
 51
307.52919857378947
  0
ARC
  8
_0-0_
  6
CONTINUOUS
 62
    7
 10
-18.582567209536236
 20
8.2216922603442271
 40
0.9961500470094985
 50
110.62055120344209
 51
218.86921139044244
  0
ARC
  8
_0-0_
  6
CONTINUOUS
 62
    7
 10
-18.887784485133778
 20
8.1355825236158239
 40
0.7153917770125021
 50
228.89098020971838
 51
307.52919857378947
  0
ARC
  8
_0-0_
  6
CONTINUOUS
 62
    7
 10
-16.288855267514847
 20
7.9385179465144233
 40
0.9961500470094985
 50
110.62055120344209
 51
218.86921139044244
  0
ARC
  8
_0-0_
  6
CONTINUOUS
 62
    7
 10
-16.594072543112389
 20
7.8524082097860202
 40
0.7153917770125021
 50
228.89098020971838
 51
307.52919857378947
  0
ARC
  8
_0-0_
  6
CONTINUOUS
 62
    7
 10
-14.080095619642393
 20
7.4571216130037641
 40
0.9961500470094985
 50
110.62055120344209
 51
218.86921139044244
  0
ARC
  8
_0-0_
  6
CONTINUOUS
 62
    7
 10
-14.385312895239935
 20
7.3710118762753609
 40
0.7153917770125021
 50
228.89098020971838
 51
307.52919857378947
  0
ARC
  8
_0-0_
  6
CONTINUOUS
 62
    7
 10
-11.673113952089082
 20
7.0040427108760781
 40
0.9961500470094985
 50
110.62055120344209
 51
218.86921139044244
  0
ARC
  8
_0-0_
  6
CONTINUOUS
 62
    7
 10
-11.978331227686624
 20
6.9179329741476749
 40
0.7153917770125021
 50
228.89098020971838
 51
307.52919857378947
  0
ARC
  8
_0-0_
  6
CONTINUOUS
 62
    7
 10
-8.5951619065938019
 20
6.629126105696443
 40
1.4942250705142477
 50
110.62055120344209
 51
218.86921139044244
  0
ARC
  8
_0-0_
  6
CONTINUOUS
 62
    7
 10
-9.0529878199901077
 20
6.4999615006038454
 40
1.0730876655187531
 50
228.89098020971838
 51
307.52919857378947
  0
ARC
  8
_0-0_
  6
CONTINUOUS
 62
    7
 10
-5.2820224347851337
 20
9.4325518126114787
 40
1.4942250705142477
 50
110.62055120344209
 51
218.86921139044244
  0
ARC
  8
_0-0_
  6
CONTINUOUS
 62
    7
 10
-5.7398483481814395
 20
9.303387207518881
 40
1.0730876655187531
 50
228.89098020971838
 51
307.52919857378947
  0
ARC
  8
_0-0_
  6
CONTINUOUS
 62
    7
 10
-5.9333233565936752
 20
6.317634360483666
 40
1.4942250705142477
 50
110.62055120344209
 51
218.86921139044244
  0
ARC
  8
_0-0_
  6
CONTINUOUS
 62
    7
 10
-6.391149269989981
 20
6.1884697553910684
 40
1.0730876655187531
 50
228.89098020971838
 51
307.52919857378947
  0
ARC
  8
_0-0_
  6
CONTINUOUS
 62
    7
 10
-2.7900884730828892
 20
5.86455545835598
 40
1.4942250705142477
 50
110.62055120344209
 51
218.86921139044244
  0
ARC
  8
_0-0_
  6
CONTINUOUS
 62
    7
 10
-3.2479143864791951
 20
5.7353908532633824
 40
1.0730876655187531
 50
228.89098020971838
 51
307.52919857378947
  0
ARC
  8
_0-0_
  6
CONTINUOUS
 62
    7
 10
-1.9972003943594387
 20
9.1493774987816749
 40
1.4942250705142477
 50
110.62055120344209
 51
218.86921139044244
  0
ARC
  8
_0-0_
  6
CONTINUOUS
 62
    7
 10
-2.4550263077557446
 20
9.0202128936890773
 40
1.0730876655187531
 50
228.89098020971838
 51
307.52919857378947
  0
ARC
  8
_0-0_
  6
CONTINUOUS
 62
    7
 10
1.4292088029811509
 20
8.8662031849518712
 40
1.4942250705142477
 50
110.62055120344209
 51
218.86921139044244
  0
ARC
  8
_0-0_
  6
CONTINUOUS
 62
    7
 10
0.971382889584845
 20
8.7370385798592736
 40
1.0730876655187531
 50
228.89098020971838
 51
307.52919857378947
  0
ARC
  8
_0-0_
  6
CONTINUOUS
 62
    7
 10
0.5513684301087664
 20
5.6096985759091638
 40
1.4942250705142477
 50
110.62055120344209
 51
218.86921139044244
  0
ARC
  8
_0-0_
  6
CONTINUOUS
 62
    7
 10
0.0935425167124606
 20
5.4805339708165661
 40
1.0730876655187531
 50
228.89098020971838
 51
307.52919857378947
  0
ARC
  8
_0-0_
  6
CONTINUOUS
 62
    7
 10
4.1759996471302117
 20
4.9017627913346615
 40
1.4942250705142477
 50
110.62055120344209
 51
218.86921139044244
  0
ARC
  8
_0-0_
  6
CONTINUOUS
 62
    7
 10
3.7181737337339058
 20
4.7725981862420639
 40
1.0730876655187531
 50
228.89098020971838
 51
307.52919857378947
  0
ARC
  8
_0-0_
  6
CONTINUOUS
 62
    7
 10
4.9972051572366354
 20
8.4980765769731335
 40
1.4942250705142477
 50
110.62055120344209
 51
218.86921139044244
  0
ARC
  8
_0-0_
  6
CONTINUOUS
 62
    7
 10
4.5393792438403295
 20
8.3689119718805358
 40
1.0730876655187531
 50
228.89098020971838
 51
307.52919857378947
  0
LINE
  8
_0-0_
  6
CONTINUOUS
 62
    7
 10
4.7215571611069578
 20
-2.5704366120148023
 11
-22.34097243218558
 21
3.6832019831919922
  0
LINE
  8
_0-0_
  6
CONTINUOUS
 62
    7
 10
-22.414114404059347
 20
3.2809211378862955
 11
4.1364213861168508
 21
-2.8630044995098558
  0
LINE
  8
_0-0_
  6
CONTINUOUS
 62
    7
 10
4.0998504001799745
 20
-3.3384273166893195
 11
-22.414114404059347
 21
3.2809211378862955
  0
LINE
  8
_0-0_
  6
CONTINUOUS
 62
    7
 10
-22.706682291554401
 20
2.8054983207068318
 11
3.3318596955054431
 21
-4.472127880732657
  0
LINE
  8
_0-0_
  6
CONTINUOUS
 62
    7
 10
4.5021312454856712
 20
-5.7521123885235212
 11
2.966149836136637
 21
-12.920025632152353
  0
LINE
  8
_0-0_
  6
CONTINUOUS
 62
    7
 10
2.3810140611465158
 20
-4.8012667541645868
 11
-22.706682291554401
 21
2.8054983207068318
  0
LINE
  8
_0-0_
  6
CONTINUOUS
 62
    7
 10
2.9295788501997464
 20
-5.7155414025866378
 11
1.6861653283457656
 21
-12.115463941540952
  0
LINE
  8
_0-0_
  6
CONTINUOUS
 62
    7
 10
-0.1423839684983221
 20
-12.115463941540952
 11
-23.803811869660848
 21
-3.9967050635531933
  0
LINE
  8
_0-0_
  6
CONTINUOUS
 62
    7
 10
0.7718906799237288
 20
-13.212593519647406
 11
-23.803811869660848
 21
-3.9967050635531933
  0
LINE
  8
_0-0_
  6
CONTINUOUS
 62
    7
 10
1.5033103986613554
 20
-15.516565633670965
 11
-24.388947644650955
 21
-5.4595445010284607
  0
LINE
  8
_0-0_
  6
CONTINUOUS
 62
    7
 10
-24.206092714966559
 20
-3.045859429194266
 11
-23.328389052481384
 21
2.586072405085531
  0
LINE
  8
_0-0_
  6
CONTINUOUS
 62
    7
 10
-23.584385954039561
 20
3.0980662082018853
 11
-23.840382855597738
 21
2.659214376959298
  0
LINE
  8
_0-0_
  6
CONTINUOUS
 62
    7
 10
-23.840382855597738
 20
2.659214376959298
 11
-24.827799475893542
 21
-4.6184118244801766
  0
LINE
  8
_0-0_
  6
CONTINUOUS
 62
    7
 10
-23.840382855597738
 20
2.9152112785174751
 11
-22.779824263428168
 21
7.2305876190695244
  0
ARC
  8
_0-0_
  6
CONTINUOUS
 62
    7
 10
-22.895402379360746
 20
2.3497410337009654
 40
0.493284883409762
 50
67.506520329304266
 51
151.37354932705088
  0
ARC
  8
_0-0_
  6
CONTINUOUS
 62
    7
 10
-22.832529507866596
 20
2.1224813774738038
 40
1.2316874106682179
 50
70.140863858834351
 51
127.6204544422063
  0
ARC
  8
_0-0_
  6
CONTINUOUS
 62
    7
 10
-22.20768081238937
 20
1.6097233200076317
 40
2.0777585092085928
 50
93.678144135948799
 51
135.67558220472628
  0
ARC
  8
_0-0_
  6
CONTINUOUS
 62
    7
 10
-22.972137206717022
 20
-3.0843220178520454
 40
1.2345548052094066
 50
178.2146595265051
 51
227.64954134867551
  0
ARC
  8
_0-0_
  6
CONTINUOUS
 62
    7
 10
-24.15069842744451
 20
-4.8001911369311472
 40
0.7010774195806978
 50
164.97232079337419
 51
250.13330236006198
  0
ARC
  8
_0-0_
  6
CONTINUOUS
 62
    7
 10
0.7718906799237288
 20
-10.2869146446969
 40
2.0443802639763793
 50
243.43494882292137
 51
296.56505117707826
  0
ARC
  8
_0-0_
  6
CONTINUOUS
 62
    7
 10
1.5613469633003234
 20
-10.758759865425922
 40
2.5777006858735039
 50
252.16578959151536
 51
303.02349714566748
  0
ARC
  8
_0-0_
  6
CONTINUOUS
 62
    7
 10
1.60759335173951
 20
-13.211883589700058
 40
2.3070401509520009
 50
267.40923032474029
 51
342.45264427748083
  0
ARC
  8
_0-0_
  6
CONTINUOUS
 62
    7
 10
2.2895865963043462
 20
-5.4778299939968775
 40
0.6827128230960898
 50
339.62356478616044
 51
82.30394827798608
  0
ARC
  8
_0-0_
  6
CONTINUOUS
 62
    7
 10
3.1483275253406759
 20
-5.814902255912564
 40
1.3552590453950775
 50
2.655494316525552
 51
82.216965260545209
  0
ARC
  8
_0-0_
  6
CONTINUOUS
 62
    7
 10
3.674226372361403
 20
-5.4673255618660477
 40
2.1710282244533547
 50
13.851965257548672
 51
78.694094782564221
  0
ARC
  8
_0-0_
  6
CONTINUOUS
 62
    7
 10
3.5905325228638958
 20
-5.0541417422891186
 40
2.258113608239833
 50
22.786996387324482
 51
76.010414322666691
  0
ARC
  8
_0-0_
  6
CONTINUOUS
 62
    7
 10
4.1567386005262392
 20
-4.4162555411068496
 40
1.9303024440151841
 50
20.485462219239317
 51
72.985946958617475
  0
ARC
  8
_0-0_
  6
CONTINUOUS
 62
    7
 10
-22.174954639590894
 20
0.0353366582304346
 40
0.9007986555139401
 50
105.39651466371413
 51
227.81848982878353
  0
ARC
  8
_0-0_
  6
CONTINUOUS
 62
    7
 10
-22.450685389996224
 20
0.0108654786967576
 40
0.7223798369002568
 50
242.89443863579046
 51
324.0970279258014
  0
ARC
  8
_0-0_
  6
CONTINUOUS
 62
    7
 10
-20.045418886706884
 20
-0.8393646832145265
 40
0.9007986555139401
 50
105.39651466371413
 51
227.81848982878353
  0
ARC
  8
_0-0_
  6
CONTINUOUS
 62
    7
 10
-20.321149637112214
 20
-0.8638358627482034
 40
0.7223798369002568
 50
242.89443863579046
 51
324.0970279258014
  0
ARC
  8
_0-0_
  6
CONTINUOUS
 62
    7
 10
-18.36315353361033
 20
-1.2782165144570996
 40
0.9007986555139401
 50
105.39651466371413
 51
227.81848982878353
  0
ARC
  8
_0-0_
  6
CONTINUOUS
 62
    7
 10
-18.63888428401566
 20
-1.3026876939907766
 40
0.7223798369002568
 50
242.89443863579046
 51
324.0970279258014
  0
ARC
  8
_0-0_
  6
CONTINUOUS
 62
    7
 10
-15.839755503965478
 20
-1.8999232753840971
 40
0.9007986555139401
 50
105.39651466371413
 51
227.81848982878353
  0
ARC
  8
_0-0_
  6
CONTINUOUS
 62
    7
 10
-16.115486254370808
 20
-1.9243944549177741
 40
0.7223798369002568
 50
242.89443863579046
 51
324.0970279258014
  0
ARC
  8
_0-0_
  6
CONTINUOUS
 62
    7
 10
-22.605387902288612
 20
-2.7776269378692575
 40
0.9007986555139401
 50
105.39651466371413
 51
227.81848982878353
  0
ARC
  8
_0-0_
  6
CONTINUOUS
 62
    7
 10
-22.881118652693942
 20
-2.8020981174029345
 40
0.7223798369002568
 50
242.89443863579046
 51
324.0970279258014
  0
ARC
  8
_0-0_
  6
CONTINUOUS
 62
    7
 10
-20.740267619507648
 20
-3.6187596144175416
 40
0.9007986555139401
 50
105.39651466371413
 51
227.81848982878353
  0
ARC
  8
_0-0_
  6
CONTINUOUS
 62
    7
 10
-21.015998369912978
 20
-3.6432307939512185
 40
0.7223798369002568
 50
242.89443863579046
 51
324.0970279258014
  0
ARC
  8
_0-0_
  6
CONTINUOUS
 62
    7
 10
-18.655721421105383
 20
-3.984469473786362
 40
0.9007986555139401
 50
105.39651466371413
 51
227.81848982878353
  0
ARC
  8
_0-0_
  6
CONTINUOUS
 62
    7
 10
-18.931452171510713
 20
-4.0089406533200389
 40
0.7223798369002568
 50
242.89443863579046
 51
324.0970279258014
  0
ARC
  8
_0-0_
  6
CONTINUOUS
 62
    7
 10
-16.461462264892475
 20
-4.6793182065871122
 40
0.9007986555139401
 50
105.39651466371413
 51
227.81848982878353
  0
ARC
  8
_0-0_
  6
CONTINUOUS
 62
    7
 10
-16.737193015297805
 20
-4.7037893861207891
 40
0.7223798369002568
 50
242.89443863579046
 51
324.0970279258014
  0
ARC
  8
_0-0_
  6
CONTINUOUS
 62
    7
 10
-14.056775103954621
 20
-5.5545747511189063
 40
1.0809583866167281
 50
105.39651466371413
 51
227.81848982878353
  0
ARC
  8
_0-0_
  6
CONTINUOUS
 62
    7
 10
-14.387652004441023
 20
-5.5839401665593158
 40
0.8668558042803081
 50
242.89443863579046
 51
324.0970279258014
  0
ARC
  8
_0-0_
  6
CONTINUOUS
 62
    7
 10
-11.569948060246659
 20
-6.4688493995409573
 40
1.0809583866167281
 50
105.39651466371413
 51
227.81848982878353
  0
ARC
  8
_0-0_
  6
CONTINUOUS
 62
    7
 10
-11.900824960733061
 20
-6.4982148149813668
 40
0.8668558042803081
 50
242.89443863579046
 51
324.0970279258014
  0
ARC
  8
_0-0_
  6
CONTINUOUS
 62
    7
 10
-8.0225624243691271
 20
-4.3843032011386924
 40
1.0809583866167281
 50
105.39651466371413
 51
227.81848982878353
  0
ARC
  8
_0-0_
  6
CONTINUOUS
 62
    7
 10
-8.353439324855529
 20
-4.4136686165791019
 40
0.8668558042803081
 50
242.89443863579046
 51
324.0970279258014
  0
ARC
  8
_0-0_
  6
CONTINUOUS
 62
    7
 10
-8.5663385867984374
 20
-7.3063113991591848
 40
1.3511979832709102
 50
105.39651466371413
 51
227.81848982878353
  0
ARC
  8
_0-0_
  6
CONTINUOUS
 62
    7
 10
-8.9799347124064326
 20
-7.3430181684597073
 40
1.0835697553503854
 50
242.89443863579046
 51
324.0970279258014
  0
ARC
  8
_0-0_
  6
CONTINUOUS
 62
    7
 10
-5.1286659087315485
 20
-4.9291973132618665
 40
1.3511979832709102
 50
105.39651466371413
 51
227.81848982878353
  0
ARC
  8
_0-0_
  6
CONTINUOUS
 62
    7
 10
-5.5422620343395437
 20
-4.965904082562389
 40
1.0835697553503854
 50
242.89443863579046
 51
324.0970279258014
  0
ARC
  8
_0-0_
  6
CONTINUOUS
 62
    7
 10
-5.7869436555954081
 20
-7.6720212585279981
 40
1.3511979832709102
 50
105.39651466371413
 51
227.81848982878353
  0
ARC
  8
_0-0_
  6
CONTINUOUS
 62
    7
 10
-6.2005397812034033
 20
-7.7087280278285206
 40
1.0835697553503854
 50
242.89443863579046
 51
324.0970279258014
  0
ARC
  8
_0-0_
  6
CONTINUOUS
 62
    7
 10
-2.6418388650235727
 20
-9.2080026678770395
 40
1.3511979832709102
 50
105.39651466371413
 51
227.81848982878353
  0
ARC
  8
_0-0_
  6
CONTINUOUS
 62
    7
 10
-3.0554349906315679
 20
-9.244709437177562
 40
1.0835697553503854
 50
242.89443863579046
 51
324.0970279258014
  0
ARC
  8
_0-0_
  6
CONTINUOUS
 62
    7
 10
-1.9835611181596988
 20
-6.3554657648002575
 40
1.3511979832709102
 50
105.39651466371413
 51
227.81848982878353
  0
ARC
  8
_0-0_
  6
CONTINUOUS
 62
    7
 10
-2.397157243767694
 20
-6.39217253410078
 40
1.0835697553503854
 50
242.89443863579046
 51
324.0970279258014
  0
ARC
  8
_0-0_
  6
CONTINUOUS
 62
    7
 10
1.1615436724121366
 20
-7.1234564694747746
 40
1.3511979832709102
 50
105.39651466371413
 51
227.81848982878353
  0
ARC
  8
_0-0_
  6
CONTINUOUS
 62
    7
 10
0.7479475468041414
 20
-7.1601632387752971
 40
1.0835697553503854
 50
242.89443863579046
 51
324.0970279258014
  0
ARC
  8
_0-0_
  6
CONTINUOUS
 62
    7
 10
0.7958338130433162
 20
-10.34170323192037
 40
1.3511979832709102
 50
105.39651466371413
 51
227.81848982878353
  0
ARC
  8
_0-0_
  6
CONTINUOUS
 62
    7
 10
0.382237687435321
 20
-10.378410001220892
 40
1.0835697553503854
 50
242.89443863579046
 51
324.0970279258014
  0
ENDBLK
  0
ENDSEC
  0
SECTION
  2
ENTITIES
  0
INSERT
  2
-002-5
  8
_0-0_
 10
143.70779580340368
 20
109.14519742973839
 41
1
 42
1
 50
0
  0
ENDSEC
  0
EOF
