  0
SECTION
  2
HEADER
  9
$ACADVER
  1
AC1009
  9
$INSBASE
 10
0
 20
0
 30
0
  9
$EXTMIN
 10
0
 20
0
  9
$EXTMAX
 10
297
 20
210
  9
$LIMMIN
 10
0
 20
0
  9
$LIMMAX
 10
297
 20
210
  9
$LTSCALE
 40
1
  0
ENDSEC
  0
SECTION
  2
TABLES
  0
TABLE
  2
LTYPE
 70
     9
  0
LTYPE
  2
CONTINUOUS
 70
    64
  3
実線
 72
    65
 73
     0
 40
0.0
  0
LTYPE
  2
DASHED1
 70
    64
  3
--  --  --  --  --  --  --  --  
 72
    65
 73
     2
 40
2.5
 49
1.25
 49
-1.25
  0
LTYPE
  2
DASHED2
 70
    64
  3
----    ----    ----    ----    
 72
    65
 73
     2
 40
5.0
 49
2.5
 49
-2.5
  0
LTYPE
  2
DASHED3
 70
    64
  3
------  ------  ------  ------  
 72
    65
 73
     2
 40
5.0
 49
3.75
 49
-1.25
  0
LTYPE
  2
CENTER1
 70
    64
  3
----- - ----- - ----- - ----- - 
 72
    65
 73
     4
 40
10.0
 49
6.25
 49
-1.25
 49
1.25
 49
-1.25
  0
LTYPE
  2
CENTER2
 70
    64
  3
----------  --  ----------  --  
 72
    65
 73
     4
 40
20.0
 49
12.5
 49
-2.5
 49
2.5
 49
-2.5
  0
LTYPE
  2
PHANTOM1
 70
    64
  3
--- - - --- - - --- - - --- - - 
 72
    65
 73
     6
 40
10.0
 49
3.25
 49
-1.25
 49
1.25
 49
-1.25
 49
1.25
 49
-1.25
  0
LTYPE
  2
PHANTOM2
 70
    64
  3
--------  -  -  --------  -  -  
 72
    65
 73
     6
 40
20.0
 49
10.0
 49
-2.5
 49
1.25
 49
-2.5
 49
1.25
 49
-2.5
  0
LTYPE
  2
DOT
 70
    64
  3
-   -   -   -   -   -   -   -   
 72
    65
 73
     2
 40
2.5
 49
0.625
 49
-1.875
  0
LTYPE
  2
DUMMY
 70
    64
  3
ダミー
 72
    65
 73
     0
 40
0.0
  0
LTYPE
  2
RAND1
 70
    64
  3
ランダム線1
 72
    65
 73
     4
 40
10.0
 49
1.0
 49
-2.0
 49
3.0
 49
-4.0
  0
LTYPE
  2
RAND2
 70
    64
  3
ランダム線2
 72
    65
 73
     4
 40
14.0
 49
2.0
 49
-3.0
 49
4.0
 49
-5.0
  0
LTYPE
  2
RAND3
 70
    64
  3
ランダム線3
 72
    65
 73
     4
 40
18.0
 49
3.0
 49
-4.0
 49
5.0
 49
-6.0
  0
LTYPE
  2
RAND4
 70
    64
  3
ランダム線4
 72
    65
 73
     4
 40
22.0
 49
4.0
 49
-5.0
 49
6.0
 49
-7.0
  0
LTYPE
  2
RAND5
 70
    64
  3
ランダム線5
 72
    65
 73
     4
 40
26.0
 49
5.0
 49
-6.0
 49
7.0
 49
-8.0
  0
LTYPE
  2
LONG1
 70
    64
  3
----------  --  ----------  --  
 72
    65
 73
     4
 40
40.0
 49
32.5
 49
-2.5
 49
2.5
 49
-2.5
  0
LTYPE
  2
LONG2
 70
    64
  3
--------  -  -  --------  -  -  
 72
    65
 73
     6
 40
40.0
 49
30.0
 49
-2.5
 49
1.25
 49
-2.5
 49
1.25
 49
-2.5
  0
LTYPE
  2
LONG3
 70
    64
  3
+++++++++++++++..+++++++++++++++
 72
    65
 73
     2
 40
40.0
 49
37.5
 49
-2.5
  0
LTYPE
  2
LONG4
 70
    64
  3
+++++++++++++++..+++++++++++++++
 72
    65
 73
     2
 40
80.0
 49
75.0
 49
-5.0
  0
LTYPE
  2
LONG5
 70
    64
  3
----------  --  ----------  --  
 72
    65
 73
     4
 40
60.0
 49
37.5
 49
-7.5
 49
7.5
 49
-7.5
  0
LTYPE
  2
dashed
 70
   64
  3
-------   -------------   ------
 72
   65
 73
    2
 40
7.5
 49
6
 49
-1.5
  0
LTYPE
  2
dashed_spaced
 70
   64
  3
----        --------        ----
 72
   65
 73
    2
 40
12
 49
6
 49
-6
  0
LTYPE
  2
long_dashed_dotted
 70
   64
  3
------------- --- --------------
 72
   65
 73
    4
 40
15.25
 49
12
 49
-1.5
 49
0.25
 49
-1.5
  0
LTYPE
  2
long_dashed_double-dotted
 70
   64
  3
----------- --- --- ------------
 72
   65
 73
    6
 40
17
 49
12
 49
-1.5
 49
0.25
 49
-1.5
 49
0.25
 49
-1.5
  0
LTYPE
  2
long_dashed_triplicate-dotted
 70
   64
  3
--------- --- --- --- ----------
 72
   65
 73
    8
 40
18.75
 49
12
 49
-1.5
 49
0.25
 49
-1.5
 49
0.25
 49
-1.5
 49
0.25
 49
-1.5
  0
LTYPE
  2
dotted
 70
   64
  3
   -       -       -       -    
 72
   65
 73
    2
 40
1.75
 49
0.25
 49
-1.5
  0
LTYPE
  2
chain
 70
   64
  3
-------------- -- --------------
 72
   65
 73
    4
 40
18.5
 49
12
 49
-1.5
 49
3.5
 49
-1.5
  0
LTYPE
  2
chain_double_dash
 70
   64
  3
------------ -- -- -------------
 72
   65
 73
    6
 40
23.5
 49
12
 49
-1.5
 49
3.5
 49
-1.5
 49
3.5
 49
-1.5
  0
LTYPE
  2
dashed_dotted
 70
   64
  3
-----------     -     ----------
 72
   65
 73
    4
 40
9.25
 49
6
 49
-1.5
 49
0.25
 49
-1.5
  0
LTYPE
  2
double-dashed_dotted
 70
   64
  3
------   -----------   -   -----
 72
   65
 73
    6
 40
16.75
 49
6
 49
-1.5
 49
6
 49
-1.5
 49
0.25
 49
-1.5
  0
LTYPE
  2
dashed_double-dotted
 70
   64
  3
---------    -    -    ---------
 72
   65
 73
    6
 40
11
 49
6
 49
-1.5
 49
0.25
 49
-1.5
 49
0.25
 49
-1.5
  0
LTYPE
  2
double-dashed_double-dotted
 70
   64
  3
-----   ---------   -   -   ----
 72
   65
 73
    8
 40
18.5
 49
6
 49
-1.5
 49
6
 49
-1.5
 49
0.25
 49
-1.5
 49
0.25
 49
-1.5
  0
LTYPE
  2
dashed_triplicate-dotted
 70
   64
  3
-------    -    -    -    ------
 72
   65
 73
    8
 40
12.75
 49
6
 49
-1.5
 49
0.25
 49
-1.5
 49
0.25
 49
-1.5
 49
0.25
 49
-1.5
  0
LTYPE
  2
double-dashed_triplicate-dotted
 70
   64
  3
-----  ---------  -  -  -  -----
 72
   65
 73
   10
 40
20.25
 49
6
 49
-1.5
 49
6
 49
-1.5
 49
0.25
 49
-1.5
 49
0.25
 49
-1.5
 49
0.25
 49
-1.5
  0
LTYPE
  2
undefined
 70
   64
  3
--------------------------------
 72
   65
 73
    0
 40
0
  0
LTYPE
  2
_
 70
   64
  3
                                
 72
   65
 73
    0
 40
0
  0
LTYPE
  2
__18
 70
   64
  3
                                
 72
   65
 73
    0
 40
0
  0
LTYPE
  2
__19
 70
   64
  3
                                
 72
   65
 73
    0
 40
0
  0
LTYPE
  2
__20
 70
   64
  3
                                
 72
   65
 73
    0
 40
0
  0
LTYPE
  2
__21
 70
   64
  3
                                
 72
   65
 73
    0
 40
0
  0
LTYPE
  2
__22
 70
   64
  3
                                
 72
   65
 73
    0
 40
0
  0
LTYPE
  2
__23
 70
   64
  3
                                
 72
   65
 73
    0
 40
0
  0
LTYPE
  2
__24
 70
   64
  3
                                
 72
   65
 73
    0
 40
0
  0
LTYPE
  2
__25
 70
   64
  3
                                
 72
   65
 73
    0
 40
0
  0
LTYPE
  2
__26
 70
   64
  3
                                
 72
   65
 73
    0
 40
0
  0
LTYPE
  2
__27
 70
   64
  3
                                
 72
   65
 73
    0
 40
0
  0
LTYPE
  2
__28
 70
   64
  3
                                
 72
   65
 73
    0
 40
0
  0
LTYPE
  2
__29
 70
   64
  3
                                
 72
   65
 73
    0
 40
0
  0
LTYPE
  2
__30
 70
   64
  3
                                
 72
   65
 73
    0
 40
0
  0
LTYPE
  2
__31
 70
   64
  3
                                
 72
   65
 73
    0
 40
0
  0
LTYPE
  2
__32
 70
   64
  3
                                
 72
   65
 73
    0
 40
0
  0
ENDTAB
  0
TABLE
  2
STYLE
  5
3
100
AcDbSymbolTable
 70
     1
  0
STYLE
  5
10
100
AcDbSymbolTableRecord
100
AcDbTextStyleTableRecord
  2
STANDARD
 70
     0
 40
0.0
 41
1.0
 50
0.0
 71
     0
 42
0.2
  3
txt
  4
bigfont.shx
  0
STYLE
  5
26
100
AcDbSymbolTableRecord
100
AcDbTextStyleTableRecord
  2
TATEGAKI
 70
    68
 40
0.0
 41
1.0
 50
0.0
 71
     0
 42
1.0
  3
txt
  4
bigfont.shx
  0
ENDTAB
  0
TABLE
  2
LAYER
 70
    2
  0
LAYER
  2
_0-0_
 70
   64
 62
    7
  6
CONTINUOUS
  0
LAYER
  2
ADD_LINE
 70
   64
 62
    7
  6
CONTINUOUS
  0
ENDTAB
  0
ENDSEC
  0
SECTION
  2
BLOCKS
  0
BLOCK
  2
-000-1
 70
   64
 10
0
 20
0
 30
0
  0
LINE
  8
_0-0_
  6
CONTINUOUS
 62
    7
 10
9.5164901587241921
 20
33.061435238998705
 11
46.864523899381794
 21
-2.7411626227351515
  0
LINE
  8
_0-0_
  6
CONTINUOUS
 62
    7
 10
46.864523899381794
 20
-2.7411626227351515
 11
47.637241838843664
 21
-6.0896070270699791
  0
LINE
  8
_0-0_
  6
CONTINUOUS
 62
    7
 10
47.637241838843664
 20
-6.0896070270699791
 11
9.0872024145787087
 21
29.1119879928602
  0
LINE
  8
_0-0_
  6
CONTINUOUS
 62
    7
 10
9.0872024145787087
 20
29.1119879928602
 11
9.5164901587241921
 21
33.061435238998705
  0
LINE
  8
_0-0_
  6
CONTINUOUS
 62
    7
 10
9.0872024145787087
 20
29.1119879928602
 11
-29.892124753831769
 21
-3.170450366880635
  0
LINE
  8
_0-0_
  6
CONTINUOUS
 62
    7
 10
-29.892124753831769
 20
-3.170450366880635
 11
-28.346688874908015
 21
0.4355666839414684
  0
LINE
  8
_0-0_
  6
CONTINUOUS
 62
    7
 10
-29.892124753831769
 20
-3.170450366880635
 11
-25.427532214718671
 21
-14.331931714663375
  0
LINE
  8
_0-0_
  6
CONTINUOUS
 62
    7
 10
-25.427532214718671
 20
-14.331931714663375
 11
8.1427693774586167
 21
7.7334583344148005
  0
LINE
  8
_0-0_
  6
CONTINUOUS
 62
    7
 10
8.1427693774586167
 20
7.7334583344148005
 11
9.0872024145787087
 21
29.1119879928602
  0
LINE
  8
_0-0_
  6
CONTINUOUS
 62
    7
 10
8.1427693774586167
 20
7.7334583344148005
 11
41.713070969635936
 21
-16.90765817953632
  0
LINE
  8
_0-0_
  6
CONTINUOUS
 62
    7
 10
41.713070969635936
 20
-16.90765817953632
 11
47.637241838843664
 21
-6.0896070270699791
  0
LINE
  8
_0-0_
  6
CONTINUOUS
 62
    7
 10
41.713070969635936
 20
-16.90765817953632
 11
8.4003420239459068
 21
-29.013572564439123
  0
LINE
  8
_0-0_
  6
CONTINUOUS
 62
    7
 10
8.4003420239459068
 20
-29.013572564439123
 11
-25.427532214718671
 21
-14.331931714663375
  0
LINE
  8
_0-0_
  6
CONTINUOUS
 62
    7
 10
-20.018506638485508
 20
-14.761219458808858
 11
7.8851967309713267
 21
2.8395780511562183
  0
LINE
  8
_0-0_
  6
CONTINUOUS
 62
    7
 10
7.8851967309713267
 20
2.8395780511562183
 11
36.647475588719146
 21
-16.821800630707209
  0
LINE
  8
_0-0_
  6
CONTINUOUS
 62
    7
 10
36.647475588719146
 20
-16.821800630707209
 11
8.4861995727750035
 21
-27.382279136686272
  0
LINE
  8
_0-0_
  6
CONTINUOUS
 62
    7
 10
8.4861995727750035
 20
-27.382279136686272
 11
-20.018506638485508
 21
-14.761219458808858
  0
LINE
  8
_0-0_
  6
CONTINUOUS
 62
    7
 10
-25.404950589133097
 20
4.3771413036064875
 11
-25.423589357495135
 21
4.3898445796914221
  0
LINE
  8
_0-0_
  6
CONTINUOUS
 62
    7
 10
-25.423589357495135
 20
4.3898445796914221
 11
-25.443712755255422
 21
4.422912460537086
  0
LINE
  8
_0-0_
  6
CONTINUOUS
 62
    7
 10
-25.443712755255422
 20
4.422912460537086
 11
-25.451110753430545
 21
4.4674025051833102
  0
LINE
  8
_0-0_
  6
CONTINUOUS
 62
    7
 10
-25.451110753430545
 20
4.4674025051833102
 11
-25.448667285032204
 21
4.5201616796341799
  0
LINE
  8
_0-0_
  6
CONTINUOUS
 62
    7
 10
-25.448667285032204
 20
4.5201616796341799
 11
-25.439266283072133
 21
4.5780369498938516
  0
LINE
  8
_0-0_
  6
CONTINUOUS
 62
    7
 10
-25.439266283072133
 20
4.5780369498938516
 11
-25.425791680562032
 21
4.6378752819664246
  0
LINE
  8
_0-0_
  6
CONTINUOUS
 62
    7
 10
-25.425791680562032
 20
4.6378752819664246
 11
-25.417246306905287
 21
4.6722385301390492
  0
LINE
  8
_0-0_
  6
CONTINUOUS
 62
    7
 10
-25.417246306905287
 20
4.6722385301390492
 11
-25.398779352500501
 21
4.7445250709479243
  0
LINE
  8
_0-0_
  6
CONTINUOUS
 62
    7
 10
-25.398779352500501
 20
4.7445250709479243
 11
-25.368003139981372
 21
4.8590709231654134
  0
LINE
  8
_0-0_
  6
CONTINUOUS
 62
    7
 10
-25.368003139981372
 20
4.8590709231654134
 11
-25.337392040697896
 21
4.9630284181122679
  0
LINE
  8
_0-0_
  6
CONTINUOUS
 62
    7
 10
-25.337392040697896
 20
4.9630284181122679
 11
-25.305572895120054
 21
5.0589311331370173
  0
LINE
  8
_0-0_
  6
CONTINUOUS
 62
    7
 10
-25.305572895120054
 20
5.0589311331370173
 11
-25.271172543717856
 21
5.1493126455881626
  0
LINE
  8
_0-0_
  6
CONTINUOUS
 62
    7
 10
-25.271172543717856
 20
5.1493126455881626
 11
-25.232817826961327
 21
5.2367065328142335
  0
LINE
  8
_0-0_
  6
CONTINUOUS
 62
    7
 10
-25.232817826961327
 20
5.2367065328142335
 11
-25.208219104778056
 21
5.2870244187485529
  0
LINE
  8
_0-0_
  6
CONTINUOUS
 62
    7
 10
-25.208219104778056
 20
5.2870244187485529
 11
-25.175093107618938
 21
5.3494980159265797
  0
LINE
  8
_0-0_
  6
CONTINUOUS
 62
    7
 10
-25.175093107618938
 20
5.3494980159265797
 11
-25.111265944844806
 21
5.4578679466286193
  0
LINE
  8
_0-0_
  6
CONTINUOUS
 62
    7
 10
-25.111265944844806
 20
5.4578679466286193
 11
-25.039944887806261
 21
5.5662128803819346
  0
LINE
  8
_0-0_
  6
CONTINUOUS
 62
    7
 10
-25.039944887806261
 20
5.5662128803819346
 11
-24.962297434442451
 21
5.6735369683364585
  0
LINE
  8
_0-0_
  6
CONTINUOUS
 62
    7
 10
-24.962297434442451
 20
5.6735369683364585
 11
-24.879491082692585
 21
5.7788443616421521
  0
LINE
  8
_0-0_
  6
CONTINUOUS
 62
    7
 10
-24.879491082692585
 20
5.7788443616421521
 11
-24.792693330495812
 21
5.8811392114489482
  0
LINE
  8
_0-0_
  6
CONTINUOUS
 62
    7
 10
-24.792693330495812
 20
5.8811392114489482
 11
-24.740981829434833
 21
5.938697460674641
  0
LINE
  8
_0-0_
  6
CONTINUOUS
 62
    7
 10
-24.740981829434833
 20
5.938697460674641
 11
-24.710248060748729
 21
5.9717766041286158
  0
LINE
  8
_0-0_
  6
CONTINUOUS
 62
    7
 10
-24.710248060748729
 20
5.9717766041286158
 11
-24.656417243673506
 21
6.0273138644773869
  0
LINE
  8
_0-0_
  6
CONTINUOUS
 62
    7
 10
-24.656417243673506
 20
6.0273138644773869
 11
-24.601132624613886
 21
6.0805844287422932
  0
LINE
  8
_0-0_
  6
CONTINUOUS
 62
    7
 10
-24.601132624613886
 20
6.0805844287422932
 11
-24.543942418394966
 21
6.1311541722547194
  0
LINE
  8
_0-0_
  6
CONTINUOUS
 62
    7
 10
-24.543942418394966
 20
6.1311541722547194
 11
-24.484394839841872
 21
6.1785889703460217
  0
LINE
  8
_0-0_
  6
CONTINUOUS
 62
    7
 10
-24.484394839841872
 20
6.1785889703460217
 11
-24.42203810377973
 21
6.2224546983475566
  0
LINE
  8
_0-0_
  6
CONTINUOUS
 62
    7
 10
-24.42203810377973
 20
6.2224546983475566
 11
-24.384406014041321
 21
6.2460904049793928
  0
LINE
  8
_0-0_
  6
CONTINUOUS
 62
    7
 10
-24.384406014041321
 20
6.2460904049793928
 11
-24.359203228273262
 21
6.2607277093023104
  0
LINE
  8
_0-0_
  6
CONTINUOUS
 62
    7
 10
-24.359203228273262
 20
6.2607277093023104
 11
-24.3145398444336
 21
6.2839684576210519
  0
LINE
  8
_0-0_
  6
CONTINUOUS
 62
    7
 10
-24.3145398444336
 20
6.2839684576210519
 11
-24.268308500411695
 21
6.3038315651496166
  0
LINE
  8
_0-0_
  6
CONTINUOUS
 62
    7
 10
-24.268308500411695
 20
6.3038315651496166
 11
-24.220467418735129
 21
6.3193274043464331
  0
LINE
  8
_0-0_
  6
CONTINUOUS
 62
    7
 10
-24.220467418735129
 20
6.3193274043464331
 11
-24.170974821931456
 21
6.329466347669916
  0
LINE
  8
_0-0_
  6
CONTINUOUS
 62
    7
 10
-24.170974821931456
 20
6.329466347669916
 11
-24.119788932528255
 21
6.3332587675784797
  0
LINE
  8
_0-0_
  6
CONTINUOUS
 62
    7
 10
-24.119788932528255
 20
6.3332587675784797
 11
-24.089308787508745
 21
6.3321604293847233
  0
LINE
  8
_0-0_
  6
CONTINUOUS
 62
    7
 10
-24.089308787508745
 20
6.3321604293847233
 11
-24.070481969722938
 21
6.3302042364793696
  0
LINE
  8
_0-0_
  6
CONTINUOUS
 62
    7
 10
-24.070481969722938
 20
6.3302042364793696
 11
-24.038081091971097
 21
6.3244745189974285
  0
LINE
  8
_0-0_
  6
CONTINUOUS
 62
    7
 10
-24.038081091971097
 20
6.3244745189974285
 11
-24.006624562837903
 21
6.315704837636881
  0
LINE
  8
_0-0_
  6
CONTINUOUS
 62
    7
 10
-24.006624562837903
 20
6.315704837636881
 11
-23.977123395710752
 21
6.3038295456936684
  0
LINE
  8
_0-0_
  6
CONTINUOUS
 62
    7
 10
-23.977123395710752
 20
6.3038295456936684
 11
-23.950588603977028
 21
6.2887829964637607
  0
LINE
  8
_0-0_
  6
CONTINUOUS
 62
    7
 10
-23.950588603977028
 20
6.2887829964637607
 11
-23.928031201024101
 21
6.2704995432431279
  0
LINE
  8
_0-0_
  6
CONTINUOUS
 62
    7
 10
-23.928031201024101
 20
6.2704995432431279
 11
-23.917168738698084
 21
6.2583861227515829
  0
LINE
  8
_0-0_
  6
CONTINUOUS
 62
    7
 10
-23.917168738698084
 20
6.2583861227515829
 11
-23.904685699192516
 21
6.238955980409111
  0
LINE
  8
_0-0_
  6
CONTINUOUS
 62
    7
 10
-23.904685699192516
 20
6.238955980409111
 11
-23.891359610667227
 21
6.2007695574514461
  0
LINE
  8
_0-0_
  6
CONTINUOUS
 62
    7
 10
-23.891359610667227
 20
6.2007695574514461
 11
-23.886909695316493
 21
6.1578903405377563
  0
LINE
  8
_0-0_
  6
CONTINUOUS
 62
    7
 10
-23.886909695316493
 20
6.1578903405377563
 11
-23.88959292020974
 21
6.1117591161183302
  0
LINE
  8
_0-0_
  6
CONTINUOUS
 62
    7
 10
-23.88959292020974
 20
6.1117591161183302
 11
-23.897666252416474
 21
6.0638166706434848
  0
LINE
  8
_0-0_
  6
CONTINUOUS
 62
    7
 10
-23.897666252416474
 20
6.0638166706434848
 11
-23.909386659006149
 21
6.0155037905635229
  0
LINE
  8
_0-0_
  6
CONTINUOUS
 62
    7
 10
-23.909386659006149
 20
6.0155037905635229
 11
-23.917168738698084
 21
5.9878803317634013
  0
LINE
  8
_0-0_
  6
CONTINUOUS
 62
    7
 10
-23.917168738698084
 20
5.9878803317634013
 11
-23.932464608588209
 21
5.9383241231087371
  0
LINE
  8
_0-0_
  6
CONTINUOUS
 62
    7
 10
-23.932464608588209
 20
5.9383241231087371
 11
-23.961165234278017
 21
5.857438954328126
  0
LINE
  8
_0-0_
  6
CONTINUOUS
 62
    7
 10
-23.961165234278017
 20
5.857438954328126
 11
-23.992679502070235
 21
5.7814120883558449
  0
LINE
  8
_0-0_
  6
CONTINUOUS
 62
    7
 10
-23.992679502070235
 20
5.7814120883558449
 11
-24.026851893914785
 21
5.7091859581317781
  0
LINE
  8
_0-0_
  6
CONTINUOUS
 62
    7
 10
-24.026851893914785
 20
5.7091859581317781
 11
-24.063526891761658
 21
5.6397029965958811
  0
LINE
  8
_0-0_
  6
CONTINUOUS
 62
    7
 10
-24.063526891761658
 20
5.6397029965958811
 11
-24.102548977560762
 21
5.5719056366880668
  0
LINE
  8
_0-0_
  6
CONTINUOUS
 62
    7
 10
-24.102548977560762
 20
5.5719056366880668
 11
-24.126195940825315
 21
5.5329387741923544
  0
LINE
  8
_0-0_
  6
CONTINUOUS
 62
    7
 10
-24.126195940825315
 20
5.5329387741923544
 11
-24.159873501338442
 21
5.4793714647900149
  0
LINE
  8
_0-0_
  6
CONTINUOUS
 62
    7
 10
-24.159873501338442
 20
5.4793714647900149
 11
-24.220601788671022
 21
5.3870778134799568
  0
LINE
  8
_0-0_
  6
CONTINUOUS
 62
    7
 10
-24.220601788671022
 20
5.3870778134799568
 11
-24.283975264532035
 21
5.2949281952865821
  0
LINE
  8
_0-0_
  6
CONTINUOUS
 62
    7
 10
-24.283975264532035
 20
5.2949281952865821
 11
-24.349149317661873
 21
5.2029962155502378
  0
LINE
  8
_0-0_
  6
CONTINUOUS
 62
    7
 10
-24.349149317661873
 20
5.2029962155502378
 11
-24.415279336800953
 21
5.1113554796112428
  0
LINE
  8
_0-0_
  6
CONTINUOUS
 62
    7
 10
-24.415279336800953
 20
5.1113554796112428
 11
-24.481520710689711
 21
5.02007959280993
  0
LINE
  8
_0-0_
  6
CONTINUOUS
 62
    7
 10
-24.481520710689711
 20
5.02007959280993
 11
-24.519658909535412
 21
4.967335756671611
  0
LINE
  8
_0-0_
  6
CONTINUOUS
 62
    7
 10
-24.519658909535412
 20
4.967335756671611
 11
-24.55035210102206
 21
4.9246841129344521
  0
LINE
  8
_0-0_
  6
CONTINUOUS
 62
    7
 10
-24.55035210102206
 20
4.9246841129344521
 11
-24.603290042975477
 21
4.8516502507794517
  0
LINE
  8
_0-0_
  6
CONTINUOUS
 62
    7
 10
-24.603290042975477
 20
4.8516502507794517
 11
-24.657241037383105
 21
4.7796367419878525
  0
LINE
  8
_0-0_
  6
CONTINUOUS
 62
    7
 10
-24.657241037383105
 20
4.7796367419878525
 11
-24.713355606988632
 21
4.7090890156498606
  0
LINE
  8
_0-0_
  6
CONTINUOUS
 62
    7
 10
-24.713355606988632
 20
4.7090890156498606
 11
-24.772784274535713
 21
4.6404525008556679
  0
LINE
  8
_0-0_
  6
CONTINUOUS
 62
    7
 10
-24.772784274535713
 20
4.6404525008556679
 11
-24.836677562768021
 21
4.5741726266955087
  0
LINE
  8
_0-0_
  6
CONTINUOUS
 62
    7
 10
-24.836677562768021
 20
4.5741726266955087
 11
-24.876234724928924
 21
4.5369856346449584
  0
LINE
  8
_0-0_
  6
CONTINUOUS
 62
    7
 10
-24.876234724928924
 20
4.5369856346449584
 11
-24.903033209384464
 21
4.5134157811509059
  0
LINE
  8
_0-0_
  6
CONTINUOUS
 62
    7
 10
-24.903033209384464
 20
4.5134157811509059
 11
-24.95117758547838
 21
4.4746233262469364
  0
LINE
  8
_0-0_
  6
CONTINUOUS
 62
    7
 10
-24.95117758547838
 20
4.4746233262469364
 11
-25.001543867863692
 21
4.4394136094095078
  0
LINE
  8
_0-0_
  6
CONTINUOUS
 62
    7
 10
-25.001543867863692
 20
4.4394136094095078
 11
-25.053860071583617
 21
4.409236644678268
  0
LINE
  8
_0-0_
  6
CONTINUOUS
 62
    7
 10
-25.053860071583617
 20
4.409236644678268
 11
-25.107854211681346
 21
4.3855424460928649
  0
LINE
  8
_0-0_
  6
CONTINUOUS
 62
    7
 10
-25.107854211681346
 20
4.3855424460928649
 11
-25.163254303200095
 21
4.3697810276929321
  0
LINE
  8
_0-0_
  6
CONTINUOUS
 62
    7
 10
-25.163254303200095
 20
4.3697810276929321
 11
-25.195923387005866
 21
4.3648455858342974
  0
LINE
  8
_0-0_
  6
CONTINUOUS
 62
    7
 10
-25.195923387005866
 20
4.3648455858342974
 11
-25.205950409871338
 21
4.3640046223858864
  0
LINE
  8
_0-0_
  6
CONTINUOUS
 62
    7
 10
-25.205950409871338
 20
4.3640046223858864
 11
-25.223348452794969
 21
4.3631960743552956
  0
LINE
  8
_0-0_
  6
CONTINUOUS
 62
    7
 10
-25.223348452794969
 20
4.3631960743552956
 11
-25.240943939701911
 21
4.3630348126632814
  0
LINE
  8
_0-0_
  6
CONTINUOUS
 62
    7
 10
-25.240943939701911
 20
4.3630348126632814
 11
-25.258804442392151
 21
4.3633294438127255
  0
LINE
  8
_0-0_
  6
CONTINUOUS
 62
    7
 10
-25.258804442392151
 20
4.3633294438127255
 11
-25.27699753266565
 21
4.3638885743065376
  0
LINE
  8
_0-0_
  6
CONTINUOUS
 62
    7
 10
-25.27699753266565
 20
4.3638885743065376
 11
-25.295590782322368
 21
4.3645208106475994
  0
LINE
  8
_0-0_
  6
CONTINUOUS
 62
    7
 10
-25.295590782322368
 20
4.3645208106475994
 11
-25.306584846955577
 21
4.3648455858342974
  0
LINE
  8
_0-0_
  6
CONTINUOUS
 62
    7
 10
-25.306584846955577
 20
4.3648455858342974
 11
-25.316563930093938
 21
4.3650874537335316
  0
LINE
  8
_0-0_
  6
CONTINUOUS
 62
    7
 10
-25.316563930093938
 20
4.3650874537335316
 11
-25.333875384306285
 21
4.3655489784507981
  0
LINE
  8
_0-0_
  6
CONTINUOUS
 62
    7
 10
-25.333875384306285
 20
4.3655489784507981
 11
-25.350995779601025
 21
4.3663539263068234
  0
LINE
  8
_0-0_
  6
CONTINUOUS
 62
    7
 10
-25.350995779601025
 20
4.3663539263068234
 11
-25.367546730635983
 21
4.3678361112281809
  0
LINE
  8
_0-0_
  6
CONTINUOUS
 62
    7
 10
-25.367546730635983
 20
4.3678361112281809
 11
-25.383149852068986
 21
4.370329347141416
  0
LINE
  8
_0-0_
  6
CONTINUOUS
 62
    7
 10
-25.383149852068986
 20
4.370329347141416
 11
-25.397426758557831
 21
4.3741674479730879
  0
LINE
  8
_0-0_
  6
CONTINUOUS
 62
    7
 10
-25.397426758557831
 20
4.3741674479730879
 11
-25.404950589133097
 21
4.3771413036064875
  0
LINE
  8
_0-0_
  6
CONTINUOUS
 62
    7
 10
-23.928031201024101
 20
6.2704995432431279
 11
-22.724484114795647
 21
5.3853901609260735
  0
LINE
  8
_0-0_
  6
CONTINUOUS
 62
    7
 10
-25.404950589133097
 20
4.3771413036064875
 11
-23.966351609786845
 21
3.5287367773253582
  0
ARC
  8
_0-0_
  6
CONTINUOUS
 62
    7
 10
-24.943861172675927
 20
5.7235223996612579
 40
2.1593780019110107
 50
290.49876855137825
 51
335.25903865529875
  0
ARC
  8
_0-0_
  6
CONTINUOUS
 62
    7
 10
-23.888761390741653
 20
5.4269412071907315
 40
1.0906850292518548
 50
326.17402899312253
 51
1.0468903388079804
  0
ARC
  8
_0-0_
  6
CONTINUOUS
 62
    7
 10
-24.931744954433288
 20
5.6346701325483881
 40
2.3166656225119224
 50
294.62747435767506
 51
333.43048178016664
  0
ARC
  8
_0-0_
  6
CONTINUOUS
 62
    7
 10
-24.151346272632058
 20
5.2255458298876025
 40
1.435787528720984
 50
334.10323627806235
 51
6.3919138386298844
  0
ARC
  8
_0-0_
  6
CONTINUOUS
 62
    7
 10
-23.865597209061225
 20
3.4168949732219094
 40
0.2762994584749277
 50
139.78771048977893
 51
248.71235490582842
  0
ARC
  8
_0-0_
  6
CONTINUOUS
 62
    7
 10
-23.873411956163043
 20
3.8210107361144114
 40
0.667997998691306
 50
262.04083654052675
 51
318.77892912708063
  0
ARC
  8
_0-0_
  6
CONTINUOUS
 62
    7
 10
-25.96746508302336
 20
6.0156351968356976
 40
3.6991978108119254
 50
314.58042333002498
 51
335.95618826599559
  0
ARC
  8
_0-0_
  6
CONTINUOUS
 62
    7
 10
-24.431308401152553
 20
5.4914791546821196
 40
2.0879631749255383
 50
331.91333096633582
 51
356.56237350571922
  0
ARC
  8
_0-0_
  6
CONTINUOUS
 62
    7
 10
-22.598653975416969
 20
5.3768964025953441
 40
0.2517756937954611
 50
357.58354643602149
 51
54.05843751235529
  0
ARC
  8
_0-0_
  6
CONTINUOUS
 62
    7
 10
-22.509674531592939
 20
5.1276108294154685
 40
0.4569267384854224
 50
82.605991357402033
 51
113.65421335090991
  0
ARC
  8
_0-0_
  6
CONTINUOUS
 62
    7
 10
-22.35315539599225
 20
4.7972776261035595
 40
0.8223758404603525
 50
114.40905177746144
 51
126.74940196751814
  0
LINE
  8
_0-0_
  6
CONTINUOUS
 62
    7
 10
-28.346688874908015
 20
0.4355666839414684
 11
-24.435732927456446
 21
3.8055514005663955
  0
LINE
  8
_0-0_
  6
CONTINUOUS
 62
    7
 10
-5.5544863995866116
 20
21.827125613783231
 11
-5.5787167984572399
 21
21.843639872693664
  0
LINE
  8
_0-0_
  6
CONTINUOUS
 62
    7
 10
-5.5787167984572399
 20
21.843639872693664
 11
-5.6048772155456312
 21
21.88662811779303
  0
LINE
  8
_0-0_
  6
CONTINUOUS
 62
    7
 10
-5.6048772155456312
 20
21.88662811779303
 11
-5.6144946131732816
 21
21.944465175833095
  0
LINE
  8
_0-0_
  6
CONTINUOUS
 62
    7
 10
-5.6144946131732816
 20
21.944465175833095
 11
-5.6113181042554352
 21
22.013052102619234
  0
LINE
  8
_0-0_
  6
CONTINUOUS
 62
    7
 10
-5.6113181042554352
 20
22.013052102619234
 11
-5.5990968017073364
 21
22.088289953956796
  0
LINE
  8
_0-0_
  6
CONTINUOUS
 62
    7
 10
-5.5990968017073364
 20
22.088289953956796
 11
-5.5815798184442151
 21
22.166079785651156
  0
LINE
  8
_0-0_
  6
CONTINUOUS
 62
    7
 10
-5.5815798184442151
 20
22.166079785651156
 11
-5.5704708326904502
 21
22.210752008275584
  0
LINE
  8
_0-0_
  6
CONTINUOUS
 62
    7
 10
-5.5704708326904502
 20
22.210752008275584
 11
-5.5464637919642321
 21
22.304724511327116
  0
LINE
  8
_0-0_
  6
CONTINUOUS
 62
    7
 10
-5.5464637919642321
 20
22.304724511327116
 11
-5.5064547156893617
 21
22.453634119209845
  0
LINE
  8
_0-0_
  6
CONTINUOUS
 62
    7
 10
-5.5064547156893617
 20
22.453634119209845
 11
-5.4666602866208258
 21
22.58877886264073
  0
LINE
  8
_0-0_
  6
CONTINUOUS
 62
    7
 10
-5.4666602866208258
 20
22.58877886264073
 11
-5.4252953973696414
 21
22.713452392172904
  0
LINE
  8
_0-0_
  6
CONTINUOUS
 62
    7
 10
-5.4252953973696414
 20
22.713452392172904
 11
-5.3805749405467971
 21
22.830948358359414
  0
LINE
  8
_0-0_
  6
CONTINUOUS
 62
    7
 10
-5.3805749405467971
 20
22.830948358359414
 11
-5.3307138087632957
 21
22.944560411753308
  0
LINE
  8
_0-0_
  6
CONTINUOUS
 62
    7
 10
-5.3307138087632957
 20
22.944560411753308
 11
-5.2987354699250524
 21
23.009973663467939
  0
LINE
  8
_0-0_
  6
CONTINUOUS
 62
    7
 10
-5.2987354699250524
 20
23.009973663467939
 11
-5.255671673618199
 21
23.091189339799364
  0
LINE
  8
_0-0_
  6
CONTINUOUS
 62
    7
 10
-5.255671673618199
 20
23.091189339799364
 11
-5.1726963620118092
 21
23.232070249711988
  0
LINE
  8
_0-0_
  6
CONTINUOUS
 62
    7
 10
-5.1726963620118092
 20
23.232070249711988
 11
-5.079978987861697
 21
23.372918663591314
  0
LINE
  8
_0-0_
  6
CONTINUOUS
 62
    7
 10
-5.079978987861697
 20
23.372918663591314
 11
-4.9790372984887661
 21
23.512439977932182
  0
LINE
  8
_0-0_
  6
CONTINUOUS
 62
    7
 10
-4.9790372984887661
 20
23.512439977932182
 11
-4.8713890412139342
 21
23.649339589229605
  0
LINE
  8
_0-0_
  6
CONTINUOUS
 62
    7
 10
-4.8713890412139342
 20
23.649339589229605
 11
-4.7585519633581193
 21
23.782322893978424
  0
LINE
  8
_0-0_
  6
CONTINUOUS
 62
    7
 10
-4.7585519633581193
 20
23.782322893978424
 11
-4.6913270119788599
 21
23.857148617971824
  0
LINE
  8
_0-0_
  6
CONTINUOUS
 62
    7
 10
-4.6913270119788599
 20
23.857148617971824
 11
-4.6513731126869153
 21
23.900151504461995
  0
LINE
  8
_0-0_
  6
CONTINUOUS
 62
    7
 10
-4.6513731126869153
 20
23.900151504461995
 11
-4.5813930504891296
 21
23.972349942915393
  0
LINE
  8
_0-0_
  6
CONTINUOUS
 62
    7
 10
-4.5813930504891296
 20
23.972349942915393
 11
-4.5095230457116209
 21
24.041601676459798
  0
LINE
  8
_0-0_
  6
CONTINUOUS
 62
    7
 10
-4.5095230457116209
 20
24.041601676459798
 11
-4.4351757776270269
 21
24.107342343025941
  0
LINE
  8
_0-0_
  6
CONTINUOUS
 62
    7
 10
-4.4351757776270269
 20
24.107342343025941
 11
-4.3577639255080136
 21
24.169007580544637
  0
LINE
  8
_0-0_
  6
CONTINUOUS
 62
    7
 10
-4.3577639255080136
 20
24.169007580544637
 11
-4.276700168627233
 21
24.226033026946617
  0
LINE
  8
_0-0_
  6
CONTINUOUS
 62
    7
 10
-4.276700168627233
 20
24.226033026946617
 11
-4.2277784519672856
 21
24.256759445568001
  0
LINE
  8
_0-0_
  6
CONTINUOUS
 62
    7
 10
-4.2277784519672856
 20
24.256759445568001
 11
-4.1950148304688106
 21
24.275787941187808
  0
LINE
  8
_0-0_
  6
CONTINUOUS
 62
    7
 10
-4.1950148304688106
 20
24.275787941187808
 11
-4.1369524314772583
 21
24.306000914002162
  0
LINE
  8
_0-0_
  6
CONTINUOUS
 62
    7
 10
-4.1369524314772583
 20
24.306000914002162
 11
-4.0768516842487834
 21
24.33182295378932
  0
LINE
  8
_0-0_
  6
CONTINUOUS
 62
    7
 10
-4.0768516842487834
 20
24.33182295378932
 11
-4.0146582780692377
 21
24.351967544745172
  0
LINE
  8
_0-0_
  6
CONTINUOUS
 62
    7
 10
-4.0146582780692377
 20
24.351967544745172
 11
-3.9503179022244588
 21
24.365148171065691
  0
LINE
  8
_0-0_
  6
CONTINUOUS
 62
    7
 10
-3.9503179022244588
 20
24.365148171065691
 11
-3.8837762460003127
 21
24.370078316946824
  0
LINE
  8
_0-0_
  6
CONTINUOUS
 62
    7
 10
-3.8837762460003127
 20
24.370078316946824
 11
-3.8441520574749468
 21
24.368650477294942
  0
LINE
  8
_0-0_
  6
CONTINUOUS
 62
    7
 10
-3.8441520574749468
 20
24.368650477294942
 11
-3.8196771943533925
 21
24.366107426517964
  0
LINE
  8
_0-0_
  6
CONTINUOUS
 62
    7
 10
-3.8196771943533925
 20
24.366107426517964
 11
-3.7775560532759904
 21
24.35865879379147
  0
LINE
  8
_0-0_
  6
CONTINUOUS
 62
    7
 10
-3.7775560532759904
 20
24.35865879379147
 11
-3.736662565402856
 21
24.34725820802273
  0
LINE
  8
_0-0_
  6
CONTINUOUS
 62
    7
 10
-3.736662565402856
 20
24.34725820802273
 11
-3.6983110481375583
 21
24.331820328496569
  0
LINE
  8
_0-0_
  6
CONTINUOUS
 62
    7
 10
-3.6983110481375583
 20
24.331820328496569
 11
-3.6638158188837089
 21
24.3122598144977
  0
LINE
  8
_0-0_
  6
CONTINUOUS
 62
    7
 10
-3.6638158188837089
 20
24.3122598144977
 11
-3.6344911950449053
 21
24.288491325310865
  0
LINE
  8
_0-0_
  6
CONTINUOUS
 62
    7
 10
-3.6344911950449053
 20
24.288491325310865
 11
-3.6203699940210932
 21
24.272743878671854
  0
LINE
  8
_0-0_
  6
CONTINUOUS
 62
    7
 10
-3.6203699940210932
 20
24.272743878671854
 11
-3.6041420426638417
 21
24.247484693626653
  0
LINE
  8
_0-0_
  6
CONTINUOUS
 62
    7
 10
-3.6041420426638417
 20
24.247484693626653
 11
-3.5868181275809725
 21
24.197842343781694
  0
LINE
  8
_0-0_
  6
CONTINUOUS
 62
    7
 10
-3.5868181275809725
 20
24.197842343781694
 11
-3.5810332376250109
 21
24.142099361793889
  0
LINE
  8
_0-0_
  6
CONTINUOUS
 62
    7
 10
-3.5810332376250109
 20
24.142099361793889
 11
-3.5845214299862427
 21
24.08212877004862
  0
LINE
  8
_0-0_
  6
CONTINUOUS
 62
    7
 10
-3.5845214299862427
 20
24.08212877004862
 11
-3.5950167618549962
 21
24.019803590931325
  0
LINE
  8
_0-0_
  6
CONTINUOUS
 62
    7
 10
-3.5950167618549962
 20
24.019803590931325
 11
-3.6102532904215714
 21
23.956996846827387
  0
LINE
  8
_0-0_
  6
CONTINUOUS
 62
    7
 10
-3.6102532904215714
 20
23.956996846827387
 11
-3.6203699940210932
 21
23.921086350387235
  0
LINE
  8
_0-0_
  6
CONTINUOUS
 62
    7
 10
-3.6203699940210932
 20
23.921086350387235
 11
-3.6402546248782421
 21
23.856663279136136
  0
LINE
  8
_0-0_
  6
CONTINUOUS
 62
    7
 10
-3.6402546248782421
 20
23.856663279136136
 11
-3.6775654382749998
 21
23.751512559721355
  0
LINE
  8
_0-0_
  6
CONTINUOUS
 62
    7
 10
-3.6775654382749998
 20
23.751512559721355
 11
-3.7185339864048821
 21
23.652677633957403
  0
LINE
  8
_0-0_
  6
CONTINUOUS
 62
    7
 10
-3.7185339864048821
 20
23.652677633957403
 11
-3.7629580958027908
 21
23.558783664666116
  0
LINE
  8
_0-0_
  6
CONTINUOUS
 62
    7
 10
-3.7629580958027908
 20
23.558783664666116
 11
-3.8106355930037275
 21
23.468455814669447
  0
LINE
  8
_0-0_
  6
CONTINUOUS
 62
    7
 10
-3.8106355930037275
 20
23.468455814669447
 11
-3.8613643045425796
 21
23.380319246789291
  0
LINE
  8
_0-0_
  6
CONTINUOUS
 62
    7
 10
-3.8613643045425796
 20
23.380319246789291
 11
-3.8921053567864909
 21
23.329662325544881
  0
LINE
  8
_0-0_
  6
CONTINUOUS
 62
    7
 10
-3.8921053567864909
 20
23.329662325544881
 11
-3.9358861854535441
 21
23.260024823321821
  0
LINE
  8
_0-0_
  6
CONTINUOUS
 62
    7
 10
-3.9358861854535441
 20
23.260024823321821
 11
-4.0148329589858953
 21
23.140043076618745
  0
LINE
  8
_0-0_
  6
CONTINUOUS
 62
    7
 10
-4.0148329589858953
 20
23.140043076618745
 11
-4.0972184776052138
 21
23.02024857296734
  0
LINE
  8
_0-0_
  6
CONTINUOUS
 62
    7
 10
-4.0972184776052138
 20
23.02024857296734
 11
-4.1819447466740094
 21
22.900736999310105
  0
LINE
  8
_0-0_
  6
CONTINUOUS
 62
    7
 10
-4.1819447466740094
 20
22.900736999310105
 11
-4.2679137715548201
 21
22.7816040425894
  0
LINE
  8
_0-0_
  6
CONTINUOUS
 62
    7
 10
-4.2679137715548201
 20
22.7816040425894
 11
-4.3540275576101983
 21
22.662945389747698
  0
LINE
  8
_0-0_
  6
CONTINUOUS
 62
    7
 10
-4.3540275576101983
 20
22.662945389747698
 11
-4.4036072161096094
 21
22.594378402767909
  0
LINE
  8
_0-0_
  6
CONTINUOUS
 62
    7
 10
-4.4036072161096094
 20
22.594378402767909
 11
-4.443508365042252
 21
22.538931265909603
  0
LINE
  8
_0-0_
  6
CONTINUOUS
 62
    7
 10
-4.443508365042252
 20
22.538931265909603
 11
-4.5123276895816851
 21
22.443987245108097
  0
LINE
  8
_0-0_
  6
CONTINUOUS
 62
    7
 10
-4.5123276895816851
 20
22.443987245108097
 11
-4.5824639823116122
 21
22.350369683679013
  0
LINE
  8
_0-0_
  6
CONTINUOUS
 62
    7
 10
-4.5824639823116122
 20
22.350369683679013
 11
-4.6554129227987922
 21
22.258657639439626
  0
LINE
  8
_0-0_
  6
CONTINUOUS
 62
    7
 10
-4.6554129227987922
 20
22.258657639439626
 11
-4.7326701906099977
 21
22.169430170207185
  0
LINE
  8
_0-0_
  6
CONTINUOUS
 62
    7
 10
-4.7326701906099977
 20
22.169430170207185
 11
-4.8157314653120018
 21
22.083266333798939
  0
LINE
  8
_0-0_
  6
CONTINUOUS
 62
    7
 10
-4.8157314653120018
 20
22.083266333798939
 11
-4.8671557761211695
 21
22.034923244133232
  0
LINE
  8
_0-0_
  6
CONTINUOUS
 62
    7
 10
-4.8671557761211695
 20
22.034923244133232
 11
-4.9019938059133814
 21
22.004282434590969
  0
LINE
  8
_0-0_
  6
CONTINUOUS
 62
    7
 10
-4.9019938059133814
 20
22.004282434590969
 11
-4.9645814948354605
 21
21.953852243215827
  0
LINE
  8
_0-0_
  6
CONTINUOUS
 62
    7
 10
-4.9645814948354605
 20
21.953852243215827
 11
-5.0300576619363717
 21
21.90807961132716
  0
LINE
  8
_0-0_
  6
CONTINUOUS
 62
    7
 10
-5.0300576619363717
 20
21.90807961132716
 11
-5.0980687267722722
 21
21.868849557176553
  0
LINE
  8
_0-0_
  6
CONTINUOUS
 62
    7
 10
-5.0980687267722722
 20
21.868849557176553
 11
-5.1682611088993191
 21
21.838047099015533
  0
LINE
  8
_0-0_
  6
CONTINUOUS
 62
    7
 10
-5.1682611088993191
 20
21.838047099015533
 11
-5.2402812278736839
 21
21.817557255095601
  0
LINE
  8
_0-0_
  6
CONTINUOUS
 62
    7
 10
-5.2402812278736839
 20
21.817557255095601
 11
-5.2827510368211996
 21
21.811141180679378
  0
LINE
  8
_0-0_
  6
CONTINUOUS
 62
    7
 10
-5.2827510368211996
 20
21.811141180679378
 11
-5.2957861665463106
 21
21.810047928196461
  0
LINE
  8
_0-0_
  6
CONTINUOUS
 62
    7
 10
-5.2957861665463106
 20
21.810047928196461
 11
-5.3184036223470379
 21
21.808996815756693
  0
LINE
  8
_0-0_
  6
CONTINUOUS
 62
    7
 10
-5.3184036223470379
 20
21.808996815756693
 11
-5.3412777553260646
 21
21.80878717555705
  0
LINE
  8
_0-0_
  6
CONTINUOUS
 62
    7
 10
-5.3412777553260646
 20
21.80878717555705
 11
-5.3644964088233742
 21
21.809170196051348
  0
LINE
  8
_0-0_
  6
CONTINUOUS
 62
    7
 10
-5.3644964088233742
 20
21.809170196051348
 11
-5.3881474261789215
 21
21.809897065693313
  0
LINE
  8
_0-0_
  6
CONTINUOUS
 62
    7
 10
-5.3881474261789215
 20
21.809897065693313
 11
-5.4123186507326473
 21
21.810718972936677
  0
LINE
  8
_0-0_
  6
CONTINUOUS
 62
    7
 10
-5.4123186507326473
 20
21.810718972936677
 11
-5.426610934755832
 21
21.811141180679378
  0
LINE
  8
_0-0_
  6
CONTINUOUS
 62
    7
 10
-5.426610934755832
 20
21.811141180679378
 11
-5.4395837428356835
 21
21.811455608948386
  0
LINE
  8
_0-0_
  6
CONTINUOUS
 62
    7
 10
-5.4395837428356835
 20
21.811455608948386
 11
-5.4620886333117404
 21
21.812055591080842
  0
LINE
  8
_0-0_
  6
CONTINUOUS
 62
    7
 10
-5.4620886333117404
 20
21.812055591080842
 11
-5.4843451471949045
 21
21.813102023293673
  0
LINE
  8
_0-0_
  6
CONTINUOUS
 62
    7
 10
-5.4843451471949045
 20
21.813102023293673
 11
-5.5058613835403527
 21
21.815028863691445
  0
LINE
  8
_0-0_
  6
CONTINUOUS
 62
    7
 10
-5.5058613835403527
 20
21.815028863691445
 11
-5.5261454414032478
 21
21.818270070378638
  0
LINE
  8
_0-0_
  6
CONTINUOUS
 62
    7
 10
-5.5261454414032478
 20
21.818270070378638
 11
-5.5447054198387526
 21
21.823259601459817
  0
LINE
  8
_0-0_
  6
CONTINUOUS
 62
    7
 10
-5.5447054198387526
 20
21.823259601459817
 11
-5.5544863995866116
 21
21.827125613783231
  0
LINE
  8
_0-0_
  6
CONTINUOUS
 62
    7
 10
-3.6344911950449053
 20
24.288491325310865
 11
-2.0698799829478993
 21
23.137849128298704
  0
LINE
  8
_0-0_
  6
CONTINUOUS
 62
    7
 10
-5.5544863995866116
 20
21.827125613783231
 11
-3.6843077264364759
 21
20.724199729617759
  0
ARC
  8
_0-0_
  6
CONTINUOUS
 62
    7
 10
-4.9550701581922745
 20
23.577421038654442
 40
2.8071914024843139
 50
290.49876855137825
 51
335.25903865529875
  0
ARC
  8
_0-0_
  6
CONTINUOUS
 62
    7
 10
-3.5834404416777268
 20
23.191865488442737
 40
1.4178905380274114
 50
326.17402899312253
 51
1.0468903388079804
  0
ARC
  8
_0-0_
  6
CONTINUOUS
 62
    7
 10
-4.9393190744768454
 20
23.461913091407688
 40
3.0116653092654992
 50
294.62747435767506
 51
333.43048178016664
  0
ARC
  8
_0-0_
  6
CONTINUOUS
 62
    7
 10
-3.9248007881352329
 20
22.930051497948703
 40
1.8665237873372793
 50
334.10323627806235
 51
6.3919138386298844
  0
ARC
  8
_0-0_
  6
CONTINUOUS
 62
    7
 10
-3.5533270054931627
 20
20.578805384283292
 40
0.359189296017406
 50
139.78771048977893
 51
248.71235490582842
  0
ARC
  8
_0-0_
  6
CONTINUOUS
 62
    7
 10
-3.5634861767255366
 20
21.104155876043528
 40
0.8683973982986977
 50
262.04083654052675
 51
318.77892912708063
  0
ARC
  8
_0-0_
  6
CONTINUOUS
 62
    7
 10
-6.2857552416439297
 20
23.9571676749812
 40
4.8089571540555029
 50
314.58042333002498
 51
335.95618826599559
  0
ARC
  8
_0-0_
  6
CONTINUOUS
 62
    7
 10
-4.288751555211892
 20
23.275764820181557
 40
2.7143521274031999
 50
331.91333096633582
 51
356.56237350571922
  0
ARC
  8
_0-0_
  6
CONTINUOUS
 62
    7
 10
-1.9063008017556378
 20
23.126807242468736
 40
0.3273084019340994
 50
357.58354643602149
 51
54.05843751235529
  0
ARC
  8
_0-0_
  6
CONTINUOUS
 62
    7
 10
-1.7906275247844157
 20
22.802735997334899
 40
0.594004760031049
 50
82.605991357402033
 51
113.65421335090991
  0
ARC
  8
_0-0_
  6
CONTINUOUS
 62
    7
 10
-1.5871526485034941
 20
22.373302833029435
 40
1.0690885925984583
 50
114.40905177746144
 51
126.74940196751814
  0
LINE
  8
_0-0_
  6
CONTINUOUS
 62
    7
 10
-22.413785343611739
 20
5.5478191598883715
 11
-4.3473806290427923
 21
21.115242723462522
  0
LINE
  8
_0-0_
  6
CONTINUOUS
 62
    7
 10
-1.7104301103328545
 20
23.387444984482407
 11
9.5164901587241921
 21
33.061435238998705
  0
ARC
  8
_0-0_
  6
CONTINUOUS
 62
    7
 10
-25.692676996875466
 20
-3.558229092056143
 40
0.2749426914265036
 50
119.84082533897625
 51
249.68645804247734
  0
ARC
  8
_0-0_
  6
CONTINUOUS
 62
    7
 10
-23.792459107622097
 20
-1.8843274739843761
 40
0.190826738223893
 50
306.58765470957377
 51
157.09789211568904
  0
ARC
  8
_0-0_
  6
CONTINUOUS
 62
    7
 10
-22.50341002222385
 20
-1.0029127871989427
 40
0.249950537290517
 50
124.41908150087502
 51
275.54713154292534
  0
ARC
  8
_0-0_
  6
CONTINUOUS
 62
    7
 10
-20.482303209833507
 20
0.8485484457165259
 40
0.2368263100299032
 50
292.80237919220485
 51
87.807313745327619
  0
ARC
  8
_0-0_
  6
CONTINUOUS
 62
    7
 10
-18.751989972335952
 20
1.917192945046688
 40
0.4603040821315687
 50
144.9917578937449
 51
226.82052433379548
  0
ARC
  8
_0-0_
  6
CONTINUOUS
 62
    7
 10
-16.870792590828021
 20
3.7381471911135637
 40
0.327178033211041
 50
295.47349968683375
 51
68.476368334930001
  0
LINE
  8
_0-0_
  6
CONTINUOUS
 62
    7
 10
-25.829486321677312
 20
-3.319740743879299
 11
-23.968243181931431
 21
-1.8100657527520863
  0
LINE
  8
_0-0_
  6
CONTINUOUS
 62
    7
 10
-23.678716471304288
 20
-2.0375510253877049
 11
-25.788125363016281
 21
-3.8160722478115243
  0
LINE
  8
_0-0_
  6
CONTINUOUS
 62
    7
 10
-22.644692504778821
 20
-0.7967222655571273
 11
-20.473242175075288
 21
1.0852013535192615
  0
LINE
  8
_0-0_
  6
CONTINUOUS
 62
    7
 10
-20.390520257753256
 20
0.6302308082480525
 11
-22.479248670134726
 21
-1.2516928108283363
  0
LINE
  8
_0-0_
  6
CONTINUOUS
 62
    7
 10
-19.12901101859217
 20
2.1812667580362817
 11
-16.750755895583556
 21
4.0425098977821481
  0
LINE
  8
_0-0_
  6
CONTINUOUS
 62
    7
 10
-16.730075416253047
 20
3.4427759971973675
 11
-19.066969580600645
 21
1.5815328574515011
  0
ARC
  8
_0-0_
  6
CONTINUOUS
 62
    7
 10
-23.702777413602295
 20
-5.3645502536965548
 40
0.2749426914265036
 50
119.84082533897625
 51
249.68645804247734
  0
ARC
  8
_0-0_
  6
CONTINUOUS
 62
    7
 10
-21.802559524348911
 20
-3.6906486356247878
 40
0.190826738223893
 50
306.58765470957377
 51
157.09789211568904
  0
LINE
  8
_0-0_
  6
CONTINUOUS
 62
    7
 10
-23.839586738404126
 20
-5.1260619055197107
 11
-21.97834359865826
 21
-3.6163869143925123
  0
LINE
  8
_0-0_
  6
CONTINUOUS
 62
    7
 10
-21.688816888031116
 20
-3.8438721870281167
 11
-23.798225779743095
 21
-5.6223934094519503
  0
ARC
  8
_0-0_
  6
CONTINUOUS
 62
    7
 10
-21.510646604568269
 20
-7.1844324347814048
 40
0.2749426914265036
 50
119.84082533897625
 51
249.68645804247734
  0
ARC
  8
_0-0_
  6
CONTINUOUS
 62
    7
 10
-19.6104287153149
 20
-5.5105308167096378
 40
0.190826738223893
 50
306.58765470957377
 51
157.09789211568904
  0
LINE
  8
_0-0_
  6
CONTINUOUS
 62
    7
 10
-21.6474559293701
 20
-6.9459440866045608
 11
-19.786212789624219
 21
-5.4362690954773623
  0
LINE
  8
_0-0_
  6
CONTINUOUS
 62
    7
 10
-19.49668607899709
 20
-5.6637543681129667
 11
-21.606094970709069
 21
-7.4422755905368003
  0
ARC
  8
_0-0_
  6
CONTINUOUS
 62
    7
 10
-20.187095927415644
 20
-2.6760879407302891
 40
0.2749426914265036
 50
119.84082533897625
 51
249.68645804247734
  0
ARC
  8
_0-0_
  6
CONTINUOUS
 62
    7
 10
-18.286878038162275
 20
-1.0021863226585364
 40
0.190826738223893
 50
306.58765470957377
 51
157.09789211568904
  0
LINE
  8
_0-0_
  6
CONTINUOUS
 62
    7
 10
-20.323905252217475
 20
-2.4375995925534593
 11
-18.462662112471609
 21
-0.9279246014262465
  0
LINE
  8
_0-0_
  6
CONTINUOUS
 62
    7
 10
-18.173135401844466
 20
-1.155409874061851
 11
-20.282544293556459
 21
-2.9339310964856846
  0
ARC
  8
_0-0_
  6
CONTINUOUS
 62
    7
 10
-17.850201763068046
 20
-4.5580115598066779
 40
0.2749426914265036
 50
119.84082533897625
 51
249.68645804247734
  0
ARC
  8
_0-0_
  6
CONTINUOUS
 62
    7
 10
-15.949983873814677
 20
-2.884109941734911
 40
0.190826738223893
 50
306.58765470957377
 51
157.09789211568904
  0
LINE
  8
_0-0_
  6
CONTINUOUS
 62
    7
 10
-17.987011087869877
 20
-4.3195232116298339
 11
-16.125767948124011
 21
-2.8098482205026354
  0
LINE
  8
_0-0_
  6
CONTINUOUS
 62
    7
 10
-15.836241237496868
 20
-3.0373334931382399
 11
-17.945650129208861
 21
-4.8158547155620735
  0
ARC
  8
_0-0_
  6
CONTINUOUS
 62
    7
 10
-16.50251060331232
 20
0.1162883576691573
 40
0.3299312297118042
 50
119.84082533897625
 51
249.68645804247734
  0
ARC
  8
_0-0_
  6
CONTINUOUS
 62
    7
 10
-14.222249136208266
 20
2.1249702993552777
 40
0.2289920858686718
 50
306.58765470957377
 51
157.09789211568904
  0
LINE
  8
_0-0_
  6
CONTINUOUS
 62
    7
 10
-16.66668179307452
 20
0.4024743754813702
 11
-14.433190025379478
 21
2.2140843648340027
  0
LINE
  8
_0-0_
  6
CONTINUOUS
 62
    7
 10
-14.085757972626912
 20
1.9411020376712802
 11
-16.617048642681286
 21
-0.1931234292373087
  0
ARC
  8
_0-0_
  6
CONTINUOUS
 62
    7
 10
-13.876089728337579
 20
-1.7242743027462009
 40
0.3299312297118042
 50
119.84082533897625
 51
249.68645804247734
  0
ARC
  8
_0-0_
  6
CONTINUOUS
 62
    7
 10
-11.595828261233539
 20
0.2844076389399052
 40
0.2289920858686718
 50
306.58765470957377
 51
157.09789211568904
  0
LINE
  8
_0-0_
  6
CONTINUOUS
 62
    7
 10
-14.040260918099779
 20
-1.4380882849340022
 11
-11.806769150404737
 21
0.3735217044186445
  0
LINE
  8
_0-0_
  6
CONTINUOUS
 62
    7
 10
-11.45933709765217
 20
0.1005393772559219
 11
-13.990627767706545
 21
-2.033686089652667
  0
ARC
  8
_0-0_
  6
CONTINUOUS
 62
    7
 10
-9.5090485863274274
 20
1.4196701442719135
 40
0.384919767997105
 50
119.84082533897625
 51
249.68645804247734
  0
ARC
  8
_0-0_
  6
CONTINUOUS
 62
    7
 10
-6.8487435413727162
 20
3.763132409572373
 40
0.2671574335134503
 50
306.58765470957377
 51
157.09789211568904
  0
LINE
  8
_0-0_
  6
CONTINUOUS
 62
    7
 10
-9.7005816410499968
 20
1.753553831719481
 11
-7.0948412454057781
 21
3.8670988192975759
  0
LINE
  8
_0-0_
  6
CONTINUOUS
 62
    7
 10
-6.6895038505277888
 20
3.5486194376077211
 11
-9.6426762989245596
 21
1.0586897262143626
  0
ARC
  8
_0-0_
  6
CONTINUOUS
 62
    7
 10
-12.466357130590328
 20
3.2602328046872717
 40
0.384919767997105
 50
119.84082533897625
 51
249.68645804247734
  0
ARC
  8
_0-0_
  6
CONTINUOUS
 62
    7
 10
-9.8060520856356028
 20
5.6036950699877313
 40
0.2671574335134503
 50
306.58765470957377
 51
157.09789211568904
  0
LINE
  8
_0-0_
  6
CONTINUOUS
 62
    7
 10
-12.657890185312883
 20
3.5941164921348392
 11
-10.052149789668665
 21
5.7076614797129341
  0
LINE
  8
_0-0_
  6
CONTINUOUS
 62
    7
 10
-9.6468123947906754
 20
5.3891820980230936
 11
-12.59998484318746
 21
2.8992523866297208
  0
ARC
  8
_0-0_
  6
CONTINUOUS
 62
    7
 10
-15.104848246866613
 20
4.8523739187462045
 40
0.3574254988544546
 50
119.84082533897625
 51
249.68645804247734
  0
ARC
  8
_0-0_
  6
CONTINUOUS
 62
    7
 10
-12.634564990837223
 20
7.0284460222394873
 40
0.2480747596910611
 50
306.58765470957377
 51
157.09789211568904
  0
LINE
  8
_0-0_
  6
CONTINUOUS
 62
    7
 10
-15.282700369108998
 20
5.1624087713760876
 11
-12.863084287439367
 21
7.1249862598414584
  0
LINE
  8
_0-0_
  6
CONTINUOUS
 62
    7
 10
-12.486699563624075
 20
6.8292554054151768
 11
-15.228931122849662
 21
4.5171778162641889
  0
ARC
  8
_0-0_
  6
CONTINUOUS
 62
    7
 10
-10.811918784149544
 20
8.3062697613316292
 40
0.384919767997105
 50
119.84082533897625
 51
249.68645804247734
  0
ARC
  8
_0-0_
  6
CONTINUOUS
 62
    7
 10
-8.1516137391948185
 20
10.649732026632103
 40
0.2671574335134503
 50
306.58765470957377
 51
157.09789211568904
  0
LINE
  8
_0-0_
  6
CONTINUOUS
 62
    7
 10
-11.003451838872113
 20
8.6401534487792109
 11
-8.3977114432278945
 21
10.753698436357292
  0
LINE
  8
_0-0_
  6
CONTINUOUS
 62
    7
 10
-7.9923740483498911
 20
10.435219054667451
 11
-10.945546496746676
 21
7.9452893432740925
  0
ARC
  8
_0-0_
  6
CONTINUOUS
 62
    7
 10
-7.7098468845730999
 20
6.8586362081959553
 40
0.384919767997105
 50
119.84082533897625
 51
249.68645804247734
  0
ARC
  8
_0-0_
  6
CONTINUOUS
 62
    7
 10
-5.0495418396183744
 20
9.2020984734964291
 40
0.2671574335134503
 50
306.58765470957377
 51
157.09789211568904
  0
LINE
  8
_0-0_
  6
CONTINUOUS
 62
    7
 10
-7.901379939295655
 20
7.192519895643537
 11
-5.2956395436514363
 21
9.3060648832216177
  0
LINE
  8
_0-0_
  6
CONTINUOUS
 62
    7
 10
-4.890302148773447
 20
8.9875855015317772
 11
-7.843474597170232
 21
6.4976557901384187
  0
ARC
  8
_0-0_
  6
CONTINUOUS
 62
    7
 10
-4.5957047436950837
 20
5.0390098215014323
 40
0.4124140371397555
 50
119.84082533897625
 51
249.68645804247734
  0
ARC
  8
_0-0_
  6
CONTINUOUS
 62
    7
 10
-1.7453779098150086
 20
7.5498622486090685
 40
0.2862401073358397
 50
306.58765470957377
 51
157.09789211568904
  0
LINE
  8
_0-0_
  6
CONTINUOUS
 62
    7
 10
-4.8009187308978376
 20
5.3967423437666842
 11
-2.0090540212790167
 21
7.661254830457489
  0
LINE
  8
_0-0_
  6
CONTINUOUS
 62
    7
 10
-1.5747639553383159
 20
7.3200269215040894
 11
-4.7388772929062988
 21
4.6522450878683461
  0
ARC
  8
_0-0_
  6
CONTINUOUS
 62
    7
 10
-2.7137811246186949
 20
10.622739240739046
 40
0.4124140371397555
 50
119.84082533897625
 51
249.68645804247734
  0
ARC
  8
_0-0_
  6
CONTINUOUS
 62
    7
 10
0.1365457092613517
 20
13.133591667846682
 40
0.2862401073358397
 50
306.58765470957377
 51
157.09789211568904
  0
LINE
  8
_0-0_
  6
CONTINUOUS
 62
    7
 10
-2.9189951118214346
 20
10.980471763004298
 11
-0.1271304022026562
 21
13.244984249695102
  0
LINE
  8
_0-0_
  6
CONTINUOUS
 62
    7
 10
0.3071596637380729
 20
12.903756340741703
 11
-2.8569536738299099
 21
10.23597450710596
  0
ARC
  8
_0-0_
  6
CONTINUOUS
 62
    7
 10
-6.0226578175002494
 20
12.153094711196767
 40
0.4124140371397555
 50
119.84082533897625
 51
249.68645804247734
  0
ARC
  8
_0-0_
  6
CONTINUOUS
 62
    7
 10
-3.1723309836201885
 20
14.663947138304403
 40
0.2862401073358397
 50
306.58765470957377
 51
157.09789211568904
  0
LINE
  8
_0-0_
  6
CONTINUOUS
 62
    7
 10
-6.2278718047030033
 20
12.510827233462019
 11
-3.4360070950841965
 21
14.775339720152823
  0
LINE
  8
_0-0_
  6
CONTINUOUS
 62
    7
 10
-3.0017170291434674
 20
14.434111811199424
 11
-6.1658303667114644
 21
11.76632997756368
  0
ARC
  8
_0-0_
  6
CONTINUOUS
 62
    7
 10
-0.9438701402238258
 20
16.082641578383921
 40
0.4399083062824059
 50
119.84082533897625
 51
249.68645804247734
  0
ARC
  8
_0-0_
  6
CONTINUOUS
 62
    7
 10
2.0964784825815705
 20
18.760884167298734
 40
0.3053227811582289
 50
306.58765470957377
 51
157.09789211568904
  0
LINE
  8
_0-0_
  6
CONTINUOUS
 62
    7
 10
-1.1627650599067501
 20
16.464222935466857
 11
1.8152239636866305
 21
18.879702921270386
  0
LINE
  8
_0-0_
  6
CONTINUOUS
 62
    7
 10
2.2784667006900712
 20
18.515726485053413
 11
-1.0965875260490954
 21
15.670092529175287
  0
ARC
  8
_0-0_
  6
CONTINUOUS
 62
    7
 10
15.613870147791001
 20
17.916874616020912
 40
0.4674025754250563
 50
39.840825338976252
 51
169.68645804247731
  0
ARC
  8
_0-0_
  6
CONTINUOUS
 62
    7
 10
18.977219278113719
 20
15.229719730919479
 40
0.3244054549806184
 50
226.58765470957374
 51
77.097892115689064
  0
LINE
  8
_0-0_
  6
CONTINUOUS
 62
    7
 10
15.972754571182517
 20
18.216319332389297
 11
19.049654467027036
 21
15.545934914976593
  0
LINE
  8
_0-0_
  6
CONTINUOUS
 62
    7
 10
18.754273560374767
 20
14.994062975949342
 11
15.154019512516864
 21
18.000555920694829
  0
ARC
  8
_0-0_
  6
CONTINUOUS
 62
    7
 10
20.771915390575796
 20
13.40009986287968
 40
0.4674025754250563
 50
39.840825338976252
 51
169.68645804247731
  0
ARC
  8
_0-0_
  6
CONTINUOUS
 62
    7
 10
24.135264520898456
 20
10.712944977778216
 40
0.3244054549806184
 50
226.58765470957374
 51
77.097892115689064
  0
LINE
  8
_0-0_
  6
CONTINUOUS
 62
    7
 10
21.130799813967283
 20
13.699544579248021
 11
24.207699709811802
 21
11.02916016183533
  0
LINE
  8
_0-0_
  6
CONTINUOUS
 62
    7
 10
23.912318803159533
 20
10.477288222808093
 11
20.31206475530163
 21
13.483781167553582
  0
ARC
  8
_0-0_
  6
CONTINUOUS
 62
    7
 10
16.952173778351405
 20
12.117558883592645
 40
0.4674025754250563
 50
39.840825338976252
 51
169.68645804247731
  0
ARC
  8
_0-0_
  6
CONTINUOUS
 62
    7
 10
20.315522908674065
 20
9.4304039984911956
 40
0.3244054549806184
 50
226.58765470957374
 51
77.097892115689064
  0
LINE
  8
_0-0_
  6
CONTINUOUS
 62
    7
 10
17.311058201742892
 20
12.417003599961001
 11
20.387958097587411
 21
9.7466191825483097
  0
LINE
  8
_0-0_
  6
CONTINUOUS
 62
    7
 10
20.092577190935142
 20
9.1947472435210589
 11
16.49232314307724
 21
12.201240188266548
  0
ARC
  8
_0-0_
  6
CONTINUOUS
 62
    7
 10
18.387550348474885
 20
6.326262605351781
 40
0.4399083062824059
 50
39.840825338976252
 51
169.68645804247731
  0
ARC
  8
_0-0_
  6
CONTINUOUS
 62
    7
 10
21.553055412307994
 20
3.7971756546680471
 40
0.3053227811582289
 50
226.58765470957374
 51
77.097892115689064
  0
LINE
  8
_0-0_
  6
CONTINUOUS
 62
    7
 10
18.725323923431599
 20
6.6080929266396371
 11
21.621229707755813
 21
4.0947899455453243
  0
LINE
  8
_0-0_
  6
CONTINUOUS
 62
    7
 10
21.343224148553698
 20
3.5753810617549906
 11
17.954749750569786
 21
6.4050214803389682
  0
ARC
  8
_0-0_
  6
CONTINUOUS
 62
    7
 10
22.318817263245958
 20
7.7203288871854969
 40
0.4399083062824059
 50
39.840825338976252
 51
169.68645804247731
  0
ARC
  8
_0-0_
  6
CONTINUOUS
 62
    7
 10
25.484322327079067
 20
5.191241936501763
 40
0.3053227811582289
 50
226.58765470957374
 51
77.097892115689064
  0
LINE
  8
_0-0_
  6
CONTINUOUS
 62
    7
 10
22.656590838202671
 20
8.002159208473353
 11
25.552496622526913
 21
5.4888562273790544
  0
LINE
  8
_0-0_
  6
CONTINUOUS
 62
    7
 10
25.274491063324771
 20
4.9694473435887065
 11
21.886016665340858
 21
7.7990877621726984
  0
ARC
  8
_0-0_
  6
CONTINUOUS
 62
    7
 10
25.83186429346696
 20
9.0865138433825425
 40
0.4399083062824059
 50
39.840825338976252
 51
169.68645804247731
  0
ARC
  8
_0-0_
  6
CONTINUOUS
 62
    7
 10
28.997369357300069
 20
6.5574268926988228
 40
0.3053227811582289
 50
226.58765470957374
 51
77.097892115689064
  0
LINE
  8
_0-0_
  6
CONTINUOUS
 62
    7
 10
26.169637868423674
 20
9.3683441646703987
 11
29.065543652747888
 21
6.8550411835761
  0
LINE
  8
_0-0_
  6
CONTINUOUS
 62
    7
 10
28.787538093545773
 20
6.3356322997857522
 11
25.39906369556186
 21
9.165272718369744
  0
ARC
  8
_0-0_
  6
CONTINUOUS
 62
    7
 10
30.291852995004344
 20
5.1991671626229223
 40
0.384919767997105
 50
39.840825338976252
 51
169.68645804247731
  0
ARC
  8
_0-0_
  6
CONTINUOUS
 62
    7
 10
33.061669925858325
 20
2.9862160807746623
 40
0.2671574335134503
 50
226.58765470957374
 51
77.097892115689064
  0
LINE
  8
_0-0_
  6
CONTINUOUS
 62
    7
 10
30.587404873091455
 20
5.4457686937498071
 11
33.121322434375173
 21
3.2466285852922798
  0
LINE
  8
_0-0_
  6
CONTINUOUS
 62
    7
 10
32.878067570073313
 20
2.7921458119757379
 11
29.913152471837403
 21
5.2680811782367218
  0
ARC
  8
_0-0_
  6
CONTINUOUS
 62
    7
 10
27.057619221150102
 20
3.8329822064258767
 40
0.384919767997105
 50
39.840825338976252
 51
169.68645804247731
  0
ARC
  8
_0-0_
  6
CONTINUOUS
 62
    7
 10
29.827436152004079
 20
1.6200311245776167
 40
0.2671574335134503
 50
226.58765470957374
 51
77.097892115689064
  0
LINE
  8
_0-0_
  6
CONTINUOUS
 62
    7
 10
27.35317109923724
 20
4.0795837375527615
 11
29.887088660520956
 21
1.8804436290952484
  0
LINE
  8
_0-0_
  6
CONTINUOUS
 62
    7
 10
29.643833796219067
 20
1.4259608557786922
 11
26.678918697983161
 21
3.9018962220396762
  0
ARC
  8
_0-0_
  6
CONTINUOUS
 62
    7
 10
23.628216167839152
 20
2.24374664513544
 40
0.384919767997105
 50
39.840825338976252
 51
169.68645804247731
  0
ARC
  8
_0-0_
  6
CONTINUOUS
 62
    7
 10
26.39803309869313
 20
0.0307955632871799
 40
0.2671574335134503
 50
226.58765470957374
 51
77.097892115689064
  0
LINE
  8
_0-0_
  6
CONTINUOUS
 62
    7
 10
23.923768045926263
 20
2.4903481762623247
 11
26.457685607209978
 21
0.2912080678047974
  0
LINE
  8
_0-0_
  6
CONTINUOUS
 62
    7
 10
26.214430742908117
 20
-0.1632747055117587
 11
23.249515644672211
 21
2.3126606607492395
  0
ARC
  8
_0-0_
  6
CONTINUOUS
 62
    7
 10
34.320192849338554
 20
1.5268516327693025
 40
0.3574254988544546
 50
39.840825338976252
 51
169.68645804247731
  0
ARC
  8
_0-0_
  6
CONTINUOUS
 62
    7
 10
36.892165713702951
 20
-0.5280315146612277
 40
0.2480747596910611
 50
226.58765470957374
 51
77.097892115689064
  0
LINE
  8
_0-0_
  6
CONTINUOUS
 62
    7
 10
34.594633878990862
 20
1.7558387688156873
 11
36.947557328754328
 21
-0.2862199033234329
  0
LINE
  8
_0-0_
  6
CONTINUOUS
 62
    7
 10
36.721677811902595
 20
-0.7082396214030861
 11
33.968542363540649
 21
1.590843218696401
  0
ARC
  8
_0-0_
  6
CONTINUOUS
 62
    7
 10
31.476297634397749
 20
0.1327853509355865
 40
0.3574254988544546
 50
39.840825338976252
 51
169.68645804247731
  0
ARC
  8
_0-0_
  6
CONTINUOUS
 62
    7
 10
34.04827049876215
 20
-1.9220977964949437
 40
0.2480747596910611
 50
226.58765470957374
 51
77.097892115689064
  0
LINE
  8
_0-0_
  6
CONTINUOUS
 62
    7
 10
31.750738664050086
 20
0.3617724869819714
 11
34.103662113813527
 21
-1.6802861851571489
  0
LINE
  8
_0-0_
  6
CONTINUOUS
 62
    7
 10
33.877782596961794
 20
-2.1023059032368163
 11
31.124647148599873
 21
0.196776936862685
  0
ARC
  8
_0-0_
  6
CONTINUOUS
 62
    7
 10
28.297826511816876
 20
-1.4843315359915348
 40
0.3574254988544546
 50
39.840825338976252
 51
169.68645804247731
  0
ARC
  8
_0-0_
  6
CONTINUOUS
 62
    7
 10
30.869799376181273
 20
-3.539214683422065
 40
0.2480747596910611
 50
226.58765470957374
 51
77.097892115689064
  0
LINE
  8
_0-0_
  6
CONTINUOUS
 62
    7
 10
28.572267541469184
 20
-1.2553443999451499
 11
30.92519099123265
 21
-3.2974030720842702
  0
LINE
  8
_0-0_
  6
CONTINUOUS
 62
    7
 10
30.699311474380917
 20
-3.7194227901639234
 11
27.946176026019
 21
-1.4203399500644363
  0
ARC
  8
_0-0_
  6
CONTINUOUS
 62
    7
 10
38.041838121669315
 20
-1.6157187099875099
 40
0.3299312297118042
 50
39.840825338976252
 51
169.68645804247731
  0
ARC
  8
_0-0_
  6
CONTINUOUS
 62
    7
 10
40.415966919544161
 20
-3.5125339230002961
 40
0.2289920858686718
 50
226.58765470957374
 51
77.097892115689064
  0
LINE
  8
_0-0_
  6
CONTINUOUS
 62
    7
 10
38.29516830288685
 20
-1.4043459690216107
 11
40.467097641130039
 21
-3.2893232048423382
  0
LINE
  8
_0-0_
  6
CONTINUOUS
 62
    7
 10
40.258593471728432
 20
-3.6788798676850885
 11
37.717237673240504
 21
-1.5566495537470981
  0
ARC
  8
_0-0_
  6
CONTINUOUS
 62
    7
 10
35.337349534911908
 20
-3.1213102943679214
 40
0.3299312297118042
 50
39.840825338976252
 51
169.68645804247731
  0
ARC
  8
_0-0_
  6
CONTINUOUS
 62
    7
 10
37.711478332786754
 20
-5.0181255073807218
 40
0.2289920858686718
 50
226.58765470957374
 51
77.097892115689064
  0
LINE
  8
_0-0_
  6
CONTINUOUS
 62
    7
 10
35.590679716129415
 20
-2.9099375534020364
 11
37.762609054372632
 21
-4.7949147892227639
  0
LINE
  8
_0-0_
  6
CONTINUOUS
 62
    7
 10
37.554104884970997
 20
-5.1844714520655142
 11
35.012749086483069
 21
-3.0622411381275239
  0
ARC
  8
_0-0_
  6
CONTINUOUS
 62
    7
 10
32.493454319971107
 20
-4.8220711582050679
 40
0.3299312297118042
 50
39.840825338976252
 51
169.68645804247731
  0
ARC
  8
_0-0_
  6
CONTINUOUS
 62
    7
 10
34.867583117845953
 20
-6.7188863712178541
 40
0.2289920858686718
 50
226.58765470957374
 51
77.097892115689064
  0
LINE
  8
_0-0_
  6
CONTINUOUS
 62
    7
 10
32.746784501188642
 20
-4.6106984172391687
 11
34.918713839431831
 21
-6.4956756530598962
  0
LINE
  8
_0-0_
  6
CONTINUOUS
 62
    7
 10
34.710209670030224
 20
-6.8852323159026607
 11
32.168853871542296
 21
-4.7630020019646704
  0
ARC
  8
_0-0_
  6
CONTINUOUS
 62
    7
 10
36.438150197395288
 20
-7.8252348727785002
 40
0.3024369605691539
 50
39.840825338976252
 51
169.68645804247731
  0
ARC
  8
_0-0_
  6
CONTINUOUS
 62
    7
 10
38.614434928780554
 20
-9.5639821513735566
 40
0.2099094120462825
 50
226.58765470957374
 51
77.097892115689064
  0
LINE
  8
_0-0_
  6
CONTINUOUS
 62
    7
 10
36.670369530178021
 20
-7.6314765268931009
 11
38.661304756900932
 21
-9.3593723263954356
  0
LINE
  8
_0-0_
  6
CONTINUOUS
 62
    7
 10
38.470175934949481
 20
-9.7164659340012971
 11
36.140599786335542
 21
-7.7710881462248036
  0
ARC
  8
_0-0_
  6
CONTINUOUS
 62
    7
 10
38.947469504695988
 20
-6.1802366602147085
 40
0.3024369605691539
 50
39.840825338976252
 51
169.68645804247731
  0
ARC
  8
_0-0_
  6
CONTINUOUS
 62
    7
 10
41.123754236081254
 20
-7.9189839388097649
 40
0.2099094120462825
 50
226.58765470957374
 51
77.097892115689064
  0
LINE
  8
_0-0_
  6
CONTINUOUS
 62
    7
 10
39.179688837478722
 20
-5.9864783143293092
 11
41.170624064201633
 21
-7.714374113831644
  0
LINE
  8
_0-0_
  6
CONTINUOUS
 62
    7
 10
40.979495242250181
 20
-8.0714677214375055
 11
38.649919093636242
 21
-6.126089933661012
  0
ARC
  8
_0-0_
  6
CONTINUOUS
 62
    7
 10
41.498099100286453
 20
-4.7781509241935876
 40
0.2749426914265036
 50
39.840825338976252
 51
169.68645804247731
  0
ARC
  8
_0-0_
  6
CONTINUOUS
 62
    7
 10
43.476539765182139
 20
-6.3588302683709141
 40
0.190826738223893
 50
226.58765470957374
 51
77.097892115689064
  0
LINE
  8
_0-0_
  6
CONTINUOUS
 62
    7
 10
41.709207584634385
 20
-4.6020069733886739
 11
43.519148699837046
 21
-6.1728213365726159
  0
LINE
  8
_0-0_
  6
CONTINUOUS
 62
    7
 10
43.345395225335693
 20
-6.4974518889415886
 11
41.227598726595772
 21
-4.728926627326592
  0
ARC
  8
_0-0_
  6
CONTINUOUS
 62
    7
 10
7.216586694262471
 20
-1.6753409821074055
 40
3.0277039199690949
 50
58.68662549370066
 51
130.3889195221127
  0
ARC
  8
_0-0_
  6
CONTINUOUS
 62
    7
 10
7.2469003420969749
 20
-2.3996116919384374
 40
2.7441847116504041
 50
52.895765094293971
 51
127.10423490570602
  0
ARC
  8
_0-0_
  6
CONTINUOUS
 62
    7
 10
-0.1915749423464525
 20
-4.8441729690199562
 40
0.8992285283589168
 50
128.38059681974943
 51
244.29978667207072
  0
ARC
  8
_0-0_
  6
CONTINUOUS
 62
    7
 10
-0.5184040238395972
 20
-4.5005228550802538
 40
0.7091904313981677
 50
124.31880255684403
 51
216.75655302710507
  0
ARC
  8
_0-0_
  6
CONTINUOUS
 62
    7
 10
33.474043447787949
 20
-17.027835171012846
 40
0.6949023155358679
 50
275.28927629718305
 51
70.4606910050137
  0
ARC
  8
_0-0_
  6
CONTINUOUS
 62
    7
 10
33.369748994985713
 20
-16.54130419575791
 40
0.8873007595595177
 50
325.30484646876698
 51
55.304846468764495
  0
ARC
  8
_0-0_
  6
CONTINUOUS
 62
    7
 10
22.73542070342307
 20
-21.395496265521338
 40
0.7153647423829759
 50
334.44003482817675
 51
48.179830119864832
  0
ARC
  8
_0-0_
  6
CONTINUOUS
 62
    7
 10
23.521070286968577
 20
-21.058789301144678
 40
0.4436503797797575
 50
304.69515353123552
 51
55.304846468764445
  0
ARC
  8
_0-0_
  6
CONTINUOUS
 62
    7
 10
-2.8209220336631837
 20
-8.5906866877711874
 40
2.5537763412713188
 50
59.779699284234887
 51
117.61639537060752
  0
ARC
  8
_0-0_
  6
CONTINUOUS
 62
    7
 10
-3.0778747725387667
 20
-9.1663355244111582
 40
3.9096969943260604
 50
65.867814088058651
 51
109.72698958840968
  0
ARC
  8
_0-0_
  6
CONTINUOUS
 62
    7
 10
-9.0986922921878808
 20
-10.335182647815477
 40
0.9892738373988171
 50
143.80970066679802
 51
242.17953291703543
  0
ARC
  8
_0-0_
  6
CONTINUOUS
 62
    7
 10
-9.4479514455569991
 20
-9.8881118463033797
 40
0.974866171845066
 50
129.30276291097999
 51
226.29204076548851
  0
ARC
  8
_0-0_
  6
CONTINUOUS
 62
    7
 10
-12.098641463723215
 20
-13.69656202237052
 40
2.4352970199319364
 50
54.450515948247698
 51
123.21120539593755
  0
ARC
  8
_0-0_
  6
CONTINUOUS
 62
    7
 10
-12.205237976054992
 20
-14.087532433064657
 40
3.6072837895681729
 50
65.035247875760945
 51
112.76133989382639
  0
ARC
  8
_0-0_
  6
CONTINUOUS
 62
    7
 10
-17.479301565698822
 20
-15.045019675492261
 40
0.5423180363696559
 50
120.38272544467895
 51
270.66549654882948
  0
ARC
  8
_0-0_
  6
CONTINUOUS
 62
    7
 10
-17.31867860054982
 20
-14.710460076959839
 40
0.9588648819514965
 50
138.26203347739457
 51
210.31678024760637
  0
LINE
  8
_0-0_
  6
CONTINUOUS
 62
    7
 10
8.7901405954899836
 20
0.9113401244320105
 11
33.874809441550724
 21
-15.811772439608481
  0
LINE
  8
_0-0_
  6
CONTINUOUS
 62
    7
 10
33.706455959362387
 20
-16.372950713569573
 11
8.9023762502821988
 21
-0.2110164234901699
  0
LINE
  8
_0-0_
  6
CONTINUOUS
 62
    7
 10
5.5914244339117793
 20
-0.2110164234901699
 11
-0.7498900618485642
 21
-4.1392643412178014
  0
LINE
  8
_0-0_
  6
CONTINUOUS
 62
    7
 10
-0.9182435440368728
 20
-3.914793031633371
 11
5.2547174695351053
 21
0.6307509874514725
  0
LINE
  8
_0-0_
  6
CONTINUOUS
 62
    7
 10
-0.5815365796602272
 20
-5.6544456809127492
 11
26.018313606095457
 21
-20.694023423069972
  0
LINE
  8
_0-0_
  6
CONTINUOUS
 62
    7
 10
23.773600510251097
 20
-20.694023423069972
 11
-1.4794218179979772
 21
-5.5983278535166416
  0
LINE
  8
_0-0_
  6
CONTINUOUS
 62
    7
 10
-1.535539645394099
 20
-6.3839774370621623
 11
23.212422236289992
 21
-20.862376905258294
  0
LINE
  8
_0-0_
  6
CONTINUOUS
 62
    7
 10
-4.0047240508228761
 20
-6.3278596096660547
 11
-9.8970959274143304
 21
-9.7510470808287035
  0
LINE
  8
_0-0_
  6
CONTINUOUS
 62
    7
 10
-10.065449409602653
 20
-9.1337509794715057
 11
-4.3975488425956435
 21
-5.4860921987244264
  0
LINE
  8
_0-0_
  6
CONTINUOUS
 62
    7
 10
-9.5603889630376706
 20
-11.210110593127544
 11
16.534400776153031
 21
-24.285564376420957
  0
LINE
  8
_0-0_
  6
CONTINUOUS
 62
    7
 10
-10.682745510959851
 20
-11.715171039692526
 11
15.187572918646392
 21
-24.622271340797603
  0
LINE
  8
_0-0_
  6
CONTINUOUS
 62
    7
 10
-10.682745510959851
 20
-10.817285801354776
 11
7.555548392775588
 21
-19.796138184732222
  0
LINE
  8
_0-0_
  6
CONTINUOUS
 62
    7
 10
-13.432519053369194
 20
-11.659053212296419
 11
-17.753591762869593
 21
-14.577180236894085
  0
LINE
  8
_0-0_
  6
CONTINUOUS
 62
    7
 10
-13.600872535557532
 20
-10.761167973958669
 11
-18.034180899850131
 21
-14.072119790329102
  0
LINE
  8
_0-0_
  6
CONTINUOUS
 62
    7
 10
-17.473002625889055
 20
-15.58730113002405
 11
-14.723229083479712
 21
-17.102482469718986
  0
LINE
  8
_0-0_
  6
CONTINUOUS
 62
    7
 10
23.773600510251097
 20
-21.423555179219385
 11
23.380775718478329
 21
-21.704144316199923
  0
ARC
  8
_0-0_
  6
CONTINUOUS
 62
    7
 10
8.474890447470667
 20
-2.029894240858189
 40
0.7234589140915451
 50
196.16086005419433
 51
334.31185656435343
  0
ARC
  8
_0-0_
  6
CONTINUOUS
 62
    7
 10
7.1627236010028206
 20
-3.016907793295621
 40
0.655010273107121
 50
179.05166572172467
 51
346.08551833593043
  0
ARC
  8
_0-0_
  6
CONTINUOUS
 62
    7
 10
4.9741283325545531
 20
-3.016907793295621
 40
0.655010273107121
 50
179.05166572172467
 51
346.08551833593043
  0
ARC
  8
_0-0_
  6
CONTINUOUS
 62
    7
 10
4.5251857133856923
 20
-4.3637356508022318
 40
0.655010273107121
 50
179.05166572172467
 51
346.08551833593043
  0
ARC
  8
_0-0_
  6
CONTINUOUS
 62
    7
 10
3.4028291654635119
 20
-5.093267406951659
 40
0.655010273107121
 50
179.05166572172467
 51
346.08551833593043
  0
ARC
  8
_0-0_
  6
CONTINUOUS
 62
    7
 10
5.3669531243273205
 20
-6.3278596096660547
 40
0.655010273107121
 50
179.05166572172467
 51
346.08551833593043
  0
ARC
  8
_0-0_
  6
CONTINUOUS
 62
    7
 10
6.5454274996456228
 20
-5.5983278535166416
 40
0.655010273107121
 50
179.05166572172467
 51
346.08551833593043
  0
ARC
  8
_0-0_
  6
CONTINUOUS
 62
    7
 10
6.8821344640222684
 20
-4.3076178234061384
 40
0.655010273107121
 50
179.05166572172467
 51
346.08551833593043
  0
ARC
  8
_0-0_
  6
CONTINUOUS
 62
    7
 10
9.1268475598666292
 20
-4.3076178234061384
 40
0.655010273107121
 50
179.05166572172467
 51
346.08551833593043
  0
ARC
  8
_0-0_
  6
CONTINUOUS
 62
    7
 10
8.8462584228861054
 20
-5.2616208891399818
 40
0.655010273107121
 50
179.05166572172467
 51
346.08551833593043
  0
ARC
  8
_0-0_
  6
CONTINUOUS
 62
    7
 10
8.6779049406977684
 20
-6.8890378836271449
 40
0.655010273107121
 50
179.05166572172467
 51
346.08551833593043
  0
ARC
  8
_0-0_
  6
CONTINUOUS
 62
    7
 10
7.218841428398914
 20
-7.5624518123804503
 40
0.655010273107121
 50
179.05166572172467
 51
346.08551833593043
  0
ARC
  8
_0-0_
  6
CONTINUOUS
 62
    7
 10
10.810382381749914
 20
-5.4860921987244264
 40
0.655010273107121
 50
179.05166572172467
 51
346.08551833593043
  0
ARC
  8
_0-0_
  6
CONTINUOUS
 62
    7
 10
12.26944589404874
 20
-4.812678269971121
 40
0.655010273107121
 50
179.05166572172467
 51
346.08551833593043
  0
ARC
  8
_0-0_
  6
CONTINUOUS
 62
    7
 10
14.345805507704792
 20
-5.7105635083088568
 40
0.655010273107121
 50
179.05166572172467
 51
346.08551833593043
  0
ARC
  8
_0-0_
  6
CONTINUOUS
 62
    7
 10
16.029340329588049
 20
-7.0012735384193601
 40
0.655010273107121
 50
179.05166572172467
 51
346.08551833593043
  0
ARC
  8
_0-0_
  6
CONTINUOUS
 62
    7
 10
14.794748126873653
 20
-7.7869231219648949
 40
0.655010273107121
 50
179.05166572172467
 51
346.08551833593043
  0
ARC
  8
_0-0_
  6
CONTINUOUS
 62
    7
 10
12.886741995405938
 20
-6.6084487466466069
 40
0.655010273107121
 50
179.05166572172467
 51
346.08551833593043
  0
ARC
  8
_0-0_
  6
CONTINUOUS
 62
    7
 10
10.47367541737324
 20
-7.8430409493610025
 40
0.655010273107121
 50
179.05166572172467
 51
346.08551833593043
  0
ARC
  8
_0-0_
  6
CONTINUOUS
 62
    7
 10
9.2390832146588444
 20
-8.5725727055104155
 40
0.655010273107121
 50
179.05166572172467
 51
346.08551833593043
  0
ARC
  8
_0-0_
  6
CONTINUOUS
 62
    7
 10
10.810382381749914
 20
-9.6388114260364883
 40
0.655010273107121
 50
179.05166572172467
 51
346.08551833593043
  0
ARC
  8
_0-0_
  6
CONTINUOUS
 62
    7
 10
11.764385447483757
 20
-9.0776331520753981
 40
0.655010273107121
 50
179.05166572172467
 51
346.08551833593043
  0
ARC
  8
_0-0_
  6
CONTINUOUS
 62
    7
 10
13.391802441970921
 20
-8.5725727055104155
 40
0.655010273107121
 50
179.05166572172467
 51
346.08551833593043
  0
ARC
  8
_0-0_
  6
CONTINUOUS
 62
    7
 10
13.952980715931997
 20
-10.031636217809256
 40
0.655010273107121
 50
179.05166572172467
 51
346.08551833593043
  0
ARC
  8
_0-0_
  6
CONTINUOUS
 62
    7
 10
12.998977650198153
 20
-10.705050146562561
 40
0.655010273107121
 50
179.05166572172467
 51
346.08551833593043
  0
ARC
  8
_0-0_
  6
CONTINUOUS
 62
    7
 10
14.289687680308671
 20
-11.827406694484742
 40
0.655010273107121
 50
179.05166572172467
 51
346.08551833593043
  0
ARC
  8
_0-0_
  6
CONTINUOUS
 62
    7
 10
15.412044228230851
 20
-10.985639283543099
 40
0.655010273107121
 50
179.05166572172467
 51
346.08551833593043
  0
ARC
  8
_0-0_
  6
CONTINUOUS
 62
    7
 10
16.47828294875691
 20
-8.5164548781143079
 40
0.655010273107121
 50
179.05166572172467
 51
346.08551833593043
  0
ARC
  8
_0-0_
  6
CONTINUOUS
 62
    7
 10
17.60063949667909
 20
-8.0113944315493253
 40
0.655010273107121
 50
179.05166572172467
 51
346.08551833593043
  0
ARC
  8
_0-0_
  6
CONTINUOUS
 62
    7
 10
19.284174318562375
 20
-9.1898688068676133
 40
0.655010273107121
 50
179.05166572172467
 51
346.08551833593043
  0
ARC
  8
_0-0_
  6
CONTINUOUS
 62
    7
 10
21.023826967841753
 20
-10.143871872601471
 40
0.655010273107121
 50
179.05166572172467
 51
346.08551833593043
  0
ARC
  8
_0-0_
  6
CONTINUOUS
 62
    7
 10
22.482890480140579
 20
-11.322346247919759
 40
0.655010273107121
 50
179.05166572172467
 51
346.08551833593043
  0
ARC
  8
_0-0_
  6
CONTINUOUS
 62
    7
 10
24.110307474627742
 20
-12.10799583146528
 40
0.655010273107121
 50
179.05166572172467
 51
346.08551833593043
  0
ARC
  8
_0-0_
  6
CONTINUOUS
 62
    7
 10
22.70736178972501
 20
-12.725291932822492
 40
0.655010273107121
 50
179.05166572172467
 51
346.08551833593043
  0
ARC
  8
_0-0_
  6
CONTINUOUS
 62
    7
 10
18.666878217205149
 20
-12.837527587614707
 40
0.655010273107121
 50
179.05166572172467
 51
346.08551833593043
  0
ARC
  8
_0-0_
  6
CONTINUOUS
 62
    7
 10
17.37616818709466
 20
-13.454823688971905
 40
0.655010273107121
 50
179.05166572172467
 51
346.08551833593043
  0
ARC
  8
_0-0_
  6
CONTINUOUS
 62
    7
 10
15.636515537815281
 20
-12.444702795841939
 40
0.655010273107121
 50
179.05166572172467
 51
346.08551833593043
  0
ARC
  8
_0-0_
  6
CONTINUOUS
 62
    7
 10
20.238177384296218
 20
-13.847648480744672
 40
0.655010273107121
 50
179.05166572172467
 51
346.08551833593043
  0
ARC
  8
_0-0_
  6
CONTINUOUS
 62
    7
 10
19.059703008977944
 20
-14.296591099913547
 40
0.655010273107121
 50
179.05166572172467
 51
346.08551833593043
  0
ARC
  8
_0-0_
  6
CONTINUOUS
 62
    7
 10
-2.0406000919590817
 20
-8.1236300863415405
 40
0.655010273107121
 50
179.05166572172467
 51
346.08551833593043
  0
ARC
  8
_0-0_
  6
CONTINUOUS
 62
    7
 10
-3.0507209850890185
 20
-8.9092796698870753
 40
0.655010273107121
 50
179.05166572172467
 51
346.08551833593043
  0
ARC
  8
_0-0_
  6
CONTINUOUS
 62
    7
 10
-4.7342558069723033
 20
-8.9653974972831829
 40
0.655010273107121
 50
179.05166572172467
 51
346.08551833593043
  0
ARC
  8
_0-0_
  6
CONTINUOUS
 62
    7
 10
-5.1831984261411641
 20
-9.9755183904131481
 40
0.655010273107121
 50
179.05166572172467
 51
346.08551833593043
  0
ARC
  8
_0-0_
  6
CONTINUOUS
 62
    7
 10
-6.0249658370828065
 20
-10.536696664374238
 40
0.655010273107121
 50
179.05166572172467
 51
346.08551833593043
  0
ARC
  8
_0-0_
  6
CONTINUOUS
 62
    7
 10
-4.2291953604073207
 20
-11.715171039692526
 40
0.655010273107121
 50
179.05166572172467
 51
346.08551833593043
  0
ARC
  8
_0-0_
  6
CONTINUOUS
 62
    7
 10
-3.2751922946734631
 20
-11.097874938335329
 40
0.655010273107121
 50
179.05166572172467
 51
346.08551833593043
  0
ARC
  8
_0-0_
  6
CONTINUOUS
 62
    7
 10
-2.9384853302968033
 20
-10.143871872601471
 40
0.655010273107121
 50
179.05166572172467
 51
346.08551833593043
  0
ARC
  8
_0-0_
  6
CONTINUOUS
 62
    7
 10
-1.0304791988291164
 20
-9.9194005630170405
 40
0.655010273107121
 50
179.05166572172467
 51
346.08551833593043
  0
ARC
  8
_0-0_
  6
CONTINUOUS
 62
    7
 10
0.1479951764891858
 20
-9.3021044616598427
 40
0.655010273107121
 50
179.05166572172467
 51
346.08551833593043
  0
ARC
  8
_0-0_
  6
CONTINUOUS
 62
    7
 10
-1.0865970262252098
 20
-11.266228420523651
 40
0.655010273107121
 50
179.05166572172467
 51
346.08551833593043
  0
ARC
  8
_0-0_
  6
CONTINUOUS
 62
    7
 10
-1.198832681017425
 20
-11.995760176673064
 40
0.655010273107121
 50
179.05166572172467
 51
346.08551833593043
  0
ARC
  8
_0-0_
  6
CONTINUOUS
 62
    7
 10
-2.1528357467512684
 20
-12.500820623238047
 40
0.655010273107121
 50
179.05166572172467
 51
346.08551833593043
  0
ARC
  8
_0-0_
  6
CONTINUOUS
 62
    7
 10
0.989762587430814
 20
-10.817285801354776
 40
0.655010273107121
 50
179.05166572172467
 51
346.08551833593043
  0
ARC
  8
_0-0_
  6
CONTINUOUS
 62
    7
 10
1.887647825768564
 20
-10.312225354789794
 40
0.655010273107121
 50
179.05166572172467
 51
346.08551833593043
  0
ARC
  8
_0-0_
  6
CONTINUOUS
 62
    7
 10
3.9078896120284945
 20
-11.266228420523651
 40
0.655010273107121
 50
179.05166572172467
 51
346.08551833593043
  0
ARC
  8
_0-0_
  6
CONTINUOUS
 62
    7
 10
2.6171795819179771
 20
-11.883524521880849
 40
0.655010273107121
 50
179.05166572172467
 51
346.08551833593043
  0
ARC
  8
_0-0_
  6
CONTINUOUS
 62
    7
 10
25.513253159530475
 20
-13.00588106980303
 40
0.5895092457964089
 50
179.05166572172467
 51
346.08551833593043
  0
ARC
  8
_0-0_
  6
CONTINUOUS
 62
    7
 10
24.278660956816079
 20
-13.90376630814078
 40
0.5895092457964089
 50
179.05166572172467
 51
346.08551833593043
  0
ARC
  8
_0-0_
  6
CONTINUOUS
 62
    7
 10
22.314536997952271
 20
-14.184355445121318
 40
0.5895092457964089
 50
179.05166572172467
 51
346.08551833593043
  0
ARC
  8
_0-0_
  6
CONTINUOUS
 62
    7
 10
21.697240896595044
 20
-15.02612285606296
 40
0.5895092457964089
 50
179.05166572172467
 51
346.08551833593043
  0
ARC
  8
_0-0_
  6
CONTINUOUS
 62
    7
 10
20.631002176068986
 20
-15.418947647835727
 40
0.5895092457964089
 50
179.05166572172467
 51
346.08551833593043
  0
ARC
  8
_0-0_
  6
CONTINUOUS
 62
    7
 10
21.585005241802858
 20
-16.260715058777357
 40
0.5895092457964089
 50
179.05166572172467
 51
346.08551833593043
  0
ARC
  8
_0-0_
  6
CONTINUOUS
 62
    7
 10
23.100186581497777
 20
-15.811772439608481
 40
0.5895092457964089
 50
179.05166572172467
 51
346.08551833593043
  0
ARC
  8
_0-0_
  6
CONTINUOUS
 62
    7
 10
25.737724469114905
 20
-14.46494458210187
 40
0.5895092457964089
 50
179.05166572172467
 51
346.08551833593043
  0
ARC
  8
_0-0_
  6
CONTINUOUS
 62
    7
 10
27.028434499225423
 20
-14.12823761772521
 40
0.5895092457964089
 50
179.05166572172467
 51
346.08551833593043
  0
ARC
  8
_0-0_
  6
CONTINUOUS
 62
    7
 10
28.375262356732033
 20
-14.913887201270745
 40
0.5895092457964089
 50
179.05166572172467
 51
346.08551833593043
  0
ARC
  8
_0-0_
  6
CONTINUOUS
 62
    7
 10
27.084552326621516
 20
-15.475065475231835
 40
0.5895092457964089
 50
179.05166572172467
 51
346.08551833593043
  0
ARC
  8
_0-0_
  6
CONTINUOUS
 62
    7
 10
26.691727534848749
 20
-16.42906854096568
 40
0.5895092457964089
 50
179.05166572172467
 51
346.08551833593043
  0
ARC
  8
_0-0_
  6
CONTINUOUS
 62
    7
 10
25.84996012390712
 20
-17.214718124511215
 40
0.5895092457964089
 50
179.05166572172467
 51
346.08551833593043
  0
ARC
  8
_0-0_
  6
CONTINUOUS
 62
    7
 10
24.615367921192725
 20
-16.653539850550125
 40
0.5895092457964089
 50
179.05166572172467
 51
346.08551833593043
  0
ARC
  8
_0-0_
  6
CONTINUOUS
 62
    7
 10
23.436893545874423
 20
-17.046364642322878
 40
0.5895092457964089
 50
179.05166572172467
 51
346.08551833593043
  0
ARC
  8
_0-0_
  6
CONTINUOUS
 62
    7
 10
24.615367921192725
 20
-17.832014225868413
 40
0.5895092457964089
 50
179.05166572172467
 51
346.08551833593043
  0
ARC
  8
_0-0_
  6
CONTINUOUS
 62
    7
 10
25.906077951303214
 20
-18.561545982017826
 40
0.5895092457964089
 50
179.05166572172467
 51
346.08551833593043
  0
ARC
  8
_0-0_
  6
CONTINUOUS
 62
    7
 10
26.972316671829301
 20
-18.000367708056736
 40
0.5895092457964089
 50
179.05166572172467
 51
346.08551833593043
  0
ARC
  8
_0-0_
  6
CONTINUOUS
 62
    7
 10
27.814084082770957
 20
-17.214718124511215
 40
0.5895092457964089
 50
179.05166572172467
 51
346.08551833593043
  0
ARC
  8
_0-0_
  6
CONTINUOUS
 62
    7
 10
28.431380184128127
 20
-16.260715058777357
 40
0.5895092457964089
 50
179.05166572172467
 51
346.08551833593043
  0
ARC
  8
_0-0_
  6
CONTINUOUS
 62
    7
 10
29.665972386842522
 20
-15.475065475231835
 40
0.5895092457964089
 50
179.05166572172467
 51
346.08551833593043
  0
ARC
  8
_0-0_
  6
CONTINUOUS
 62
    7
 10
30.788328934764731
 20
-16.372950713569573
 40
0.5895092457964089
 50
179.05166572172467
 51
346.08551833593043
  0
ARC
  8
_0-0_
  6
CONTINUOUS
 62
    7
 10
29.553736732050336
 20
-16.821893332738448
 40
0.5895092457964089
 50
179.05166572172467
 51
346.08551833593043
  0
ARC
  8
_0-0_
  6
CONTINUOUS
 62
    7
 10
29.16091194027754
 20
-17.775896398472305
 40
0.5895092457964089
 50
179.05166572172467
 51
346.08551833593043
  0
ARC
  8
_0-0_
  6
CONTINUOUS
 62
    7
 10
0.5408199682619532
 20
-13.061998897199137
 40
0.5895092457964089
 50
179.05166572172467
 51
346.08551833593043
  0
ARC
  8
_0-0_
  6
CONTINUOUS
 62
    7
 10
-0.5254187522641338
 20
-13.735412825952443
 40
0.5895092457964089
 50
179.05166572172467
 51
346.08551833593043
  0
ARC
  8
_0-0_
  6
CONTINUOUS
 62
    7
 10
1.2142338970152444
 20
-14.352708927309655
 40
0.5895092457964089
 50
179.05166572172467
 51
346.08551833593043
  0
ARC
  8
_0-0_
  6
CONTINUOUS
 62
    7
 10
2.3927082723335467
 20
-14.072119790329102
 40
0.5895092457964089
 50
179.05166572172467
 51
346.08551833593043
  0
ARC
  8
_0-0_
  6
CONTINUOUS
 62
    7
 10
3.7956539572362793
 20
-13.56705934376412
 40
0.5895092457964089
 50
179.05166572172467
 51
346.08551833593043
  0
ARC
  8
_0-0_
  6
CONTINUOUS
 62
    7
 10
4.4690678859895705
 20
-12.837527587614707
 40
0.5895092457964089
 50
179.05166572172467
 51
346.08551833593043
  0
ARC
  8
_0-0_
  6
CONTINUOUS
 62
    7
 10
5.5914244339117793
 20
-12.332467141049724
 40
0.5895092457964089
 50
179.05166572172467
 51
346.08551833593043
  0
ARC
  8
_0-0_
  6
CONTINUOUS
 62
    7
 10
2.6732974093140989
 20
-15.25059416564739
 40
0.5895092457964089
 50
179.05166572172467
 51
346.08551833593043
  0
ARC
  8
_0-0_
  6
CONTINUOUS
 62
    7
 10
3.8517717846324011
 20
-15.082240683459068
 40
0.5895092457964089
 50
179.05166572172467
 51
346.08551833593043
  0
ARC
  8
_0-0_
  6
CONTINUOUS
 62
    7
 10
6.096484880476762
 20
-13.735412825952443
 40
0.5895092457964089
 50
179.05166572172467
 51
346.08551833593043
  0
ARC
  8
_0-0_
  6
CONTINUOUS
 62
    7
 10
7.2749592557950358
 20
-13.230352379387474
 40
0.5895092457964089
 50
179.05166572172467
 51
346.08551833593043
  0
ARC
  8
_0-0_
  6
CONTINUOUS
 62
    7
 10
8.9584940776782922
 20
-14.240473272517425
 40
0.5895092457964089
 50
179.05166572172467
 51
346.08551833593043
  0
ARC
  8
_0-0_
  6
CONTINUOUS
 62
    7
 10
5.7597779161000879
 20
-15.811772439608481
 40
0.5895092457964089
 50
179.05166572172467
 51
346.08551833593043
  0
ARC
  8
_0-0_
  6
CONTINUOUS
 62
    7
 10
4.7496570229701227
 20
-16.148479403985142
 40
0.5895092457964089
 50
179.05166572172467
 51
346.08551833593043
  0
ARC
  8
_0-0_
  6
CONTINUOUS
 62
    7
 10
6.2648383626650705
 20
-17.046364642322878
 40
0.5895092457964089
 50
179.05166572172467
 51
346.08551833593043
  0
ARC
  8
_0-0_
  6
CONTINUOUS
 62
    7
 10
7.7239018749638966
 20
-17.719778571076198
 40
0.5895092457964089
 50
179.05166572172467
 51
346.08551833593043
  0
ARC
  8
_0-0_
  6
CONTINUOUS
 62
    7
 10
-10.738863338355973
 20
-13.286470206783582
 40
0.5895092457964089
 50
179.05166572172467
 51
346.08551833593043
  0
ARC
  8
_0-0_
  6
CONTINUOUS
 62
    7
 10
-11.636748576693709
 20
-13.623177171160227
 40
0.5895092457964089
 50
179.05166572172467
 51
346.08551833593043
  0
ARC
  8
_0-0_
  6
CONTINUOUS
 62
    7
 10
-13.095812088992549
 20
-13.847648480744672
 40
0.5895092457964089
 50
179.05166572172467
 51
346.08551833593043
  0
ARC
  8
_0-0_
  6
CONTINUOUS
 62
    7
 10
-11.412277267109264
 20
-14.745533719082408
 40
0.5895092457964089
 50
179.05166572172467
 51
346.08551833593043
  0
ARC
  8
_0-0_
  6
CONTINUOUS
 62
    7
 10
-13.432519053369194
 20
-14.577180236894085
 40
0.5895092457964089
 50
179.05166572172467
 51
346.08551833593043
  0
ARC
  8
_0-0_
  6
CONTINUOUS
 62
    7
 10
-14.498757773895267
 20
-15.194476338251283
 40
0.5895092457964089
 50
179.05166572172467
 51
346.08551833593043
  0
ARC
  8
_0-0_
  6
CONTINUOUS
 62
    7
 10
-12.366280332843122
 20
-16.260715058777357
 40
0.5895092457964089
 50
179.05166572172467
 51
346.08551833593043
  0
ARC
  8
_0-0_
  6
CONTINUOUS
 62
    7
 10
-11.692866404089816
 20
-15.755654612212373
 40
0.5895092457964089
 50
179.05166572172467
 51
346.08551833593043
  0
ARC
  8
_0-0_
  6
CONTINUOUS
 62
    7
 10
-10.009331582206546
 20
-15.25059416564739
 40
0.5895092457964089
 50
179.05166572172467
 51
346.08551833593043
  0
ARC
  8
_0-0_
  6
CONTINUOUS
 62
    7
 10
-9.7287424452260076
 20
-14.633298064290193
 40
0.5895092457964089
 50
179.05166572172467
 51
346.08551833593043
  0
ARC
  8
_0-0_
  6
CONTINUOUS
 62
    7
 10
-8.8308572068882576
 20
-14.240473272517425
 40
0.5895092457964089
 50
179.05166572172467
 51
346.08551833593043
  0
ARC
  8
_0-0_
  6
CONTINUOUS
 62
    7
 10
-9.784860272622101
 20
-16.372950713569573
 40
0.5895092457964089
 50
179.05166572172467
 51
346.08551833593043
  0
ARC
  8
_0-0_
  6
CONTINUOUS
 62
    7
 10
-10.738863338355973
 20
-17.046364642322878
 40
0.5895092457964089
 50
179.05166572172467
 51
346.08551833593043
  0
ARC
  8
_0-0_
  6
CONTINUOUS
 62
    7
 10
-7.9329719685505076
 20
-15.418947647835727
 40
0.5895092457964089
 50
179.05166572172467
 51
346.08551833593043
  0
ARC
  8
_0-0_
  6
CONTINUOUS
 62
    7
 10
-6.9228510754205423
 20
-14.970005028666852
 40
0.5895092457964089
 50
179.05166572172467
 51
346.08551833593043
  0
ARC
  8
_0-0_
  6
CONTINUOUS
 62
    7
 10
-7.9890897959466294
 20
-17.32695377930343
 40
0.5895092457964089
 50
179.05166572172467
 51
346.08551833593043
  0
ARC
  8
_0-0_
  6
CONTINUOUS
 62
    7
 10
-8.8308572068882576
 20
-17.944249880660628
 40
0.5895092457964089
 50
179.05166572172467
 51
346.08551833593043
  0
ARC
  8
_0-0_
  6
CONTINUOUS
 62
    7
 10
10.585911072165484
 20
-15.138358510855175
 40
0.5895092457964089
 50
179.05166572172467
 51
346.08551833593043
  0
ARC
  8
_0-0_
  6
CONTINUOUS
 62
    7
 10
8.7901405954899836
 20
-17.32695377930343
 40
0.5895092457964089
 50
179.05166572172467
 51
346.08551833593043
  0
ARC
  8
_0-0_
  6
CONTINUOUS
 62
    7
 10
10.361439762581025
 20
-18.056485535452843
 40
0.5895092457964089
 50
179.05166572172467
 51
346.08551833593043
  0
ARC
  8
_0-0_
  6
CONTINUOUS
 62
    7
 10
9.4074366968471814
 20
-18.617663809413934
 40
0.5895092457964089
 50
179.05166572172467
 51
346.08551833593043
  0
ARC
  8
_0-0_
  6
CONTINUOUS
 62
    7
 10
12.213328066652618
 20
-15.867890267004588
 40
0.5895092457964089
 50
179.05166572172467
 51
346.08551833593043
  0
ARC
  8
_0-0_
  6
CONTINUOUS
 62
    7
 10
13.560155924159258
 20
-16.878011160134555
 40
0.5240082184856966
 50
179.05166572172467
 51
346.08551833593043
  0
ARC
  8
_0-0_
  6
CONTINUOUS
 62
    7
 10
12.718388513217601
 20
-17.439189434095645
 40
0.5240082184856966
 50
179.05166572172467
 51
346.08551833593043
  0
ARC
  8
_0-0_
  6
CONTINUOUS
 62
    7
 10
12.830624168009845
 20
-18.673781636810041
 40
0.5240082184856966
 50
179.05166572172467
 51
346.08551833593043
  0
ARC
  8
_0-0_
  6
CONTINUOUS
 62
    7
 10
11.652149792691542
 20
-19.010488601186701
 40
0.5240082184856966
 50
179.05166572172467
 51
346.08551833593043
  0
ARC
  8
_0-0_
  6
CONTINUOUS
 62
    7
 10
11.034853691334344
 20
-19.796138184732222
 40
0.5240082184856966
 50
179.05166572172467
 51
346.08551833593043
  0
ARC
  8
_0-0_
  6
CONTINUOUS
 62
    7
 10
12.101092411860431
 20
-20.413434286089434
 40
0.5240082184856966
 50
179.05166572172467
 51
346.08551833593043
  0
ARC
  8
_0-0_
  6
CONTINUOUS
 62
    7
 10
13.447920269367014
 20
-19.796138184732222
 40
0.5240082184856966
 50
179.05166572172467
 51
346.08551833593043
  0
ARC
  8
_0-0_
  6
CONTINUOUS
 62
    7
 10
14.345805507704792
 20
-18.056485535452843
 40
0.5240082184856966
 50
179.05166572172467
 51
346.08551833593043
  0
ARC
  8
_0-0_
  6
CONTINUOUS
 62
    7
 10
15.243690746042514
 20
-17.607542916283968
 40
0.5240082184856966
 50
179.05166572172467
 51
346.08551833593043
  0
ARC
  8
_0-0_
  6
CONTINUOUS
 62
    7
 10
16.47828294875691
 20
-18.280956845037288
 40
0.5240082184856966
 50
179.05166572172467
 51
346.08551833593043
  0
ARC
  8
_0-0_
  6
CONTINUOUS
 62
    7
 10
15.580397710419188
 20
-18.786017291602271
 40
0.5240082184856966
 50
179.05166572172467
 51
346.08551833593043
  0
ARC
  8
_0-0_
  6
CONTINUOUS
 62
    7
 10
18.161817770640166
 20
-18.954370773790593
 40
0.5240082184856966
 50
179.05166572172467
 51
346.08551833593043
  0
ARC
  8
_0-0_
  6
CONTINUOUS
 62
    7
 10
16.983343395321892
 20
-19.459431220355576
 40
0.5240082184856966
 50
179.05166572172467
 51
346.08551833593043
  0
ARC
  8
_0-0_
  6
CONTINUOUS
 62
    7
 10
16.70275425834134
 20
-20.413434286089434
 40
0.5240082184856966
 50
179.05166572172467
 51
346.08551833593043
  0
ARC
  8
_0-0_
  6
CONTINUOUS
 62
    7
 10
16.309929466568601
 20
-21.311319524427169
 40
0.5240082184856966
 50
179.05166572172467
 51
346.08551833593043
  0
ARC
  8
_0-0_
  6
CONTINUOUS
 62
    7
 10
14.850865954269775
 20
-20.581787768277756
 40
0.5240082184856966
 50
179.05166572172467
 51
346.08551833593043
  0
ARC
  8
_0-0_
  6
CONTINUOUS
 62
    7
 10
13.896862888535903
 20
-21.086848214842739
 40
0.5240082184856966
 50
179.05166572172467
 51
346.08551833593043
  0
ARC
  8
_0-0_
  6
CONTINUOUS
 62
    7
 10
15.131455091250299
 20
-21.816379970992152
 40
0.5240082184856966
 50
179.05166572172467
 51
346.08551833593043
  0
ARC
  8
_0-0_
  6
CONTINUOUS
 62
    7
 10
16.422165121360788
 20
-22.545911727141565
 40
0.5240082184856966
 50
179.05166572172467
 51
346.08551833593043
  0
ARC
  8
_0-0_
  6
CONTINUOUS
 62
    7
 10
17.768992978867427
 20
-21.984733453180475
 40
0.5240082184856966
 50
179.05166572172467
 51
346.08551833593043
  0
ARC
  8
_0-0_
  6
CONTINUOUS
 62
    7
 10
17.937346461055736
 20
-21.199083869634954
 40
0.5240082184856966
 50
179.05166572172467
 51
346.08551833593043
  0
ARC
  8
_0-0_
  6
CONTINUOUS
 62
    7
 10
18.49852473501684
 20
-20.581787768277756
 40
0.5240082184856966
 50
179.05166572172467
 51
346.08551833593043
  0
ARC
  8
_0-0_
  6
CONTINUOUS
 62
    7
 10
19.564763455542927
 20
-19.796138184732222
 40
0.5240082184856966
 50
179.05166572172467
 51
346.08551833593043
  0
ARC
  8
_0-0_
  6
CONTINUOUS
 62
    7
 10
20.51876652127677
 20
-20.525669940881649
 40
0.5240082184856966
 50
179.05166572172467
 51
346.08551833593043
  0
ARC
  8
_0-0_
  6
CONTINUOUS
 62
    7
 10
19.789234765127357
 20
-21.086848214842739
 40
0.5240082184856966
 50
179.05166572172467
 51
346.08551833593043
  0
ARC
  8
_0-0_
  6
CONTINUOUS
 62
    7
 10
19.564763455542927
 20
-21.704144316199937
 40
0.5240082184856966
 50
179.05166572172467
 51
346.08551833593043
  0
ARC
  8
_0-0_
  6
CONTINUOUS
 62
    7
 10
-5.2393162535372859
 20
-15.924008094400696
 40
0.5240082184856966
 50
179.05166572172467
 51
346.08551833593043
  0
ARC
  8
_0-0_
  6
CONTINUOUS
 62
    7
 10
-6.1933193192711293
 20
-16.316832886173465
 40
0.5240082184856966
 50
179.05166572172467
 51
346.08551833593043
  0
ARC
  8
_0-0_
  6
CONTINUOUS
 62
    7
 10
-3.3313101220695707
 20
-16.709657677946232
 40
0.5240082184856966
 50
179.05166572172467
 51
346.08551833593043
  0
ARC
  8
_0-0_
  6
CONTINUOUS
 62
    7
 10
-4.3975488425956435
 20
-17.270835951907323
 40
0.5240082184856966
 50
179.05166572172467
 51
346.08551833593043
  0
ARC
  8
_0-0_
  6
CONTINUOUS
 62
    7
 10
-5.0148449439528413
 20
-18.056485535452843
 40
0.5240082184856966
 50
179.05166572172467
 51
346.08551833593043
  0
ARC
  8
_0-0_
  6
CONTINUOUS
 62
    7
 10
-6.5300262836477891
 20
-18.449310327225611
 40
0.5240082184856966
 50
179.05166572172467
 51
346.08551833593043
  0
ARC
  8
_0-0_
  6
CONTINUOUS
 62
    7
 10
-7.596265004173862
 20
-18.842135118998378
 40
0.5240082184856966
 50
179.05166572172467
 51
346.08551833593043
  0
ARC
  8
_0-0_
  6
CONTINUOUS
 62
    7
 10
-6.2494371466672369
 20
-19.740020357336114
 40
0.5240082184856966
 50
179.05166572172467
 51
346.08551833593043
  0
ARC
  8
_0-0_
  6
CONTINUOUS
 62
    7
 10
-5.1831984261411641
 20
-19.347195565563347
 40
0.5240082184856966
 50
179.05166572172467
 51
346.08551833593043
  0
ARC
  8
_0-0_
  6
CONTINUOUS
 62
    7
 10
-4.0608418782189837
 20
-18.898252946394486
 40
0.5240082184856966
 50
179.05166572172467
 51
346.08551833593043
  0
ARC
  8
_0-0_
  6
CONTINUOUS
 62
    7
 10
-2.7140140207123729
 20
-18.000367708056736
 40
0.5240082184856966
 50
179.05166572172467
 51
346.08551833593043
  0
ARC
  8
_0-0_
  6
CONTINUOUS
 62
    7
 10
-1.7600109549785294
 20
-17.66366074368009
 40
0.5240082184856966
 50
179.05166572172467
 51
346.08551833593043
  0
ARC
  8
_0-0_
  6
CONTINUOUS
 62
    7
 10
-3.0507209850890185
 20
-19.627784702543899
 40
0.5240082184856966
 50
179.05166572172467
 51
346.08551833593043
  0
ARC
  8
_0-0_
  6
CONTINUOUS
 62
    7
 10
-3.7241349138423381
 20
-20.245080803901097
 40
0.5240082184856966
 50
179.05166572172467
 51
346.08551833593043
  0
ARC
  8
_0-0_
  6
CONTINUOUS
 62
    7
 10
-0.3009474426796749
 20
-18.673781636810041
 40
0.5240082184856966
 50
179.05166572172467
 51
346.08551833593043
  0
ARC
  8
_0-0_
  6
CONTINUOUS
 62
    7
 10
1.6631765161841336
 20
-19.122724255978916
 40
0.5240082184856966
 50
179.05166572172467
 51
346.08551833593043
  0
ARC
  8
_0-0_
  6
CONTINUOUS
 62
    7
 10
3.1222400284829597
 20
-19.908373839524451
 40
0.5240082184856966
 50
179.05166572172467
 51
346.08551833593043
  0
ARC
  8
_0-0_
  6
CONTINUOUS
 62
    7
 10
0.3724664860736162
 20
-21.199083869634954
 40
0.5240082184856966
 50
179.05166572172467
 51
346.08551833593043
  0
ARC
  8
_0-0_
  6
CONTINUOUS
 62
    7
 10
-0.2448296152835816
 20
-21.760262143596044
 40
0.5240082184856966
 50
179.05166572172467
 51
346.08551833593043
  0
ARC
  8
_0-0_
  6
CONTINUOUS
 62
    7
 10
-1.9844822645629598
 20
-20.97461256005051
 40
0.5240082184856966
 50
179.05166572172467
 51
346.08551833593043
  0
ARC
  8
_0-0_
  6
CONTINUOUS
 62
    7
 10
0.9336447600347206
 20
-22.545911727141565
 40
0.5240082184856966
 50
179.05166572172467
 51
346.08551833593043
  0
ARC
  8
_0-0_
  6
CONTINUOUS
 62
    7
 10
2.1682369627491163
 20
-21.928615625784367
 40
0.5240082184856966
 50
179.05166572172467
 51
346.08551833593043
  0
ARC
  8
_0-0_
  6
CONTINUOUS
 62
    7
 10
3.5150648202557271
 20
-21.255201697031062
 40
0.5240082184856966
 50
179.05166572172467
 51
346.08551833593043
  0
ARC
  8
_0-0_
  6
CONTINUOUS
 62
    7
 10
4.4690678859895705
 20
-20.918494732654416
 40
0.5240082184856966
 50
179.05166572172467
 51
346.08551833593043
  0
ARC
  8
_0-0_
  6
CONTINUOUS
 62
    7
 10
5.8158957434962097
 20
-21.479673006615492
 40
0.5240082184856966
 50
179.05166572172467
 51
346.08551833593043
  0
ARC
  8
_0-0_
  6
CONTINUOUS
 62
    7
 10
4.2445965764051401
 20
-22.153086935368812
 40
0.5240082184856966
 50
179.05166572172467
 51
346.08551833593043
  0
ARC
  8
_0-0_
  6
CONTINUOUS
 62
    7
 10
3.9640074394245879
 20
-22.882618691518225
 40
0.5240082184856966
 50
179.05166572172467
 51
346.08551833593043
  0
ARC
  8
_0-0_
  6
CONTINUOUS
 62
    7
 10
2.9538865462946227
 20
-23.275443483290992
 40
0.5240082184856966
 50
179.05166572172467
 51
346.08551833593043
  0
ARC
  8
_0-0_
  6
CONTINUOUS
 62
    7
 10
5.0863639873467967
 20
-24.11721089423262
 40
0.5240082184856966
 50
179.05166572172467
 51
346.08551833593043
  0
ARC
  8
_0-0_
  6
CONTINUOUS
 62
    7
 10
6.1526027078728553
 20
-23.668268275063745
 40
0.5240082184856966
 50
179.05166572172467
 51
346.08551833593043
  0
ARC
  8
_0-0_
  6
CONTINUOUS
 62
    7
 10
5.0302461599506749
 20
-23.275443483290992
 40
0.5240082184856966
 50
179.05166572172467
 51
346.08551833593043
  0
ARC
  8
_0-0_
  6
CONTINUOUS
 62
    7
 10
6.5454274996456228
 20
-22.545911727141565
 40
0.5240082184856966
 50
179.05166572172467
 51
346.08551833593043
  0
ARC
  8
_0-0_
  6
CONTINUOUS
 62
    7
 10
7.6677840475678032
 20
-22.265322590161027
 40
0.5240082184856966
 50
179.05166572172467
 51
346.08551833593043
  0
ARC
  8
_0-0_
  6
CONTINUOUS
 62
    7
 10
9.182965387262751
 20
-22.882618691518225
 40
0.5240082184856966
 50
179.05166572172467
 51
346.08551833593043
  0
ARC
  8
_0-0_
  6
CONTINUOUS
 62
    7
 10
8.6217871133016466
 20
-23.21932565589487
 40
0.5240082184856966
 50
179.05166572172467
 51
346.08551833593043
  0
ARC
  8
_0-0_
  6
CONTINUOUS
 62
    7
 10
8.0606088393405706
 20
-23.948857412044298
 40
0.5240082184856966
 50
179.05166572172467
 51
346.08551833593043
  0
ARC
  8
_0-0_
  6
CONTINUOUS
 62
    7
 10
7.6116662201716814
 20
-24.341682203817051
 40
0.5240082184856966
 50
179.05166572172467
 51
346.08551833593043
  0
ARC
  8
_0-0_
  6
CONTINUOUS
 62
    7
 10
6.7698988092300532
 20
-24.902860477778155
 40
0.5240082184856966
 50
179.05166572172467
 51
346.08551833593043
  0
ARC
  8
_0-0_
  6
CONTINUOUS
 62
    7
 10
8.0606088393405706
 20
-25.351803096947016
 40
0.5240082184856966
 50
179.05166572172467
 51
346.08551833593043
  0
ARC
  8
_0-0_
  6
CONTINUOUS
 62
    7
 10
9.0707297324705358
 20
-24.958978305174249
 40
0.5240082184856966
 50
179.05166572172467
 51
346.08551833593043
  0
ARC
  8
_0-0_
  6
CONTINUOUS
 62
    7
 10
9.3513188694510596
 20
-24.510035686005388
 40
0.5240082184856966
 50
179.05166572172467
 51
346.08551833593043
  0
ARC
  8
_0-0_
  6
CONTINUOUS
 62
    7
 10
9.744143661223827
 20
-23.948857412044298
 40
0.5240082184856966
 50
179.05166572172467
 51
346.08551833593043
  0
ARC
  8
_0-0_
  6
CONTINUOUS
 62
    7
 10
10.417557589977147
 20
-23.387679138083207
 40
0.5240082184856966
 50
179.05166572172467
 51
346.08551833593043
  0
ARC
  8
_0-0_
  6
CONTINUOUS
 62
    7
 10
11.203207173522653
 20
-24.004975239440405
 40
0.5240082184856966
 50
179.05166572172467
 51
346.08551833593043
  0
ARC
  8
_0-0_
  6
CONTINUOUS
 62
    7
 10
10.810382381749914
 20
-24.397800031213173
 40
0.5240082184856966
 50
179.05166572172467
 51
346.08551833593043
  0
ENDBLK
  0
ENDSEC
  0
SECTION
  2
ENTITIES
  0
INSERT
  2
-000-1
  8
_0-0_
 10
131.15816326530611
 20
110.21938775510202
 41
1
 42
1
 50
0
  0
ENDSEC
  0
EOF
