  0
SECTION
  2
HEADER
  9
$ACADVER
  1
AC1009
  9
$INSBASE
 10
0
 20
0
 30
0
  9
$EXTMIN
 10
0
 20
0
  9
$EXTMAX
 10
297
 20
210
  9
$LIMMIN
 10
0
 20
0
  9
$LIMMAX
 10
297
 20
210
  9
$LTSCALE
 40
1
  0
ENDSEC
  0
SECTION
  2
TABLES
  0
TABLE
  2
LTYPE
 70
     9
  0
LTYPE
  2
CONTINUOUS
 70
    64
  3
実線
 72
    65
 73
     0
 40
0.0
  0
LTYPE
  2
DASHED1
 70
    64
  3
--  --  --  --  --  --  --  --  
 72
    65
 73
     2
 40
2.5
 49
1.25
 49
-1.25
  0
LTYPE
  2
DASHED2
 70
    64
  3
----    ----    ----    ----    
 72
    65
 73
     2
 40
5.0
 49
2.5
 49
-2.5
  0
LTYPE
  2
DASHED3
 70
    64
  3
------  ------  ------  ------  
 72
    65
 73
     2
 40
5.0
 49
3.75
 49
-1.25
  0
LTYPE
  2
CENTER1
 70
    64
  3
----- - ----- - ----- - ----- - 
 72
    65
 73
     4
 40
10.0
 49
6.25
 49
-1.25
 49
1.25
 49
-1.25
  0
LTYPE
  2
CENTER2
 70
    64
  3
----------  --  ----------  --  
 72
    65
 73
     4
 40
20.0
 49
12.5
 49
-2.5
 49
2.5
 49
-2.5
  0
LTYPE
  2
PHANTOM1
 70
    64
  3
--- - - --- - - --- - - --- - - 
 72
    65
 73
     6
 40
10.0
 49
3.25
 49
-1.25
 49
1.25
 49
-1.25
 49
1.25
 49
-1.25
  0
LTYPE
  2
PHANTOM2
 70
    64
  3
--------  -  -  --------  -  -  
 72
    65
 73
     6
 40
20.0
 49
10.0
 49
-2.5
 49
1.25
 49
-2.5
 49
1.25
 49
-2.5
  0
LTYPE
  2
DOT
 70
    64
  3
-   -   -   -   -   -   -   -   
 72
    65
 73
     2
 40
2.5
 49
0.625
 49
-1.875
  0
LTYPE
  2
DUMMY
 70
    64
  3
ダミー
 72
    65
 73
     0
 40
0.0
  0
LTYPE
  2
RAND1
 70
    64
  3
ランダム線1
 72
    65
 73
     4
 40
10.0
 49
1.0
 49
-2.0
 49
3.0
 49
-4.0
  0
LTYPE
  2
RAND2
 70
    64
  3
ランダム線2
 72
    65
 73
     4
 40
14.0
 49
2.0
 49
-3.0
 49
4.0
 49
-5.0
  0
LTYPE
  2
RAND3
 70
    64
  3
ランダム線3
 72
    65
 73
     4
 40
18.0
 49
3.0
 49
-4.0
 49
5.0
 49
-6.0
  0
LTYPE
  2
RAND4
 70
    64
  3
ランダム線4
 72
    65
 73
     4
 40
22.0
 49
4.0
 49
-5.0
 49
6.0
 49
-7.0
  0
LTYPE
  2
RAND5
 70
    64
  3
ランダム線5
 72
    65
 73
     4
 40
26.0
 49
5.0
 49
-6.0
 49
7.0
 49
-8.0
  0
LTYPE
  2
LONG1
 70
    64
  3
----------  --  ----------  --  
 72
    65
 73
     4
 40
40.0
 49
32.5
 49
-2.5
 49
2.5
 49
-2.5
  0
LTYPE
  2
LONG2
 70
    64
  3
--------  -  -  --------  -  -  
 72
    65
 73
     6
 40
40.0
 49
30.0
 49
-2.5
 49
1.25
 49
-2.5
 49
1.25
 49
-2.5
  0
LTYPE
  2
LONG3
 70
    64
  3
+++++++++++++++..+++++++++++++++
 72
    65
 73
     2
 40
40.0
 49
37.5
 49
-2.5
  0
LTYPE
  2
LONG4
 70
    64
  3
+++++++++++++++..+++++++++++++++
 72
    65
 73
     2
 40
80.0
 49
75.0
 49
-5.0
  0
LTYPE
  2
LONG5
 70
    64
  3
----------  --  ----------  --  
 72
    65
 73
     4
 40
60.0
 49
37.5
 49
-7.5
 49
7.5
 49
-7.5
  0
LTYPE
  2
dashed
 70
   64
  3
-------   -------------   ------
 72
   65
 73
    2
 40
7.5
 49
6
 49
-1.5
  0
LTYPE
  2
dashed_spaced
 70
   64
  3
----        --------        ----
 72
   65
 73
    2
 40
12
 49
6
 49
-6
  0
LTYPE
  2
long_dashed_dotted
 70
   64
  3
------------- --- --------------
 72
   65
 73
    4
 40
15.25
 49
12
 49
-1.5
 49
0.25
 49
-1.5
  0
LTYPE
  2
long_dashed_double-dotted
 70
   64
  3
----------- --- --- ------------
 72
   65
 73
    6
 40
17
 49
12
 49
-1.5
 49
0.25
 49
-1.5
 49
0.25
 49
-1.5
  0
LTYPE
  2
long_dashed_triplicate-dotted
 70
   64
  3
--------- --- --- --- ----------
 72
   65
 73
    8
 40
18.75
 49
12
 49
-1.5
 49
0.25
 49
-1.5
 49
0.25
 49
-1.5
 49
0.25
 49
-1.5
  0
LTYPE
  2
dotted
 70
   64
  3
   -       -       -       -    
 72
   65
 73
    2
 40
1.75
 49
0.25
 49
-1.5
  0
LTYPE
  2
chain
 70
   64
  3
-------------- -- --------------
 72
   65
 73
    4
 40
18.5
 49
12
 49
-1.5
 49
3.5
 49
-1.5
  0
LTYPE
  2
chain_double_dash
 70
   64
  3
------------ -- -- -------------
 72
   65
 73
    6
 40
23.5
 49
12
 49
-1.5
 49
3.5
 49
-1.5
 49
3.5
 49
-1.5
  0
LTYPE
  2
dashed_dotted
 70
   64
  3
-----------     -     ----------
 72
   65
 73
    4
 40
9.25
 49
6
 49
-1.5
 49
0.25
 49
-1.5
  0
LTYPE
  2
double-dashed_dotted
 70
   64
  3
------   -----------   -   -----
 72
   65
 73
    6
 40
16.75
 49
6
 49
-1.5
 49
6
 49
-1.5
 49
0.25
 49
-1.5
  0
LTYPE
  2
dashed_double-dotted
 70
   64
  3
---------    -    -    ---------
 72
   65
 73
    6
 40
11
 49
6
 49
-1.5
 49
0.25
 49
-1.5
 49
0.25
 49
-1.5
  0
LTYPE
  2
double-dashed_double-dotted
 70
   64
  3
-----   ---------   -   -   ----
 72
   65
 73
    8
 40
18.5
 49
6
 49
-1.5
 49
6
 49
-1.5
 49
0.25
 49
-1.5
 49
0.25
 49
-1.5
  0
LTYPE
  2
dashed_triplicate-dotted
 70
   64
  3
-------    -    -    -    ------
 72
   65
 73
    8
 40
12.75
 49
6
 49
-1.5
 49
0.25
 49
-1.5
 49
0.25
 49
-1.5
 49
0.25
 49
-1.5
  0
LTYPE
  2
double-dashed_triplicate-dotted
 70
   64
  3
-----  ---------  -  -  -  -----
 72
   65
 73
   10
 40
20.25
 49
6
 49
-1.5
 49
6
 49
-1.5
 49
0.25
 49
-1.5
 49
0.25
 49
-1.5
 49
0.25
 49
-1.5
  0
LTYPE
  2
undefined
 70
   64
  3
--------------------------------
 72
   65
 73
    0
 40
0
  0
LTYPE
  2
_
 70
   64
  3
                                
 72
   65
 73
    0
 40
0
  0
LTYPE
  2
__18
 70
   64
  3
                                
 72
   65
 73
    0
 40
0
  0
LTYPE
  2
__19
 70
   64
  3
                                
 72
   65
 73
    0
 40
0
  0
LTYPE
  2
__20
 70
   64
  3
                                
 72
   65
 73
    0
 40
0
  0
LTYPE
  2
__21
 70
   64
  3
                                
 72
   65
 73
    0
 40
0
  0
LTYPE
  2
__22
 70
   64
  3
                                
 72
   65
 73
    0
 40
0
  0
LTYPE
  2
__23
 70
   64
  3
                                
 72
   65
 73
    0
 40
0
  0
LTYPE
  2
__24
 70
   64
  3
                                
 72
   65
 73
    0
 40
0
  0
LTYPE
  2
__25
 70
   64
  3
                                
 72
   65
 73
    0
 40
0
  0
LTYPE
  2
__26
 70
   64
  3
                                
 72
   65
 73
    0
 40
0
  0
LTYPE
  2
__27
 70
   64
  3
                                
 72
   65
 73
    0
 40
0
  0
LTYPE
  2
__28
 70
   64
  3
                                
 72
   65
 73
    0
 40
0
  0
LTYPE
  2
__29
 70
   64
  3
                                
 72
   65
 73
    0
 40
0
  0
LTYPE
  2
__30
 70
   64
  3
                                
 72
   65
 73
    0
 40
0
  0
LTYPE
  2
__31
 70
   64
  3
                                
 72
   65
 73
    0
 40
0
  0
LTYPE
  2
__32
 70
   64
  3
                                
 72
   65
 73
    0
 40
0
  0
ENDTAB
  0
TABLE
  2
STYLE
  5
3
100
AcDbSymbolTable
 70
     1
  0
STYLE
  5
10
100
AcDbSymbolTableRecord
100
AcDbTextStyleTableRecord
  2
STANDARD
 70
     0
 40
0.0
 41
1.0
 50
0.0
 71
     0
 42
0.2
  3
txt
  4
bigfont.shx
  0
STYLE
  5
26
100
AcDbSymbolTableRecord
100
AcDbTextStyleTableRecord
  2
TATEGAKI
 70
    68
 40
0.0
 41
1.0
 50
0.0
 71
     0
 42
1.0
  3
txt
  4
bigfont.shx
  0
ENDTAB
  0
TABLE
  2
LAYER
 70
    2
  0
LAYER
  2
_0-0_
 70
   64
 62
    7
  6
CONTINUOUS
  0
LAYER
  2
ADD_LINE
 70
   64
 62
    7
  6
CONTINUOUS
  0
ENDTAB
  0
ENDSEC
  0
SECTION
  2
BLOCKS
  0
BLOCK
  2
-000-1
 70
   64
 10
0
 20
0
 30
0
  0
LINE
  8
_0-0_
  6
CONTINUOUS
 62
    7
 10
-53.530764499836835
 20
-3.8005106892690383
 11
-9.9811739629851548
 21
23.786353992909561
  0
LINE
  8
_0-0_
  6
CONTINUOUS
 62
    7
 10
-9.9811739629851548
 20
23.786353992909561
 11
-9.8993138303971069
 21
19.284046700565874
  0
LINE
  8
_0-0_
  6
CONTINUOUS
 62
    7
 10
-9.8993138303971069
 20
19.284046700565874
 11
25.300543182471742
 21
-7.9753774512604627
  0
LINE
  8
_0-0_
  6
CONTINUOUS
 62
    7
 10
24.481941856591092
 20
-3.9642309544451768
 11
25.300543182471742
 21
-7.9753774512604627
  0
LINE
  8
_0-0_
  6
CONTINUOUS
 62
    7
 10
-9.8993138303971069
 20
19.284046700565874
 11
-54.267505693129436
 21
-7.1567761253797846
  0
LINE
  8
_0-0_
  6
CONTINUOUS
 62
    7
 10
-54.267505693129436
 20
-7.1567761253797846
 11
-53.530764499836835
 21
-3.8005106892690383
  0
LINE
  8
_0-0_
  6
CONTINUOUS
 62
    7
 10
-54.267505693129436
 20
-7.1567761253797846
 11
-47.227534290555667
 21
-19.190215615825643
  0
LINE
  8
_0-0_
  6
CONTINUOUS
 62
    7
 10
-47.227534290555667
 20
-19.190215615825643
 11
-15.30208258120952
 21
-29.750172719686297
  0
LINE
  8
_0-0_
  6
CONTINUOUS
 62
    7
 10
-15.30208258120952
 20
-29.750172719686297
 11
19.488473768719004
 21
-20.17253720688246
  0
LINE
  8
_0-0_
  6
CONTINUOUS
 62
    7
 10
19.488473768719004
 20
-20.17253720688246
 11
25.300543182471742
 21
-7.9753774512604627
  0
LINE
  8
_0-0_
  6
CONTINUOUS
 62
    7
 10
19.488473768719004
 20
-20.17253720688246
 11
-9.8174536978090305
 21
-2.4088884352718969
  0
LINE
  8
_0-0_
  6
CONTINUOUS
 62
    7
 10
-9.8174536978090305
 20
-2.4088884352718969
 11
-47.227534290555667
 21
-19.190215615825643
  0
LINE
  8
_0-0_
  6
CONTINUOUS
 62
    7
 10
-9.8174536978090305
 20
-2.4088884352718969
 11
-9.8993138303971069
 21
19.284046700565874
  0
LINE
  8
_0-0_
  6
CONTINUOUS
 62
    7
 10
2.2522670822877853
 20
16.146372621351809
 11
2.278684049464216
 21
16.159099632862386
  0
LINE
  8
_0-0_
  6
CONTINUOUS
 62
    7
 10
2.278684049464216
 20
16.159099632862386
 11
2.3289931703285855
 21
16.160261096084845
  0
LINE
  8
_0-0_
  6
CONTINUOUS
 62
    7
 10
2.3289931703285855
 20
16.160261096084845
 11
2.3838902306852514
 21
16.139671477728648
  0
LINE
  8
_0-0_
  6
CONTINUOUS
 62
    7
 10
2.3838902306852514
 20
16.139671477728648
 11
2.4416999971906375
 21
16.102627076917379
  0
LINE
  8
_0-0_
  6
CONTINUOUS
 62
    7
 10
2.4416999971906375
 20
16.102627076917379
 11
2.5007472365010539
 21
16.054424192774611
  0
LINE
  8
_0-0_
  6
CONTINUOUS
 62
    7
 10
2.5007472365010539
 20
16.054424192774611
 11
2.5593567152729246
 21
16.000359124423902
  0
LINE
  8
_0-0_
  6
CONTINUOUS
 62
    7
 10
2.5593567152729246
 20
16.000359124423902
 11
2.592489502032306
 21
15.968402349238637
  0
LINE
  8
_0-0_
  6
CONTINUOUS
 62
    7
 10
2.592489502032306
 20
15.968402349238637
 11
2.6618685565690452
 21
15.900625390574284
  0
LINE
  8
_0-0_
  6
CONTINUOUS
 62
    7
 10
2.6618685565690452
 20
15.900625390574284
 11
2.7708235217256298
 21
15.791521710196939
  0
LINE
  8
_0-0_
  6
CONTINUOUS
 62
    7
 10
2.7708235217256298
 20
15.791521710196939
 11
2.8679650881904433
 21
15.689486351979035
  0
LINE
  8
_0-0_
  6
CONTINUOUS
 62
    7
 10
2.8679650881904433
 20
15.689486351979035
 11
2.9552530873191767
 21
15.591326542296692
  0
LINE
  8
_0-0_
  6
CONTINUOUS
 62
    7
 10
2.9552530873191767
 20
15.591326542296692
 11
3.0346473504674645
 21
15.493849507526015
  0
LINE
  8
_0-0_
  6
CONTINUOUS
 62
    7
 10
3.0346473504674645
 20
15.493849507526015
 11
3.1081077089909694
 21
15.393862474043111
  0
LINE
  8
_0-0_
  6
CONTINUOUS
 62
    7
 10
3.1081077089909694
 20
15.393862474043111
 11
3.1487680773008559
 21
15.333461794381058
  0
LINE
  8
_0-0_
  6
CONTINUOUS
 62
    7
 10
3.1487680773008559
 20
15.333461794381058
 11
3.1975710180359851
 21
15.255559614630208
  0
LINE
  8
_0-0_
  6
CONTINUOUS
 62
    7
 10
3.1975710180359851
 20
15.255559614630208
 11
3.2780898091253743
 21
15.113260431935835
  0
LINE
  8
_0-0_
  6
CONTINUOUS
 62
    7
 10
3.2780898091253743
 20
15.113260431935835
 11
3.3537094265525536
 21
14.962540623609989
  0
LINE
  8
_0-0_
  6
CONTINUOUS
 62
    7
 10
3.3537094265525536
 20
14.962540623609989
 11
3.424067584454674
 21
14.80536189914168
  0
LINE
  8
_0-0_
  6
CONTINUOUS
 62
    7
 10
3.424067584454674
 20
14.80536189914168
 11
3.4888019969690571
 21
14.643685968019831
  0
LINE
  8
_0-0_
  6
CONTINUOUS
 62
    7
 10
3.4888019969690571
 20
14.643685968019831
 11
3.5475503782328257
 21
14.479474539733481
  0
LINE
  8
_0-0_
  6
CONTINUOUS
 62
    7
 10
3.5475503782328257
 20
14.479474539733481
 11
3.5787388803780527
 21
14.383843162074179
  0
LINE
  8
_0-0_
  6
CONTINUOUS
 62
    7
 10
3.5787388803780527
 20
14.383843162074179
 11
3.5960035228685978
 21
14.32774062706202
  0
LINE
  8
_0-0_
  6
CONTINUOUS
 62
    7
 10
3.5960035228685978
 20
14.32774062706202
 11
3.6235391735839197
 21
14.231036896213617
  0
LINE
  8
_0-0_
  6
CONTINUOUS
 62
    7
 10
3.6235391735839197
 20
14.231036896213617
 11
3.6475779317007504
 21
14.134169779533984
  0
LINE
  8
_0-0_
  6
CONTINUOUS
 62
    7
 10
3.6475779317007504
 20
14.134169779533984
 11
3.6673373849664426
 21
14.036912823387688
  0
LINE
  8
_0-0_
  6
CONTINUOUS
 62
    7
 10
3.6673373849664426
 20
14.036912823387688
 11
3.6820351211285196
 21
13.939039574139265
  0
LINE
  8
_0-0_
  6
CONTINUOUS
 62
    7
 10
3.6820351211285196
 20
13.939039574139265
 11
3.6908887279343912
 21
13.840323578153324
  0
LINE
  8
_0-0_
  6
CONTINUOUS
 62
    7
 10
3.6908887279343912
 20
13.840323578153324
 11
3.6930377286978864
 21
13.78259291941837
  0
LINE
  8
_0-0_
  6
CONTINUOUS
 62
    7
 10
3.6930377286978864
 20
13.78259291941837
 11
3.6931350785511778
 21
13.744704543070803
  0
LINE
  8
_0-0_
  6
CONTINUOUS
 62
    7
 10
3.6931350785511778
 20
13.744704543070803
 11
3.6902690810364742
 21
13.679314544132275
  0
LINE
  8
_0-0_
  6
CONTINUOUS
 62
    7
 10
3.6902690810364742
 20
13.679314544132275
 11
3.682581249855458
 21
13.614354750352412
  0
LINE
  8
_0-0_
  6
CONTINUOUS
 62
    7
 10
3.682581249855458
 20
13.614354750352412
 11
3.6689302742823156
 21
13.55042138517512
  0
LINE
  8
_0-0_
  6
CONTINUOUS
 62
    7
 10
3.6689302742823156
 20
13.55042138517512
 11
3.6481748435912618
 21
13.488110672044236
  0
LINE
  8
_0-0_
  6
CONTINUOUS
 62
    7
 10
3.6481748435912618
 20
13.488110672044236
 11
3.6191736470566251
 21
13.428018834403666
  0
LINE
  8
_0-0_
  6
CONTINUOUS
 62
    7
 10
3.6191736470566251
 20
13.428018834403666
 11
3.5981250073828743
 21
13.394417200362305
  0
LINE
  8
_0-0_
  6
CONTINUOUS
 62
    7
 10
3.5981250073828743
 20
13.394417200362305
 11
3.5836852292461412
 21
13.374492872533374
  0
LINE
  8
_0-0_
  6
CONTINUOUS
 62
    7
 10
3.5836852292461412
 20
13.374492872533374
 11
3.5561739535428227
 21
13.341739210687201
  0
LINE
  8
_0-0_
  6
CONTINUOUS
 62
    7
 10
3.5561739535428227
 20
13.341739210687201
 11
3.5258540127124842
 21
13.312024704224093
  0
LINE
  8
_0-0_
  6
CONTINUOUS
 62
    7
 10
3.5258540127124842
 20
13.312024704224093
 11
3.4933086582296209
 21
13.28653025576174
  0
LINE
  8
_0-0_
  6
CONTINUOUS
 62
    7
 10
3.4933086582296209
 20
13.28653025576174
 11
3.4591211415686143
 21
13.266436767917973
  0
LINE
  8
_0-0_
  6
CONTINUOUS
 62
    7
 10
3.4591211415686143
 20
13.266436767917973
 11
3.4238747142038459
 21
13.25292514331057
  0
LINE
  8
_0-0_
  6
CONTINUOUS
 62
    7
 10
3.4238747142038459
 20
13.25292514331057
 11
3.4031764248577883
 21
13.248569547811506
  0
LINE
  8
_0-0_
  6
CONTINUOUS
 62
    7
 10
3.4031764248577883
 20
13.248569547811506
 11
3.3731873532511383
 21
13.247145322207352
  0
LINE
  8
_0-0_
  6
CONTINUOUS
 62
    7
 10
3.3731873532511383
 20
13.247145322207352
 11
3.3215338596404376
 21
13.256963546575058
  0
LINE
  8
_0-0_
  6
CONTINUOUS
 62
    7
 10
3.3215338596404376
 20
13.256963546575058
 11
3.2703665761783167
 21
13.279825175909004
  0
LINE
  8
_0-0_
  6
CONTINUOUS
 62
    7
 10
3.2703665761783167
 20
13.279825175909004
 11
3.2201746164275118
 21
13.312831334979755
  0
LINE
  8
_0-0_
  6
CONTINUOUS
 62
    7
 10
3.2201746164275118
 20
13.312831334979755
 11
3.171447093950901
 21
13.353083148557879
  0
LINE
  8
_0-0_
  6
CONTINUOUS
 62
    7
 10
3.171447093950901
 20
13.353083148557879
 11
3.1246731223111919
 21
13.397681741413997
  0
LINE
  8
_0-0_
  6
CONTINUOUS
 62
    7
 10
3.1246731223111919
 20
13.397681741413997
 11
3.0986320719312754
 21
13.424398311953816
  0
LINE
  8
_0-0_
  6
CONTINUOUS
 62
    7
 10
3.0986320719312754
 20
13.424398311953816
 11
3.0527823710665825
 21
13.473830443046531
  0
LINE
  8
_0-0_
  6
CONTINUOUS
 62
    7
 10
3.0527823710665825
 20
13.473830443046531
 11
2.9803745835255722
 21
13.558717914991369
  0
LINE
  8
_0-0_
  6
CONTINUOUS
 62
    7
 10
2.9803745835255722
 20
13.558717914991369
 11
2.9152653010977598
 21
13.64361518130999
  0
LINE
  8
_0-0_
  6
CONTINUOUS
 62
    7
 10
2.9152653010977598
 20
13.64361518130999
 11
2.8561627931282896
 21
13.729034573234721
  0
LINE
  8
_0-0_
  6
CONTINUOUS
 62
    7
 10
2.8561627931282896
 20
13.729034573234721
 11
2.8017753289624192
 21
13.815488421997934
  0
LINE
  8
_0-0_
  6
CONTINUOUS
 62
    7
 10
2.8017753289624192
 20
13.815488421997934
 11
2.7508111779452644
 21
13.903489058831916
  0
LINE
  8
_0-0_
  6
CONTINUOUS
 62
    7
 10
2.7508111779452644
 20
13.903489058831916
 11
2.7223115233920634
 21
13.955440051636408
  0
LINE
  8
_0-0_
  6
CONTINUOUS
 62
    7
 10
2.7223115233920634
 20
13.955440051636408
 11
2.683894091744305
 21
14.028174112572337
  0
LINE
  8
_0-0_
  6
CONTINUOUS
 62
    7
 10
2.683894091744305
 20
14.028174112572337
 11
2.6194602378752005
 21
14.156534897349708
  0
LINE
  8
_0-0_
  6
CONTINUOUS
 62
    7
 10
2.6194602378752005
 20
14.156534897349708
 11
2.5569079137890025
 21
14.287780101203701
  0
LINE
  8
_0-0_
  6
CONTINUOUS
 62
    7
 10
2.5569079137890025
 20
14.287780101203701
 11
2.4957709894899676
 21
14.420910989413763
  0
LINE
  8
_0-0_
  6
CONTINUOUS
 62
    7
 10
2.4957709894899676
 20
14.420910989413763
 11
2.4355833349822955
 21
14.554928827259481
  0
LINE
  8
_0-0_
  6
CONTINUOUS
 62
    7
 10
2.4355833349822955
 20
14.554928827259481
 11
2.375878820270243
 21
14.688834880020345
  0
LINE
  8
_0-0_
  6
CONTINUOUS
 62
    7
 10
2.375878820270243
 20
14.688834880020345
 11
2.3412878969344728
 21
14.766055617281687
  0
LINE
  8
_0-0_
  6
CONTINUOUS
 62
    7
 10
2.3412878969344728
 20
14.766055617281687
 11
2.3132198423144086
 21
14.828334594326698
  0
LINE
  8
_0-0_
  6
CONTINUOUS
 62
    7
 10
2.3132198423144086
 20
14.828334594326698
 11
2.2654055706325789
 21
14.935405888049878
  0
LINE
  8
_0-0_
  6
CONTINUOUS
 62
    7
 10
2.2654055706325789
 20
14.935405888049878
 11
2.2193985305595856
 21
15.042954479995807
  0
LINE
  8
_0-0_
  6
CONTINUOUS
 62
    7
 10
2.2193985305595856
 20
15.042954479995807
 11
2.1764480406588813
 21
15.151986137756559
  0
LINE
  8
_0-0_
  6
CONTINUOUS
 62
    7
 10
2.1764480406588813
 20
15.151986137756559
 11
2.1378034194938049
 21
15.263506628924254
  0
LINE
  8
_0-0_
  6
CONTINUOUS
 62
    7
 10
2.1378034194938049
 20
15.263506628924254
 11
2.1047139856277237
 21
15.378521721091026
  0
LINE
  8
_0-0_
  6
CONTINUOUS
 62
    7
 10
2.1047139856277237
 20
15.378521721091026
 11
2.0885597972843879
 21
15.447228025456731
  0
LINE
  8
_0-0_
  6
CONTINUOUS
 62
    7
 10
2.0885597972843879
 20
15.447228025456731
 11
2.0794430927243592
 21
15.492719049045725
  0
LINE
  8
_0-0_
  6
CONTINUOUS
 62
    7
 10
2.0794430927243592
 20
15.492719049045725
 11
2.0670631103368304
 21
15.572136673303966
  0
LINE
  8
_0-0_
  6
CONTINUOUS
 62
    7
 10
2.0670631103368304
 20
15.572136673303966
 11
2.0601609318736234
 21
15.651727013300125
  0
LINE
  8
_0-0_
  6
CONTINUOUS
 62
    7
 10
2.0601609318736234
 20
15.651727013300125
 11
2.0601922408053053
 21
15.730241350261743
  0
LINE
  8
_0-0_
  6
CONTINUOUS
 62
    7
 10
2.0601922408053053
 20
15.730241350261743
 11
2.0686127206023865
 21
15.806430965416432
  0
LINE
  8
_0-0_
  6
CONTINUOUS
 62
    7
 10
2.0686127206023865
 20
15.806430965416432
 11
2.0868780547353207
 21
15.879047139991776
  0
LINE
  8
_0-0_
  6
CONTINUOUS
 62
    7
 10
2.0868780547353207
 20
15.879047139991776
 11
2.1025564757720598
 21
15.919035110642305
  0
LINE
  8
_0-0_
  6
CONTINUOUS
 62
    7
 10
2.1025564757720598
 20
15.919035110642305
 11
2.1081272562116578
 21
15.930870490367333
  0
LINE
  8
_0-0_
  6
CONTINUOUS
 62
    7
 10
2.1081272562116578
 20
15.930870490367333
 11
2.1185256940369595
 21
15.950983337879613
  0
LINE
  8
_0-0_
  6
CONTINUOUS
 62
    7
 10
2.1185256940369595
 20
15.950983337879613
 11
2.1297812067879089
 21
15.970897738228821
  0
LINE
  8
_0-0_
  6
CONTINUOUS
 62
    7
 10
2.1297812067879089
 20
15.970897738228821
 11
2.1417222390148094
 21
15.990814171752014
  0
LINE
  8
_0-0_
  6
CONTINUOUS
 62
    7
 10
2.1417222390148094
 20
15.990814171752014
 11
2.1541772352677366
 21
16.010933118786276
  0
LINE
  8
_0-0_
  6
CONTINUOUS
 62
    7
 10
2.1541772352677366
 20
16.010933118786276
 11
2.166974640096937
 21
16.031455059668694
  0
LINE
  8
_0-0_
  6
CONTINUOUS
 62
    7
 10
2.166974640096937
 20
16.031455059668694
 11
2.1744864247393547
 21
16.043621436839537
  0
LINE
  8
_0-0_
  6
CONTINUOUS
 62
    7
 10
2.1744864247393547
 20
16.043621436839537
 11
2.1812451316479109
 21
16.054699004060602
  0
LINE
  8
_0-0_
  6
CONTINUOUS
 62
    7
 10
2.1812451316479109
 20
16.054699004060602
 11
2.1930171766544913
 21
16.073888819856016
  0
LINE
  8
_0-0_
  6
CONTINUOUS
 62
    7
 10
2.1930171766544913
 20
16.073888819856016
 11
2.2050516704756955
 21
16.092640310172108
  0
LINE
  8
_0-0_
  6
CONTINUOUS
 62
    7
 10
2.2050516704756955
 20
16.092640310172108
 11
2.2174784813819439
 21
16.110310497242203
  0
LINE
  8
_0-0_
  6
CONTINUOUS
 62
    7
 10
2.2174784813819439
 20
16.110310497242203
 11
2.2304274776434294
 21
16.126256403299713
  0
LINE
  8
_0-0_
  6
CONTINUOUS
 62
    7
 10
2.2304274776434294
 20
16.126256403299713
 11
2.2440285275304586
 21
16.139835050577965
  0
LINE
  8
_0-0_
  6
CONTINUOUS
 62
    7
 10
2.2440285275304586
 20
16.139835050577965
 11
2.2522670822877853
 21
16.146372621351809
  0
LINE
  8
_0-0_
  6
CONTINUOUS
 62
    7
 10
3.4238747142038459
 20
13.25292514331057
 11
1.6450837348764775
 21
12.473253185094684
  0
LINE
  8
_0-0_
  6
CONTINUOUS
 62
    7
 10
2.2522670822877853
 20
16.146372621351809
 11
0.362015911534014
 21
15.078213322870646
  0
ARC
  8
_0-0_
  6
CONTINUOUS
 62
    7
 10
3.4683592636567777
 20
14.752115216427718
 40
2.8071914024843139
 50
170.49876855137828
 51
215.25903865529881
  0
ARC
  8
_0-0_
  6
CONTINUOUS
 62
    7
 10
2.4486435043460641
 20
13.75702681244632
 40
1.4178905380274114
 50
206.17402899312256
 51
241.046890338808
  0
ARC
  8
_0-0_
  6
CONTINUOUS
 62
    7
 10
3.3604509051443596
 20
14.796228351416396
 40
3.0116653092654992
 50
174.62747435767506
 51
213.43048178016662
  0
ARC
  8
_0-0_
  6
CONTINUOUS
 62
    7
 10
2.3925861107408206
 20
14.183560539570202
 40
1.8665237873372793
 50
214.10323627806241
 51
246.39191383862988
  0
ARC
  8
_0-0_
  6
CONTINUOUS
 62
    7
 10
0.1706103544361052
 20
15.037477863794969
 40
0.359189296017406
 50
19.787710489778952
 51
128.71235490582848
  0
ARC
  8
_0-0_
  6
CONTINUOUS
 62
    7
 10
0.630656811807297
 20
14.783600718283488
 40
0.8683973982986976
 50
142.04083654052673
 51
198.7789291270806
  0
ARC
  8
_0-0_
  6
CONTINUOUS
 62
    7
 10
4.4625720394432573
 20
15.714648984970488
 40
4.8089571540555029
 50
194.58042333002498
 51
215.95618826599562
  0
ARC
  8
_0-0_
  6
CONTINUOUS
 62
    7
 10
2.873958013759518
 20
14.325894488468997
 40
2.7143521274031999
 50
211.91333096633579
 51
236.56237350571919
  0
ARC
  8
_0-0_
  6
CONTINUOUS
 62
    7
 10
1.5537315906458797
 20
12.33711040156691
 40
0.3273084019340993
 50
237.58354643602149
 51
294.05843751235534
  0
ARC
  8
_0-0_
  6
CONTINUOUS
 62
    7
 10
1.2152410212383256
 20
12.398970027737754
 40
0.5940047600310489
 50
322.60599135740199
 51
353.65421335090991
  0
ARC
  8
_0-0_
  6
CONTINUOUS
 62
    7
 10
0.7416035535817808
 20
12.437472197999305
 40
1.0690885925984583
 50
354.40905177746146
 51
6.7494019675181942
  0
LINE
  8
_0-0_
  6
CONTINUOUS
 62
    7
 10
20.717245074867421
 20
0.7526802648375872
 11
20.73837864860856
 21
0.7628618740460462
  0
LINE
  8
_0-0_
  6
CONTINUOUS
 62
    7
 10
20.73837864860856
 20
0.7628618740460462
 11
20.77862594530005
 21
0.7637910446240079
  0
LINE
  8
_0-0_
  6
CONTINUOUS
 62
    7
 10
20.77862594530005
 20
0.7637910446240079
 11
20.822543593585394
 21
0.7473193499390555
  0
LINE
  8
_0-0_
  6
CONTINUOUS
 62
    7
 10
20.822543593585394
 20
0.7473193499390555
 11
20.868791406789668
 21
0.7176838292900464
  0
LINE
  8
_0-0_
  6
CONTINUOUS
 62
    7
 10
20.868791406789668
 20
0.7176838292900464
 11
20.916029198238036
 21
0.6791215219758237
  0
LINE
  8
_0-0_
  6
CONTINUOUS
 62
    7
 10
20.916029198238036
 20
0.6791215219758237
 11
20.962916781255515
 21
0.6358694672952589
  0
LINE
  8
_0-0_
  6
CONTINUOUS
 62
    7
 10
20.962916781255515
 20
0.6358694672952589
 11
20.989423010663032
 21
0.6103040471470615
  0
LINE
  8
_0-0_
  6
CONTINUOUS
 62
    7
 10
20.989423010663032
 20
0.6103040471470615
 11
21.044926254292406
 21
0.556082480215573
  0
LINE
  8
_0-0_
  6
CONTINUOUS
 62
    7
 10
21.044926254292406
 20
0.556082480215573
 11
21.132090226417674
 21
0.4687995359136829
  0
LINE
  8
_0-0_
  6
CONTINUOUS
 62
    7
 10
21.132090226417674
 20
0.4687995359136829
 11
21.209803479589524
 21
0.3871712493393824
  0
LINE
  8
_0-0_
  6
CONTINUOUS
 62
    7
 10
21.209803479589524
 20
0.3871712493393824
 11
21.279633878892511
 21
0.3086434015935077
  0
LINE
  8
_0-0_
  6
CONTINUOUS
 62
    7
 10
21.279633878892511
 20
0.3086434015935077
 11
21.343149289411159
 21
0.2306617737769522
  0
LINE
  8
_0-0_
  6
CONTINUOUS
 62
    7
 10
21.343149289411159
 20
0.2306617737769522
 11
21.401917576229934
 21
0.1506721469906375
  0
LINE
  8
_0-0_
  6
CONTINUOUS
 62
    7
 10
21.401917576229934
 20
0.1506721469906375
 11
21.434445870877866
 21
0.1023516032609785
  0
LINE
  8
_0-0_
  6
CONTINUOUS
 62
    7
 10
21.434445870877866
 20
0.1023516032609785
 11
21.473488223465964
 21
0.0400298594602981
  0
LINE
  8
_0-0_
  6
CONTINUOUS
 62
    7
 10
21.473488223465964
 20
0.0400298594602981
 11
21.537903256337486
 21
-0.0738094866951888
  0
LINE
  8
_0-0_
  6
CONTINUOUS
 62
    7
 10
21.537903256337486
 20
-0.0738094866951888
 11
21.598398950279218
 21
-0.194385333355874
  0
LINE
  8
_0-0_
  6
CONTINUOUS
 62
    7
 10
21.598398950279218
 20
-0.194385333355874
 11
21.654685476600932
 21
-0.320128312930513
  0
LINE
  8
_0-0_
  6
CONTINUOUS
 62
    7
 10
21.654685476600932
 20
-0.320128312930513
 11
21.706473006612427
 21
-0.4494690578279891
  0
LINE
  8
_0-0_
  6
CONTINUOUS
 62
    7
 10
21.706473006612427
 20
-0.4494690578279891
 11
21.753471711623448
 21
-0.5808382004570722
  0
LINE
  8
_0-0_
  6
CONTINUOUS
 62
    7
 10
21.753471711623448
 20
-0.5808382004570722
 11
21.778422513339606
 21
-0.6573433025845139
  0
LINE
  8
_0-0_
  6
CONTINUOUS
 62
    7
 10
21.778422513339606
 20
-0.6573433025845139
 11
21.79223422733206
 21
-0.7022253305942376
  0
LINE
  8
_0-0_
  6
CONTINUOUS
 62
    7
 10
21.79223422733206
 20
-0.7022253305942376
 11
21.814262747904323
 21
-0.7795883152729521
  0
LINE
  8
_0-0_
  6
CONTINUOUS
 62
    7
 10
21.814262747904323
 20
-0.7795883152729521
 11
21.833493754397765
 21
-0.8570820086166639
  0
LINE
  8
_0-0_
  6
CONTINUOUS
 62
    7
 10
21.833493754397765
 20
-0.8570820086166639
 11
21.84930131701033
 21
-0.9348875735337065
  0
LINE
  8
_0-0_
  6
CONTINUOUS
 62
    7
 10
21.84930131701033
 20
-0.9348875735337065
 11
21.86105950594002
 21
-1.0131861729324418
  0
LINE
  8
_0-0_
  6
CONTINUOUS
 62
    7
 10
21.86105950594002
 20
-1.0131861729324418
 11
21.868142391384694
 21
-1.0921589697212033
  0
LINE
  8
_0-0_
  6
CONTINUOUS
 62
    7
 10
21.868142391384694
 20
-1.0921589697212033
 11
21.869861591995473
 21
-1.1383434967091608
  0
LINE
  8
_0-0_
  6
CONTINUOUS
 62
    7
 10
21.869861591995473
 20
-1.1383434967091608
 11
21.869939471878112
 21
-1.1686541977872116
  0
LINE
  8
_0-0_
  6
CONTINUOUS
 62
    7
 10
21.869939471878112
 20
-1.1686541977872116
 11
21.867646673866361
 21
-1.2209661969380425
  0
LINE
  8
_0-0_
  6
CONTINUOUS
 62
    7
 10
21.867646673866361
 20
-1.2209661969380425
 11
21.861496408921553
 21
-1.2729340319619302
  0
LINE
  8
_0-0_
  6
CONTINUOUS
 62
    7
 10
21.861496408921553
 20
-1.2729340319619302
 11
21.850575628463034
 21
-1.324080724103772
  0
LINE
  8
_0-0_
  6
CONTINUOUS
 62
    7
 10
21.850575628463034
 20
-1.324080724103772
 11
21.833971283910202
 21
-1.3739292946084651
  0
LINE
  8
_0-0_
  6
CONTINUOUS
 62
    7
 10
21.833971283910202
 20
-1.3739292946084651
 11
21.810770326682487
 21
-1.4220027647209212
  0
LINE
  8
_0-0_
  6
CONTINUOUS
 62
    7
 10
21.810770326682487
 20
-1.4220027647209212
 11
21.793931414943486
 21
-1.4488840719540184
  0
LINE
  8
_0-0_
  6
CONTINUOUS
 62
    7
 10
21.793931414943486
 20
-1.4488840719540184
 11
21.782379592434083
 21
-1.4648235342171523
  0
LINE
  8
_0-0_
  6
CONTINUOUS
 62
    7
 10
21.782379592434083
 20
-1.4648235342171523
 11
21.760370571871434
 21
-1.49102646369409
  0
LINE
  8
_0-0_
  6
CONTINUOUS
 62
    7
 10
21.760370571871434
 20
-1.49102646369409
 11
21.736114619207186
 21
-1.514798068864585
  0
LINE
  8
_0-0_
  6
CONTINUOUS
 62
    7
 10
21.736114619207186
 20
-1.514798068864585
 11
21.710078335620878
 21
-1.5351936276344622
  0
LINE
  8
_0-0_
  6
CONTINUOUS
 62
    7
 10
21.710078335620878
 20
-1.5351936276344622
 11
21.68272832229205
 21
-1.5512684179094753
  0
LINE
  8
_0-0_
  6
CONTINUOUS
 62
    7
 10
21.68272832229205
 20
-1.5512684179094753
 11
21.654531180400241
 21
-1.5620777175954066
  0
LINE
  8
_0-0_
  6
CONTINUOUS
 62
    7
 10
21.654531180400241
 20
-1.5620777175954066
 11
21.637972548923429
 21
-1.5655621939946576
  0
LINE
  8
_0-0_
  6
CONTINUOUS
 62
    7
 10
21.637972548923429
 20
-1.5655621939946576
 11
21.613981291638098
 21
-1.5667015744779809
  0
LINE
  8
_0-0_
  6
CONTINUOUS
 62
    7
 10
21.613981291638098
 20
-1.5667015744779809
 11
21.572658496749497
 21
-1.5588469949838162
  0
LINE
  8
_0-0_
  6
CONTINUOUS
 62
    7
 10
21.572658496749497
 20
-1.5588469949838162
 11
21.531724669979823
 21
-1.5405576915166597
  0
LINE
  8
_0-0_
  6
CONTINUOUS
 62
    7
 10
21.531724669979823
 20
-1.5405576915166597
 11
21.491571102179208
 21
-1.5141527642600527
  0
LINE
  8
_0-0_
  6
CONTINUOUS
 62
    7
 10
21.491571102179208
 20
-1.5141527642600527
 11
21.452589084197896
 21
-1.481951313397551
  0
LINE
  8
_0-0_
  6
CONTINUOUS
 62
    7
 10
21.452589084197896
 20
-1.481951313397551
 11
21.415169906886135
 21
-1.4462724391126676
  0
LINE
  8
_0-0_
  6
CONTINUOUS
 62
    7
 10
21.415169906886135
 20
-1.4462724391126676
 11
21.394337066582196
 21
-1.42489918268081
  0
LINE
  8
_0-0_
  6
CONTINUOUS
 62
    7
 10
21.394337066582196
 20
-1.42489918268081
 11
21.357657305890442
 21
-1.3853534778066381
  0
LINE
  8
_0-0_
  6
CONTINUOUS
 62
    7
 10
21.357657305890442
 20
-1.3853534778066381
 11
21.299731075857622
 21
-1.3174435002507527
  0
LINE
  8
_0-0_
  6
CONTINUOUS
 62
    7
 10
21.299731075857622
 20
-1.3174435002507527
 11
21.247643649915389
 21
-1.2495256871958622
  0
LINE
  8
_0-0_
  6
CONTINUOUS
 62
    7
 10
21.247643649915389
 20
-1.2495256871958622
 11
21.200361643539836
 21
-1.1811901736560833
  0
LINE
  8
_0-0_
  6
CONTINUOUS
 62
    7
 10
21.200361643539836
 20
-1.1811901736560833
 11
21.156851672207111
 21
-1.1120270946455042
  0
LINE
  8
_0-0_
  6
CONTINUOUS
 62
    7
 10
21.156851672207111
 20
-1.1120270946455042
 11
21.116080351393393
 21
-1.0416265851783271
  0
LINE
  8
_0-0_
  6
CONTINUOUS
 62
    7
 10
21.116080351393393
 20
-1.0416265851783271
 11
21.093280627750815
 21
-1.000065790934733
  0
LINE
  8
_0-0_
  6
CONTINUOUS
 62
    7
 10
21.093280627750815
 20
-1.000065790934733
 11
21.062546682432625
 21
-0.9418785421859814
  0
LINE
  8
_0-0_
  6
CONTINUOUS
 62
    7
 10
21.062546682432625
 20
-0.9418785421859814
 11
21.010999599337353
 21
-0.8391899143640904
  0
LINE
  8
_0-0_
  6
CONTINUOUS
 62
    7
 10
21.010999599337353
 20
-0.8391899143640904
 11
20.960957740068366
 21
-0.7341937512809044
  0
LINE
  8
_0-0_
  6
CONTINUOUS
 62
    7
 10
20.960957740068366
 20
-0.7341937512809044
 11
20.912048200629144
 21
-0.6276890407128439
  0
LINE
  8
_0-0_
  6
CONTINUOUS
 62
    7
 10
20.912048200629144
 20
-0.6276890407128439
 11
20.863898077023023
 21
-0.5204747704362722
  0
LINE
  8
_0-0_
  6
CONTINUOUS
 62
    7
 10
20.863898077023023
 20
-0.5204747704362722
 11
20.81613446525337
 21
-0.4133499282275812
  0
LINE
  8
_0-0_
  6
CONTINUOUS
 62
    7
 10
20.81613446525337
 20
-0.4133499282275812
 11
20.788461726584771
 21
-0.3515733384185102
  0
LINE
  8
_0-0_
  6
CONTINUOUS
 62
    7
 10
20.788461726584771
 20
-0.3515733384185102
 11
20.766007282888708
 21
-0.3017501567825098
  0
LINE
  8
_0-0_
  6
CONTINUOUS
 62
    7
 10
20.766007282888708
 20
-0.3017501567825098
 11
20.727755865543244
 21
-0.216093121803957
  0
LINE
  8
_0-0_
  6
CONTINUOUS
 62
    7
 10
20.727755865543244
 20
-0.216093121803957
 11
20.690950233484855
 21
-0.1300542482472115
  0
LINE
  8
_0-0_
  6
CONTINUOUS
 62
    7
 10
20.690950233484855
 20
-0.1300542482472115
 11
20.656589841564269
 21
-0.0428289220386153
  0
LINE
  8
_0-0_
  6
CONTINUOUS
 62
    7
 10
20.656589841564269
 20
-0.0428289220386153
 11
20.625674144632214
 21
0.0463874708955467
  0
LINE
  8
_0-0_
  6
CONTINUOUS
 62
    7
 10
20.625674144632214
 20
0.0463874708955467
 11
20.59920259753936
 21
0.1383995446289754
  0
LINE
  8
_0-0_
  6
CONTINUOUS
 62
    7
 10
20.59920259753936
 20
0.1383995446289754
 11
20.586279246864692
 21
0.1933645881215335
  0
LINE
  8
_0-0_
  6
CONTINUOUS
 62
    7
 10
20.586279246864692
 20
0.1933645881215335
 11
20.578985883216674
 21
0.2297574069927117
  0
LINE
  8
_0-0_
  6
CONTINUOUS
 62
    7
 10
20.578985883216674
 20
0.2297574069927117
 11
20.569081897306646
 21
0.2932915063993215
  0
LINE
  8
_0-0_
  6
CONTINUOUS
 62
    7
 10
20.569081897306646
 20
0.2932915063993215
 11
20.563560154536063
 21
0.3569637783962429
  0
LINE
  8
_0-0_
  6
CONTINUOUS
 62
    7
 10
20.563560154536063
 20
0.3569637783962429
 11
20.56358520168142
 21
0.4197752479655401
  0
LINE
  8
_0-0_
  6
CONTINUOUS
 62
    7
 10
20.56358520168142
 20
0.4197752479655401
 11
20.570321585519068
 21
0.4807269400892773
  0
LINE
  8
_0-0_
  6
CONTINUOUS
 62
    7
 10
20.570321585519068
 20
0.4807269400892773
 11
20.584933852825444
 21
0.5388198797495613
  0
LINE
  8
_0-0_
  6
CONTINUOUS
 62
    7
 10
20.584933852825444
 20
0.5388198797495613
 11
20.597476589654818
 21
0.5708102562699872
  0
LINE
  8
_0-0_
  6
CONTINUOUS
 62
    7
 10
20.597476589654818
 20
0.5708102562699872
 11
20.601933214006507
 21
0.5802785600500124
  0
LINE
  8
_0-0_
  6
CONTINUOUS
 62
    7
 10
20.601933214006507
 20
0.5802785600500124
 11
20.610251964266737
 21
0.5963688380598393
  0
LINE
  8
_0-0_
  6
CONTINUOUS
 62
    7
 10
20.610251964266737
 20
0.5963688380598393
 11
20.619256374467497
 21
0.6123003583391915
  0
LINE
  8
_0-0_
  6
CONTINUOUS
 62
    7
 10
20.619256374467497
 20
0.6123003583391915
 11
20.628809200249023
 21
0.6282335051577456
  0
LINE
  8
_0-0_
  6
CONTINUOUS
 62
    7
 10
20.628809200249023
 20
0.6282335051577456
 11
20.638773197251382
 21
0.6443286627851643
  0
LINE
  8
_0-0_
  6
CONTINUOUS
 62
    7
 10
20.638773197251382
 20
0.6443286627851643
 11
20.649011121114725
 21
0.6607462154911099
  0
LINE
  8
_0-0_
  6
CONTINUOUS
 62
    7
 10
20.649011121114725
 20
0.6607462154911099
 11
20.655020548828688
 21
0.6704793172277669
  0
LINE
  8
_0-0_
  6
CONTINUOUS
 62
    7
 10
20.655020548828688
 20
0.6704793172277669
 11
20.660427514355533
 21
0.679341371004619
  0
LINE
  8
_0-0_
  6
CONTINUOUS
 62
    7
 10
20.660427514355533
 20
0.679341371004619
 11
20.669845150360757
 21
0.6946932236409617
  0
LINE
  8
_0-0_
  6
CONTINUOUS
 62
    7
 10
20.669845150360757
 20
0.6946932236409617
 11
20.679472745417755
 21
0.7096944158938294
  0
LINE
  8
_0-0_
  6
CONTINUOUS
 62
    7
 10
20.679472745417755
 20
0.7096944158938294
 11
20.689414194142742
 21
0.7238305655499113
  0
LINE
  8
_0-0_
  6
CONTINUOUS
 62
    7
 10
20.689414194142742
 20
0.7238305655499113
 11
20.699773391151908
 21
0.7365872903959109
  0
LINE
  8
_0-0_
  6
CONTINUOUS
 62
    7
 10
20.699773391151908
 20
0.7365872903959109
 11
20.710654231061525
 21
0.7474502082185035
  0
LINE
  8
_0-0_
  6
CONTINUOUS
 62
    7
 10
20.710654231061525
 20
0.7474502082185035
 11
20.717245074867421
 21
0.7526802648375872
  0
LINE
  8
_0-0_
  6
CONTINUOUS
 62
    7
 10
21.654531180400241
 20
-1.5620777175954066
 11
20.231498396938335
 21
-2.1858152841681209
  0
LINE
  8
_0-0_
  6
CONTINUOUS
 62
    7
 10
20.717245074867421
 20
0.7526802648375872
 11
19.205044138264398
 21
-0.1018471739473403
  0
ARC
  8
_0-0_
  6
CONTINUOUS
 62
    7
 10
21.690118819962592
 20
-0.3627256591016907
 40
2.2457531219874514
 50
170.49876855137828
 51
215.25903865529881
  0
ARC
  8
_0-0_
  6
CONTINUOUS
 62
    7
 10
20.874346212514027
 20
-1.158796382286801
 40
1.1343124304219292
 50
206.17402899312256
 51
241.046890338808
  0
ARC
  8
_0-0_
  6
CONTINUOUS
 62
    7
 10
21.60379213315268
 20
-0.3274351511107402
 40
2.4093322474123995
 50
174.62747435767506
 51
213.43048178016662
  0
ARC
  8
_0-0_
  6
CONTINUOUS
 62
    7
 10
20.829500297629821
 20
-0.8175694005877067
 40
1.4932190298698236
 50
214.10323627806241
 51
246.39191383862988
  0
ARC
  8
_0-0_
  6
CONTINUOUS
 62
    7
 10
19.051919692586054
 20
-0.1344355412078845
 40
0.2873514368139247
 50
19.787710489778952
 51
128.71235490582848
  0
ARC
  8
_0-0_
  6
CONTINUOUS
 62
    7
 10
19.419956858483019
 20
-0.337537257617078
 40
0.6947179186389581
 50
142.04083654052673
 51
198.7789291270806
  0
ARC
  8
_0-0_
  6
CONTINUOUS
 62
    7
 10
22.485489040591787
 20
0.4073013557325362
 40
3.8471657232444025
 50
194.58042333002498
 51
215.95618826599562
  0
ARC
  8
_0-0_
  6
CONTINUOUS
 62
    7
 10
21.214597820044773
 20
-0.703702241468668
 40
2.1714817019225601
 50
211.91333096633579
 51
236.56237350571919
  0
ARC
  8
_0-0_
  6
CONTINUOUS
 62
    7
 10
20.158416681553874
 20
-2.2947295109903285
 40
0.2618467215472796
 50
237.58354643602149
 51
294.05843751235534
  0
ARC
  8
_0-0_
  6
CONTINUOUS
 62
    7
 10
19.887624226027825
 20
-2.2452418100536482
 40
0.4752038080248393
 50
322.60599135740199
 51
353.65421335090991
  0
ARC
  8
_0-0_
  6
CONTINUOUS
 62
    7
 10
19.508714251902617
 20
-2.2144400738444068
 40
0.8552708740787665
 50
354.40905177746146
 51
6.7494019675181942
  0
LINE
  8
_0-0_
  6
CONTINUOUS
 62
    7
 10
0.6851998155889145
 20
15.197516199710968
 11
-9.9811739629851548
 21
23.786353992909561
  0
LINE
  8
_0-0_
  6
CONTINUOUS
 62
    7
 10
19.487249219373254
 20
0.0576236869250061
 11
3.2142634828833945
 21
13.161049256212557
  0
LINE
  8
_0-0_
  6
CONTINUOUS
 62
    7
 10
24.481941856591092
 20
-3.9642309544451768
 11
21.553650231786307
 21
-1.6062954180821896
  0
ARC
  8
_0-0_
  6
CONTINUOUS
 62
    7
 10
-48.535330436855844
 20
-8.2166958706318738
 40
0.3056825544991811
 50
120.74176451584144
 51
304.91531906698339
  0
ARC
  8
_0-0_
  6
CONTINUOUS
 62
    7
 10
-46.280421000923596
 20
-6.8812939853902781
 40
0.3188460506852511
 50
292.62315229566502
 51
116.51119034553717
  0
LINE
  8
_0-0_
  6
CONTINUOUS
 62
    7
 10
-48.691586051564215
 20
-7.9539678610911073
 11
-46.422745139263569
 21
-6.5959754902250358
  0
LINE
  8
_0-0_
  6
CONTINUOUS
 62
    7
 10
-46.157771018118979
 20
-7.1756063802288486
 11
-48.360368400133467
 21
-8.467355220808777
  0
ARC
  8
_0-0_
  6
CONTINUOUS
 62
    7
 10
-44.602241792805856
 20
-6.0882381152279867
 40
0.3056825544991811
 50
120.74176451584144
 51
304.91531906698339
  0
ARC
  8
_0-0_
  6
CONTINUOUS
 62
    7
 10
-42.347332356873608
 20
-4.752836229986392
 40
0.3188460506852511
 50
292.62315229566502
 51
116.51119034553717
  0
LINE
  8
_0-0_
  6
CONTINUOUS
 62
    7
 10
-44.758497407514241
 20
-5.8255101056872212
 11
-42.489656495213595
 21
-4.4675177348211497
  0
LINE
  8
_0-0_
  6
CONTINUOUS
 62
    7
 10
-42.22468237406899
 20
-5.0471486248249624
 11
-44.427279756083479
 21
-6.3388974654048758
  0
ARC
  8
_0-0_
  6
CONTINUOUS
 62
    7
 10
-45.744942690241956
 20
-10.344384936113123
 40
0.3056825544991811
 50
120.74176451584144
 51
304.91531906698339
  0
ARC
  8
_0-0_
  6
CONTINUOUS
 62
    7
 10
-43.490033254309694
 20
-9.0089830508715281
 40
0.3188460506852511
 50
292.62315229566502
 51
116.51119034553717
  0
LINE
  8
_0-0_
  6
CONTINUOUS
 62
    7
 10
-45.901198304950313
 20
-10.081656926572357
 11
-43.632357392649681
 21
-8.7236645557062857
  0
LINE
  8
_0-0_
  6
CONTINUOUS
 62
    7
 10
-43.367383271505091
 20
-9.3032954457100985
 11
-45.569980653519579
 21
-10.595044286290012
  0
ARC
  8
_0-0_
  6
CONTINUOUS
 62
    7
 10
-42.863349122794418
 20
-12.58010408327069
 40
0.3056825544991811
 50
120.74176451584144
 51
304.91531906698339
  0
ARC
  8
_0-0_
  6
CONTINUOUS
 62
    7
 10
-40.60843968686217
 20
-11.244702198029096
 40
0.3188460506852511
 50
292.62315229566502
 51
116.51119034553717
  0
LINE
  8
_0-0_
  6
CONTINUOUS
 62
    7
 10
-43.019604737502803
 20
-12.317376073729925
 11
-40.750763825202156
 21
-10.959383702863839
  0
LINE
  8
_0-0_
  6
CONTINUOUS
 62
    7
 10
-40.485789704057552
 20
-11.539014592867652
 11
-42.688387086072041
 21
-12.830763433447579
  0
ARC
  8
_0-0_
  6
CONTINUOUS
 62
    7
 10
-41.488795869356821
 20
-8.1252266715270949
 40
0.3056825544991811
 50
120.74176451584144
 51
304.91531906698339
  0
ARC
  8
_0-0_
  6
CONTINUOUS
 62
    7
 10
-39.233886433424559
 20
-6.7898247862854992
 40
0.3188460506852511
 50
292.62315229566502
 51
116.51119034553717
  0
LINE
  8
_0-0_
  6
CONTINUOUS
 62
    7
 10
-41.645051484065178
 20
-7.8624986619863284
 11
-39.376210571764545
 21
-6.5045062911202569
  0
LINE
  8
_0-0_
  6
CONTINUOUS
 62
    7
 10
-39.111236450619955
 20
-7.0841371811240696
 11
-41.313833832634444
 21
-8.3758860217039981
  0
ARC
  8
_0-0_
  6
CONTINUOUS
 62
    7
 10
-38.441593476193916
 20
-10.427189348970806
 40
0.3056825544991811
 50
120.74176451584144
 51
304.91531906698339
  0
ARC
  8
_0-0_
  6
CONTINUOUS
 62
    7
 10
-36.186684040261653
 20
-9.0917874637292257
 40
0.3188460506852511
 50
292.62315229566502
 51
116.51119034553717
  0
LINE
  8
_0-0_
  6
CONTINUOUS
 62
    7
 10
-38.597849090902272
 20
-10.164461339430041
 11
-36.32900817860164
 21
-8.8064689685639692
  0
LINE
  8
_0-0_
  6
CONTINUOUS
 62
    7
 10
-36.06403405745705
 20
-9.386099858567782
 11
-38.266631439471539
 21
-10.67784869914771
  0
ARC
  8
_0-0_
  6
CONTINUOUS
 62
    7
 10
-40.329534089349195
 20
-3.7531536726411963
 40
0.3056825544991811
 50
120.74176451584144
 51
304.91531906698339
  0
ARC
  8
_0-0_
  6
CONTINUOUS
 62
    7
 10
-38.074624653416933
 20
-2.4177517873996015
 40
0.3188460506852511
 50
292.62315229566502
 51
116.51119034553717
  0
LINE
  8
_0-0_
  6
CONTINUOUS
 62
    7
 10
-40.485789704057552
 20
-3.4904256631004307
 11
-38.21694879175692
 21
-2.1324332922343592
  0
LINE
  8
_0-0_
  6
CONTINUOUS
 62
    7
 10
-37.95197467061233
 20
-2.7120641822381719
 11
-40.154572052626818
 21
-4.0038130228180995
  0
ARC
  8
_0-0_
  6
CONTINUOUS
 62
    7
 10
-37.358750503297642
 20
-6.0065636993144187
 40
0.3668190653990173
 50
120.74176451584144
 51
304.91531906698339
  0
ARC
  8
_0-0_
  6
CONTINUOUS
 62
    7
 10
-34.652859180178936
 20
-4.4040814370245078
 40
0.3826152608223015
 50
292.62315229566502
 51
116.51119034553717
  0
LINE
  8
_0-0_
  6
CONTINUOUS
 62
    7
 10
-37.546257240947682
 20
-5.6912900878655028
 11
-34.823648146186926
 21
-4.0616992428262142
  0
LINE
  8
_0-0_
  6
CONTINUOUS
 62
    7
 10
-34.505679200813404
 20
-4.7572563108307895
 11
-37.14879605923079
 21
-6.307354919526694
  0
ARC
  8
_0-0_
  6
CONTINUOUS
 62
    7
 10
-33.963769576132464
 20
-8.0601131381850806
 40
0.3668190653990173
 50
120.74176451584144
 51
304.91531906698339
  0
ARC
  8
_0-0_
  6
CONTINUOUS
 62
    7
 10
-31.257878253013743
 20
-6.4576308758951546
 40
0.3826152608223015
 50
292.62315229566502
 51
116.51119034553717
  0
LINE
  8
_0-0_
  6
CONTINUOUS
 62
    7
 10
-34.151276313782503
 20
-7.7448395267361496
 11
-31.428667219021733
 21
-6.115248681696861
  0
LINE
  8
_0-0_
  6
CONTINUOUS
 62
    7
 10
-31.110698273648225
 20
-6.8108057497014363
 11
-33.753815132065611
 21
-8.3609043583973417
  0
ARC
  8
_0-0_
  6
CONTINUOUS
 62
    7
 10
-36.000758132431571
 20
-1.3032730489977729
 40
0.3668190653990173
 50
120.74176451584144
 51
304.91531906698339
  0
ARC
  8
_0-0_
  6
CONTINUOUS
 62
    7
 10
-33.294866809312865
 20
0.299209213292138
 40
0.3826152608223015
 50
292.62315229566502
 51
116.51119034553717
  0
LINE
  8
_0-0_
  6
CONTINUOUS
 62
    7
 10
-36.188264870081611
 20
-0.987999437548857
 11
-33.465655775320855
 21
0.6415914074904316
  0
LINE
  8
_0-0_
  6
CONTINUOUS
 62
    7
 10
-33.147686829947332
 20
-0.0539656605141436
 11
-35.790803688364718
 21
-1.6040642692100482
  0
ARC
  8
_0-0_
  6
CONTINUOUS
 62
    7
 10
-32.522972792408694
 20
-3.4727486658691822
 40
0.3668190653990173
 50
120.74176451584144
 51
304.91531906698339
  0
ARC
  8
_0-0_
  6
CONTINUOUS
 62
    7
 10
-29.817081469289988
 20
-1.8702664035792713
 40
0.3826152608223015
 50
292.62315229566502
 51
116.51119034553717
  0
LINE
  8
_0-0_
  6
CONTINUOUS
 62
    7
 10
-32.710479530058734
 20
-3.1574750544202663
 11
-29.987870435297978
 21
-1.5278842093809777
  0
LINE
  8
_0-0_
  6
CONTINUOUS
 62
    7
 10
-29.669901489924442
 20
-2.223441277385553
 11
-32.313018348341842
 21
-3.7735398860814575
  0
ARC
  8
_0-0_
  6
CONTINUOUS
 62
    7
 10
-28.846456861527386
 20
-5.6422242827405915
 40
0.3668190653990173
 50
120.74176451584144
 51
304.91531906698339
  0
ARC
  8
_0-0_
  6
CONTINUOUS
 62
    7
 10
-26.140565538408666
 20
-4.0397420204506806
 40
0.3826152608223015
 50
292.62315229566502
 51
116.51119034553717
  0
LINE
  8
_0-0_
  6
CONTINUOUS
 62
    7
 10
-29.033963599177426
 20
-5.3269506712916757
 11
-26.311354504416627
 21
-3.697359826252387
  0
LINE
  8
_0-0_
  6
CONTINUOUS
 62
    7
 10
-25.993385559043148
 20
-4.3929168942569623
 11
-28.636502417460534
 21
-5.9430155029528668
  0
ARC
  8
_0-0_
  6
CONTINUOUS
 62
    7
 10
-23.543781635762187
 20
-3.0427307174812688
 40
0.3973873208489355
 50
120.74176451584144
 51
304.91531906698339
  0
ARC
  8
_0-0_
  6
CONTINUOUS
 62
    7
 10
-20.612399369050266
 20
-1.3067082666671928
 40
0.4144998658908267
 50
292.62315229566502
 51
116.51119034553717
  0
LINE
  8
_0-0_
  6
CONTINUOUS
 62
    7
 10
-23.746913934883096
 20
-2.7011843050782778
 11
-20.797420748892264
 21
-0.9357942229523734
  0
LINE
  8
_0-0_
  6
CONTINUOUS
 62
    7
 10
-20.452954391404276
 20
-1.68931437995733
 11
-23.316330988023097
 21
-3.3685878727112373
  0
ARC
  8
_0-0_
  6
CONTINUOUS
 62
    7
 10
-27.650880513503481
 20
-0.8898159831813989
 40
0.3973873208489355
 50
120.74176451584144
 51
304.91531906698339
  0
ARC
  8
_0-0_
  6
CONTINUOUS
 62
    7
 10
-24.719498246791559
 20
0.846206467632677
 40
0.4144998658908267
 50
292.62315229566502
 51
116.51119034553717
  0
LINE
  8
_0-0_
  6
CONTINUOUS
 62
    7
 10
-27.85401281262439
 20
-0.5482695707783937
 11
-24.904519626633558
 21
1.2171205113474963
  0
LINE
  8
_0-0_
  6
CONTINUOUS
 62
    7
 10
-24.56005326914557
 20
0.4636003543425397
 11
-27.42342986576439
 21
-1.2156731384113533
  0
ARC
  8
_0-0_
  6
CONTINUOUS
 62
    7
 10
-31.277713796670199
 20
1.2796596336900103
 40
0.3973873208489355
 50
120.74176451584144
 51
304.91531906698339
  0
ARC
  8
_0-0_
  6
CONTINUOUS
 62
    7
 10
-28.346331529958277
 20
3.0156820845040864
 40
0.4144998658908267
 50
292.62315229566502
 51
116.51119034553717
  0
LINE
  8
_0-0_
  6
CONTINUOUS
 62
    7
 10
-31.480846095791108
 20
1.6212060460930156
 11
-28.531352909800276
 21
3.3865961282189057
  0
LINE
  8
_0-0_
  6
CONTINUOUS
 62
    7
 10
-28.186886552312288
 20
2.6330759712139491
 11
-31.050263148931109
 21
0.953802478460056
  0
ARC
  8
_0-0_
  6
CONTINUOUS
 62
    7
 10
-26.027914021492805
 20
4.2109358488521531
 40
0.3973873208489355
 50
120.74176451584144
 51
304.91531906698339
  0
ARC
  8
_0-0_
  6
CONTINUOUS
 62
    7
 10
-23.096531754780884
 20
5.9469582996662149
 40
0.4144998658908267
 50
292.62315229566502
 51
116.51119034553717
  0
LINE
  8
_0-0_
  6
CONTINUOUS
 62
    7
 10
-26.231046320613714
 20
4.5524822612551441
 11
-23.281553134622882
 21
6.3178723433810484
  0
LINE
  8
_0-0_
  6
CONTINUOUS
 62
    7
 10
-22.937086777134894
 20
5.5643521863760919
 11
-25.800463373753715
 21
3.8850786936221846
  0
ARC
  8
_0-0_
  6
CONTINUOUS
 62
    7
 10
-21.937376026323065
 20
2.0745819971238086
 40
0.3973873208489355
 50
120.74176451584144
 51
304.91531906698339
  0
ARC
  8
_0-0_
  6
CONTINUOUS
 62
    7
 10
-19.005993759611115
 20
3.8106044479378847
 40
0.4144998658908267
 50
292.62315229566502
 51
116.51119034553717
  0
LINE
  8
_0-0_
  6
CONTINUOUS
 62
    7
 10
-22.140508325443946
 20
2.4161284095268138
 11
-19.191015139453114
 21
4.181518491652704
  0
LINE
  8
_0-0_
  6
CONTINUOUS
 62
    7
 10
-18.846548781965126
 20
3.4279983346477474
 11
-21.709925378583975
 21
1.7487248418938544
  0
ARC
  8
_0-0_
  6
CONTINUOUS
 62
    7
 10
-20.195290553438454
 20
7.4563038344014325
 40
0.4279555762988537
 50
120.74176451584144
 51
304.91531906698339
  0
ARC
  8
_0-0_
  6
CONTINUOUS
 62
    7
 10
-17.038417343133304
 20
9.3258664737396728
 40
0.4463844709593518
 50
292.62315229566502
 51
116.51119034553717
  0
LINE
  8
_0-0_
  6
CONTINUOUS
 62
    7
 10
-20.414048414030177
 20
7.8241230477585129
 11
-17.237671136809283
 21
9.7253123669710178
  0
LINE
  8
_0-0_
  6
CONTINUOUS
 62
    7
 10
-16.866707367206843
 20
8.9138291209656799
 11
-19.950343702027126
 21
7.1053807441537851
  0
ARC
  8
_0-0_
  6
CONTINUOUS
 62
    7
 10
-4.3988766791601268
 20
9.2611272515144307
 40
0.4279555762988537
 50
55.741764515841439
 51
239.91531906698339
  0
ARC
  8
_0-0_
  6
CONTINUOUS
 62
    7
 10
-1.3703252321001447
 20
7.1901397911799529
 40
0.4463844709593518
 50
227.62315229566497
 51
51.511190345537138
  0
LINE
  8
_0-0_
  6
CONTINUOUS
 62
    7
 10
-4.1579703286582959
 20
9.6148363206279797
 11
-1.0925126004933521
 21
7.5395381850419847
  0
LINE
  8
_0-0_
  6
CONTINUOUS
 62
    7
 10
-1.6711901219195955
 20
6.8603831930843535
 11
-4.6134019959402099
 21
8.8908235062651002
  0
ARC
  8
_0-0_
  6
CONTINUOUS
 62
    7
 10
-3.0408843082940553
 20
3.8954012983362754
 40
0.4279555762988537
 50
55.741764515841439
 51
239.91531906698339
  0
ARC
  8
_0-0_
  6
CONTINUOUS
 62
    7
 10
-0.0123328612340731
 20
1.8244138380018109
 40
0.4463844709593518
 50
227.62315229566497
 51
51.511190345537138
  0
LINE
  8
_0-0_
  6
CONTINUOUS
 62
    7
 10
-2.7999779577922244
 20
4.2491103674498385
 11
0.2654797703727194
 21
2.1738122318638426
  0
LINE
  8
_0-0_
  6
CONTINUOUS
 62
    7
 10
-0.3131977510535239
 20
1.4946572399061973
 11
-3.2554096250741384
 21
3.5250975530869448
  0
ARC
  8
_0-0_
  6
CONTINUOUS
 62
    7
 10
0.3794844789040734
 20
5.8087705754769638
 40
0.3973873208489355
 50
55.741764515841439
 51
239.91531906698339
  0
ARC
  8
_0-0_
  6
CONTINUOUS
 62
    7
 10
3.1917108226026141
 20
3.8857107908806734
 40
0.4144998658908267
 50
227.62315229566497
 51
51.511190345537138
  0
LINE
  8
_0-0_
  6
CONTINUOUS
 62
    7
 10
0.6031832329414736
 20
6.1372147110824153
 11
3.4496796948089195
 21
4.2101521566097029
  0
LINE
  8
_0-0_
  6
CONTINUOUS
 62
    7
 10
2.9123362820559873
 20
3.579508235506176
 11
0.1802823990368391
 21
5.4649170977454355
  0
ARC
  8
_0-0_
  6
CONTINUOUS
 62
    7
 10
-1.6740649599666018
 20
-1.411774225713379
 40
0.3973873208489355
 50
55.741764515841439
 51
239.91531906698339
  0
ARC
  8
_0-0_
  6
CONTINUOUS
 62
    7
 10
1.1381613837319673
 20
-3.3348340103096694
 40
0.4144998658908267
 50
227.62315229566497
 51
51.511190345537138
  0
LINE
  8
_0-0_
  6
CONTINUOUS
 62
    7
 10
-1.4503662059291731
 20
-1.0833300901079417
 11
1.3961302559382727
 21
-3.0103926445806541
  0
LINE
  8
_0-0_
  6
CONTINUOUS
 62
    7
 10
0.858786843185312
 20
-3.6410365656841668
 11
-1.873267039833836
 21
-1.7556277034449073
  0
ARC
  8
_0-0_
  6
CONTINUOUS
 62
    7
 10
1.7043550846270659
 20
0.6748969783003468
 40
0.3973873208489355
 50
55.741764515841439
 51
239.91531906698339
  0
ARC
  8
_0-0_
  6
CONTINUOUS
 62
    7
 10
4.5165814283256349
 20
-1.2481628062959578
 40
0.4144998658908267
 50
227.62315229566497
 51
51.511190345537138
  0
LINE
  8
_0-0_
  6
CONTINUOUS
 62
    7
 10
1.9280538386644661
 20
1.0033411139057842
 11
4.7745503005319403
 21
-0.9237214405669282
  0
LINE
  8
_0-0_
  6
CONTINUOUS
 62
    7
 10
4.2372068877789797
 20
-1.5543653616704409
 11
1.5051530047598316
 21
0.3310435005688185
  0
ARC
  8
_0-0_
  6
CONTINUOUS
 62
    7
 10
4.8266279855375114
 20
2.6213880205841003
 40
0.3668190653990173
 50
55.741764515841439
 51
239.91531906698339
  0
ARC
  8
_0-0_
  6
CONTINUOUS
 62
    7
 10
7.4225292258746389
 20
0.8462559117259838
 40
0.3826152608223015
 50
227.62315229566497
 51
51.511190345537138
  0
LINE
  8
_0-0_
  6
CONTINUOUS
 62
    7
 10
5.0331191431105093
 20
2.9245672226814259
 11
7.6606543386804571
 21
1.145740249322011
  0
LINE
  8
_0-0_
  6
CONTINUOUS
 62
    7
 10
7.1646450346008077
 20
0.5636073990726169
 11
4.6427491425831544
 21
2.3039848103703884
  0
ARC
  8
_0-0_
  6
CONTINUOUS
 62
    7
 10
3.0800014104159299
 20
-4.4081192909054527
 40
0.3362508099490992
 50
55.741764515841439
 51
239.91531906698339
  0
ARC
  8
_0-0_
  6
CONTINUOUS
 62
    7
 10
5.4595775473916159
 20
-6.0353237240254094
 40
0.3507306557537763
 50
227.62315229566497
 51
51.511190345537138
  0
LINE
  8
_0-0_
  6
CONTINUOUS
 62
    7
 10
3.2692849715244972
 20
-4.1302050223162388
 11
5.6778589007969753
 21
-5.7607964145623844
  0
LINE
  8
_0-0_
  6
CONTINUOUS
 62
    7
 10
5.2231837053906087
 20
-6.29441819395766
 11
2.9114458043744218
 21
-4.6990722336013624
  0
ARC
  8
_0-0_
  6
CONTINUOUS
 62
    7
 10
6.0940820384357561
 20
-2.2552045566055829
 40
0.3362508099490992
 50
55.741764515841439
 51
239.91531906698339
  0
ARC
  8
_0-0_
  6
CONTINUOUS
 62
    7
 10
8.4736581754114422
 20
-3.8824089897255254
 40
0.3507306557537763
 50
227.62315229566497
 51
51.511190345537138
  0
LINE
  8
_0-0_
  6
CONTINUOUS
 62
    7
 10
6.2833655995443234
 20
-1.977290288016369
 11
8.6919395288168015
 21
-3.6078816802625004
  0
LINE
  8
_0-0_
  6
CONTINUOUS
 62
    7
 10
8.237264333410435
 20
-4.1415034596577902
 11
5.925526432394248
 21
-2.5461574993014926
  0
ARC
  8
_0-0_
  6
CONTINUOUS
 62
    7
 10
9.141284431598633
 20
-0.3341421783072382
 40
0.3362508099490992
 50
55.741764515841439
 51
239.91531906698339
  0
ARC
  8
_0-0_
  6
CONTINUOUS
 62
    7
 10
11.520860568574347
 20
-1.9613466114271807
 40
0.3507306557537763
 50
227.62315229566497
 51
51.511190345537138
  0
LINE
  8
_0-0_
  6
CONTINUOUS
 62
    7
 10
9.3305679927072287
 20
-0.0562279097180242
 11
11.739141921979678
 21
-1.6868193019641557
  0
LINE
  8
_0-0_
  6
CONTINUOUS
 62
    7
 10
11.28446672657334
 20
-2.2204410813594455
 11
8.9727288255571533
 21
-0.6250951210031336
  0
ARC
  8
_0-0_
  6
CONTINUOUS
 62
    7
 10
12.694140279369078
 20
-3.0578200211970517
 40
0.3056825544991811
 50
55.741764515841439
 51
239.91531906698339
  0
ARC
  8
_0-0_
  6
CONTINUOUS
 62
    7
 10
14.857391312983323
 20
-4.5370967785788201
 40
0.3188460506852511
 50
227.62315229566497
 51
51.511190345537138
  0
LINE
  8
_0-0_
  6
CONTINUOUS
 62
    7
 10
12.866216244013215
 20
-2.8051706861159351
 11
15.055828906988195
 21
-4.2875264972487974
  0
LINE
  8
_0-0_
  6
CONTINUOUS
 62
    7
 10
14.642487820255139
 20
-4.7726372057899686
 11
12.540907910240419
 21
-3.3223226963751449
  0
ARC
  8
_0-0_
  6
CONTINUOUS
 62
    7
 10
10.077520833066144
 20
-5.0451259297815545
 40
0.3056825544991811
 50
55.741764515841439
 51
239.91531906698339
  0
ARC
  8
_0-0_
  6
CONTINUOUS
 62
    7
 10
12.240771866680388
 20
-6.5244026871633229
 40
0.3188460506852511
 50
227.62315229566497
 51
51.511190345537138
  0
LINE
  8
_0-0_
  6
CONTINUOUS
 62
    7
 10
10.24959679771028
 20
-4.792476594700438
 11
12.439209460685261
 21
-6.2748324058333003
  0
LINE
  8
_0-0_
  6
CONTINUOUS
 62
    7
 10
12.025868373952205
 20
-6.7599431143744573
 11
9.9242884639374847
 21
-5.3096286049596477
  0
ARC
  8
_0-0_
  6
CONTINUOUS
 62
    7
 10
7.2290490307616846
 20
-7.0655536035091222
 40
0.3056825544991811
 50
55.741764515841439
 51
239.91531906698339
  0
ARC
  8
_0-0_
  6
CONTINUOUS
 62
    7
 10
9.3923000643759575
 20
-8.5448303608908915
 40
0.3188460506852511
 50
227.62315229566497
 51
51.511190345537138
  0
LINE
  8
_0-0_
  6
CONTINUOUS
 62
    7
 10
7.4011249954058496
 20
-6.8129042684280199
 11
9.5907376583808013
 21
-8.2952600795608689
  0
LINE
  8
_0-0_
  6
CONTINUOUS
 62
    7
 10
9.1773965716477743
 20
-8.7803707881020401
 11
7.0758166616330538
 21
-7.3300562786872154
  0
ARC
  8
_0-0_
  6
CONTINUOUS
 62
    7
 10
11.038052022215323
 20
-9.6490512846689782
 40
0.3056825544991811
 50
55.741764515841439
 51
239.91531906698339
  0
ARC
  8
_0-0_
  6
CONTINUOUS
 62
    7
 10
13.201303055829596
 20
-11.128328042050747
 40
0.3188460506852511
 50
227.62315229566497
 51
51.511190345537138
  0
LINE
  8
_0-0_
  6
CONTINUOUS
 62
    7
 10
11.210127986859488
 20
-9.3964019495878617
 11
13.39974064983444
 21
-10.878757760720724
  0
LINE
  8
_0-0_
  6
CONTINUOUS
 62
    7
 10
12.986399563101413
 20
-11.363868469261881
 11
10.884819653086664
 21
-9.9135539598470714
  0
ARC
  8
_0-0_
  6
CONTINUOUS
 62
    7
 10
13.621549703375178
 20
-7.4298930200829494
 40
0.3056825544991811
 50
55.741764515841439
 51
239.91531906698339
  0
ARC
  8
_0-0_
  6
CONTINUOUS
 62
    7
 10
15.784800736989423
 20
-8.9091697774647187
 40
0.3188460506852511
 50
227.62315229566497
 51
51.511190345537138
  0
LINE
  8
_0-0_
  6
CONTINUOUS
 62
    7
 10
13.793625668019315
 20
-7.1772436850018329
 11
15.983238330994295
 21
-8.659599496134696
  0
LINE
  8
_0-0_
  6
CONTINUOUS
 62
    7
 10
15.56989724426124
 20
-9.1447102046758673
 11
13.468317334246519
 21
-7.6943956952610426
  0
ARC
  8
_0-0_
  6
CONTINUOUS
 62
    7
 10
16.246996127139468
 20
-5.450280212656117
 40
0.2751142990492631
 50
55.741764515841439
 51
239.91531906698339
  0
ARC
  8
_0-0_
  6
CONTINUOUS
 62
    7
 10
18.193922057392328
 20
-6.7816292942996972
 40
0.2869614456167261
 50
227.62315229566497
 51
51.511190345537138
  0
LINE
  8
_0-0_
  6
CONTINUOUS
 62
    7
 10
16.401864495319231
 20
-5.2228958110831121
 11
18.372515891996713
 21
-6.557016041102691
  0
LINE
  8
_0-0_
  6
CONTINUOUS
 62
    7
 10
18.000508913936969
 20
-6.9936156787897295
 11
16.109086994923715
 21
-5.6883326203163938
  0
ARC
  8
_0-0_
  6
CONTINUOUS
 62
    7
 10
14.822760225987265
 20
-11.942146180698821
 40
0.2751142990492631
 50
55.741764515841439
 51
239.91531906698339
  0
ARC
  8
_0-0_
  6
CONTINUOUS
 62
    7
 10
16.769686156240098
 20
-13.273495262342401
 40
0.2869614456167261
 50
227.62315229566497
 51
51.511190345537138
  0
LINE
  8
_0-0_
  6
CONTINUOUS
 62
    7
 10
14.977628594166999
 20
-11.714761779125816
 11
16.948279990844455
 21
-13.04888200914538
  0
LINE
  8
_0-0_
  6
CONTINUOUS
 62
    7
 10
16.576273012784739
 20
-13.485481646832433
 11
14.684851093771483
 21
-12.180198588359097
  0
ARC
  8
_0-0_
  6
CONTINUOUS
 62
    7
 10
17.240649081431727
 20
-9.8554749766850946
 40
0.2751142990492631
 50
55.741764515841439
 51
239.91531906698339
  0
ARC
  8
_0-0_
  6
CONTINUOUS
 62
    7
 10
19.187575011684586
 20
-11.186824058328675
 40
0.2869614456167261
 50
227.62315229566497
 51
51.511190345537138
  0
LINE
  8
_0-0_
  6
CONTINUOUS
 62
    7
 10
17.395517449611461
 20
-9.6280905751120898
 11
19.366168846288943
 21
-10.962210805131654
  0
LINE
  8
_0-0_
  6
CONTINUOUS
 62
    7
 10
18.994161868229199
 20
-11.398810442818707
 11
17.102739949215945
 21
-10.093527384345371
  0
ARC
  8
_0-0_
  6
CONTINUOUS
 62
    7
 10
19.559172641446978
 20
-8.0006561286728939
 40
0.2751142990492631
 50
55.741764515841439
 51
239.91531906698339
  0
ARC
  8
_0-0_
  6
CONTINUOUS
 62
    7
 10
21.506098571699837
 20
-9.3320052103164741
 40
0.2869614456167261
 50
227.62315229566497
 51
51.511190345537138
  0
LINE
  8
_0-0_
  6
CONTINUOUS
 62
    7
 10
19.714041009626712
 20
-7.7732717270998881
 11
21.684692406304194
 21
-9.1073919571194679
  0
LINE
  8
_0-0_
  6
CONTINUOUS
 62
    7
 10
21.31268542824445
 20
-9.5439915948065064
 11
19.421263509231196
 21
-8.2387085363331707
  0
LINE
  8
_0-0_
  6
CONTINUOUS
 62
    7
 10
-41.713934194756419
 20
-19.30921301097532
 11
-10.756124374362331
 21
-5.9280198931730217
  0
LINE
  8
_0-0_
  6
CONTINUOUS
 62
    7
 10
-10.756124374362331
 20
-5.9280198931730217
 11
-1.2612183666808097
 21
-11.139177609016819
  0
LINE
  8
_0-0_
  6
CONTINUOUS
 62
    7
 10
-1.2612183666808097
 20
-11.139177609016819
 11
-30.099235217918121
 21
-22.091441282993621
  0
LINE
  8
_0-0_
  6
CONTINUOUS
 62
    7
 10
-41.713934194756419
 20
-19.30921301097532
 11
-38.931705922738118
 21
-20.280784788505521
  0
LINE
  8
_0-0_
  6
CONTINUOUS
 62
    7
 10
-22.724122179393433
 20
-24.829507201487822
 11
6.3788687929884826
 21
-15.378763547330415
  0
LINE
  8
_0-0_
  6
CONTINUOUS
 62
    7
 10
6.3788687929884826
 20
-15.378763547330415
 11
14.416417134374667
 21
-19.662511839168126
  0
LINE
  8
_0-0_
  6
CONTINUOUS
 62
    7
 10
14.416417134374667
 20
-19.662511839168126
 11
-15.304846787344632
 21
-28.185846069319417
  0
LINE
  8
_0-0_
  6
CONTINUOUS
 62
    7
 10
-15.304846787344632
 20
-28.185846069319417
 11
-38.931705922738118
 21
-20.280784788505521
  0
LINE
  8
_0-0_
  6
CONTINUOUS
 62
    7
 10
-30.099235217918121
 20
-22.091441282993621
 11
-22.724122179393433
 21
-24.829507201487822
  0
LINE
  8
_0-0_
  6
CONTINUOUS
 62
    7
 10
-30.099235217918121
 20
-22.091441282993621
 11
-30.849995227827819
 21
-22.312253050614125
  0
LINE
  8
_0-0_
  6
CONTINUOUS
 62
    7
 10
-21.796712755387333
 20
-24.873669555011908
 11
5.6722711366028715
 21
-16.262010617812415
  0
ARC
  8
_0-0_
  6
CONTINUOUS
 62
    7
 10
-10.358663192645411
 20
-17.020800146544666
 40
10.077142891950063
 50
89.748904565817625
 51
107.86468082305302
  0
ARC
  8
_0-0_
  6
CONTINUOUS
 62
    7
 10
-10.210889163545533
 20
-8.426589971401917
 40
1.4864514205142341
 50
52.147985190931891
 51
93.996988680774081
  0
ARC
  8
_0-0_
  6
CONTINUOUS
 62
    7
 10
-3.9907915248819155
 20
-11.156163129603009
 40
0.891901582967751
 50
283.77159971708232
 51
54.2213185794187
  0
ARC
  8
_0-0_
  6
CONTINUOUS
 62
    7
 10
-38.471213018264095
 20
-19.595465356999703
 40
0.8605698372490429
 50
91.256402236828976
 51
184.46840821539485
  0
ARC
  8
_0-0_
  6
CONTINUOUS
 62
    7
 10
-38.84208232293922
 20
-19.785906650485465
 40
0.5024717542751411
 50
165.78414652632557
 51
279.97366068035143
  0
ARC
  8
_0-0_
  6
CONTINUOUS
 62
    7
 10
-31.845929632117603
 20
-19.606371873156853
 40
2.8833449818163639
 50
243.18948077258
 51
290.2067878785499
  0
ARC
  8
_0-0_
  6
CONTINUOUS
 62
    7
 10
-17.945755528085826
 20
-26.51297611782649
 40
1.1761574816560671
 50
101.25930293239935
 51
155.32102345208696
  0
ARC
  8
_0-0_
  6
CONTINUOUS
 62
    7
 10
-18.721407046345448
 20
-26.078097378396457
 40
0.2984184470602943
 50
169.14358665193774
 51
264.59620863975096
  0
ARC
  8
_0-0_
  6
CONTINUOUS
 62
    7
 10
-15.157440012743921
 20
-27.004801506830312
 40
0.7337757444073329
 50
235.80587703670213
 51
309.91893341552134
  0
ARC
  8
_0-0_
  6
CONTINUOUS
 62
    7
 10
6.7763299747053747
 20
-18.470128294017435
 40
2.4687506131566357
 50
63.434948822922081
 51
116.56505117707792
  0
ARC
  8
_0-0_
  6
CONTINUOUS
 62
    7
 10
12.310064881507811
 20
-19.512743857651607
 40
0.5710488911930583
 50
286.60698057861737
 51
63.865736039930397
  0
ARC
  8
_0-0_
  6
CONTINUOUS
 62
    7
 10
6.3715084007344398
 20
-19.68459301593014
 40
1.4266635224103541
 50
65.947470586950658
 51
127.8749836510987
  0
ARC
  8
_0-0_
  6
CONTINUOUS
 62
    7
 10
9.611553070952608
 20
-20.42210431978264
 40
0.3440131120844476
 50
299.19748604606343
 51
41.87786953788607
  0
ARC
  8
_0-0_
  6
CONTINUOUS
 62
    7
 10
-36.28397209099775
 20
-19.913434302373226
 40
0.4275765894344821
 50
89.731007706303899
 51
239.22077030018821
  0
ARC
  8
_0-0_
  6
CONTINUOUS
 62
    7
 10
-31.695004162941373
 20
-18.882130738480107
 40
3.072265021314216
 50
253.40754126833366
 51
283.41017818927708
  0
ARC
  8
_0-0_
  6
CONTINUOUS
 62
    7
 10
-6.2162344320848479
 20
-11.624963497781927
 40
0.2651212881213144
 50
271.90915243299656
 51
88.090847567003465
  0
LINE
  8
_0-0_
  6
CONTINUOUS
 62
    7
 10
-38.490082387497111
 20
-18.735102415162025
 11
-13.450027939332431
 21
-7.4295399129924169
  0
LINE
  8
_0-0_
  6
CONTINUOUS
 62
    7
 10
-9.2987667080670224
 20
-7.2528904988960283
 11
-3.469336042885816
 21
-10.432579952631222
  0
LINE
  8
_0-0_
  6
CONTINUOUS
 62
    7
 10
-30.982482288400107
 20
-21.870629515373118
 11
-6.2074019613800306
 21
-11.889937618926517
  0
LINE
  8
_0-0_
  6
CONTINUOUS
 62
    7
 10
-6.2074019613800306
 20
-11.359989376637323
 11
-10.270338485597238
 21
-9.1960340539564172
  0
ARC
  8
_0-0_
  6
CONTINUOUS
 62
    7
 10
-11.144047532980823
 20
-10.200923583405689
 40
1.3316044705079439
 50
124.69705907132608
 51
124.81746626293676
  0
ARC
  8
_0-0_
  6
CONTINUOUS
 62
    7
 10
-11.144047532980823
 20
-10.200923583405689
 40
1.3316044705079439
 50
48.99441761922894
 51
124.69705907132608
  0
LINE
  8
_0-0_
  6
CONTINUOUS
 62
    7
 10
-11.902046496989287
 20
-9.1061139942812375
 11
-36.281964711292119
 21
-19.485862425071723
  0
LINE
  8
_0-0_
  6
CONTINUOUS
 62
    7
 10
-36.502776478912622
 20
-20.280784788505521
 11
-32.572327015267717
 21
-21.826467161849017
  0
LINE
  8
_0-0_
  6
CONTINUOUS
 62
    7
 10
-33.146437611081012
 20
-22.179765990041808
 11
-38.931705922738118
 21
-20.280784788505521
  0
LINE
  8
_0-0_
  6
CONTINUOUS
 62
    7
 10
-18.175399766411104
 20
-25.359455443777016
 11
5.4956217225064687
 21
-18.558453001065622
  0
LINE
  8
_0-0_
  6
CONTINUOUS
 62
    7
 10
6.9529793888017775
 20
-18.38180358696922
 11
9.8676947213923665
 21
-20.19246008145732
  0
LINE
  8
_0-0_
  6
CONTINUOUS
 62
    7
 10
12.561598286362466
 20
-19.000076536306615
 11
7.8803888128078778
 21
-16.262010617812415
  0
LINE
  8
_0-0_
  6
CONTINUOUS
 62
    7
 10
9.7793700143441651
 20
-20.722408323746514
 11
-14.686573838007222
 21
-27.567573119982022
  0
LINE
  8
_0-0_
  6
CONTINUOUS
 62
    7
 10
12.473273579314265
 20
-20.059973020885018
 11
11.678351215880452
 21
-20.413271849077823
  0
LINE
  8
_0-0_
  6
CONTINUOUS
 62
    7
 10
-18.749510362224427
 20
-26.375189574831317
 11
-15.569820908489207
 21
-27.611735473506123
  0
LINE
  8
_0-0_
  6
CONTINUOUS
 62
    7
 10
-21.178439806049923
 20
-25.403617797301116
 11
-21.222602159574038
 21
-25.933566039590325
  0
LINE
  8
_0-0_
  6
CONTINUOUS
 62
    7
 10
-21.222602159574038
 20
-25.933566039590325
 11
-20.869303331381232
 21
-26.375189574831317
  0
LINE
  8
_0-0_
  6
CONTINUOUS
 62
    7
 10
-21.178439806049923
 20
-25.403617797301116
 11
6.6438429141330584
 21
-16.703634153053422
  0
LINE
  8
_0-0_
  6
CONTINUOUS
 62
    7
 10
6.6438429141330584
 20
-16.703634153053422
 11
7.1296288028981802
 21
-16.791958860101623
  0
LINE
  8
_0-0_
  6
CONTINUOUS
 62
    7
 10
7.1296288028981802
 20
-16.791958860101623
 11
11.766675922928682
 21
-19.441700071547622
  0
LINE
  8
_0-0_
  6
CONTINUOUS
 62
    7
 10
11.766675922928682
 20
-19.441700071547622
 11
11.810838276452769
 21
-19.662511839168126
  0
LINE
  8
_0-0_
  6
CONTINUOUS
 62
    7
 10
11.810838276452769
 20
-19.662511839168126
 11
11.722513569404567
 21
-20.148297727933219
  0
LINE
  8
_0-0_
  6
CONTINUOUS
 62
    7
 10
11.722513569404567
 20
-20.148297727933219
 11
11.457539448259963
 21
-20.23662243498142
  0
ENDBLK
  0
ENDSEC
  0
SECTION
  2
ENTITIES
  0
INSERT
  2
-000-1
  8
_0-0_
 10
160.04764071233595
 20
110.1196542311192
 41
1
 42
1
 50
0
  0
ENDSEC
  0
EOF
