  0
SECTION
  2
HEADER
  9
$ACADVER
  1
AC1009
  9
$INSBASE
 10
0
 20
0
 30
0
  9
$EXTMIN
 10
0
 20
0
  9
$EXTMAX
 10
297
 20
210
  9
$LIMMIN
 10
0
 20
0
  9
$LIMMAX
 10
297
 20
210
  9
$LTSCALE
 40
1
  0
ENDSEC
  0
SECTION
  2
TABLES
  0
TABLE
  2
LTYPE
 70
     9
  0
LTYPE
  2
CONTINUOUS
 70
    64
  3
実線
 72
    65
 73
     0
 40
0.0
  0
LTYPE
  2
DASHED1
 70
    64
  3
--  --  --  --  --  --  --  --  
 72
    65
 73
     2
 40
2.5
 49
1.25
 49
-1.25
  0
LTYPE
  2
DASHED2
 70
    64
  3
----    ----    ----    ----    
 72
    65
 73
     2
 40
5.0
 49
2.5
 49
-2.5
  0
LTYPE
  2
DASHED3
 70
    64
  3
------  ------  ------  ------  
 72
    65
 73
     2
 40
5.0
 49
3.75
 49
-1.25
  0
LTYPE
  2
CENTER1
 70
    64
  3
----- - ----- - ----- - ----- - 
 72
    65
 73
     4
 40
10.0
 49
6.25
 49
-1.25
 49
1.25
 49
-1.25
  0
LTYPE
  2
CENTER2
 70
    64
  3
----------  --  ----------  --  
 72
    65
 73
     4
 40
20.0
 49
12.5
 49
-2.5
 49
2.5
 49
-2.5
  0
LTYPE
  2
PHANTOM1
 70
    64
  3
--- - - --- - - --- - - --- - - 
 72
    65
 73
     6
 40
10.0
 49
3.25
 49
-1.25
 49
1.25
 49
-1.25
 49
1.25
 49
-1.25
  0
LTYPE
  2
PHANTOM2
 70
    64
  3
--------  -  -  --------  -  -  
 72
    65
 73
     6
 40
20.0
 49
10.0
 49
-2.5
 49
1.25
 49
-2.5
 49
1.25
 49
-2.5
  0
LTYPE
  2
DOT
 70
    64
  3
-   -   -   -   -   -   -   -   
 72
    65
 73
     2
 40
2.5
 49
0.625
 49
-1.875
  0
LTYPE
  2
DUMMY
 70
    64
  3
ダミー
 72
    65
 73
     0
 40
0.0
  0
LTYPE
  2
RAND1
 70
    64
  3
ランダム線1
 72
    65
 73
     4
 40
10.0
 49
1.0
 49
-2.0
 49
3.0
 49
-4.0
  0
LTYPE
  2
RAND2
 70
    64
  3
ランダム線2
 72
    65
 73
     4
 40
14.0
 49
2.0
 49
-3.0
 49
4.0
 49
-5.0
  0
LTYPE
  2
RAND3
 70
    64
  3
ランダム線3
 72
    65
 73
     4
 40
18.0
 49
3.0
 49
-4.0
 49
5.0
 49
-6.0
  0
LTYPE
  2
RAND4
 70
    64
  3
ランダム線4
 72
    65
 73
     4
 40
22.0
 49
4.0
 49
-5.0
 49
6.0
 49
-7.0
  0
LTYPE
  2
RAND5
 70
    64
  3
ランダム線5
 72
    65
 73
     4
 40
26.0
 49
5.0
 49
-6.0
 49
7.0
 49
-8.0
  0
LTYPE
  2
LONG1
 70
    64
  3
----------  --  ----------  --  
 72
    65
 73
     4
 40
40.0
 49
32.5
 49
-2.5
 49
2.5
 49
-2.5
  0
LTYPE
  2
LONG2
 70
    64
  3
--------  -  -  --------  -  -  
 72
    65
 73
     6
 40
40.0
 49
30.0
 49
-2.5
 49
1.25
 49
-2.5
 49
1.25
 49
-2.5
  0
LTYPE
  2
LONG3
 70
    64
  3
+++++++++++++++..+++++++++++++++
 72
    65
 73
     2
 40
40.0
 49
37.5
 49
-2.5
  0
LTYPE
  2
LONG4
 70
    64
  3
+++++++++++++++..+++++++++++++++
 72
    65
 73
     2
 40
80.0
 49
75.0
 49
-5.0
  0
LTYPE
  2
LONG5
 70
    64
  3
----------  --  ----------  --  
 72
    65
 73
     4
 40
60.0
 49
37.5
 49
-7.5
 49
7.5
 49
-7.5
  0
LTYPE
  2
dashed
 70
   64
  3
-------   -------------   ------
 72
   65
 73
    2
 40
7.5
 49
6
 49
-1.5
  0
LTYPE
  2
dashed_spaced
 70
   64
  3
----        --------        ----
 72
   65
 73
    2
 40
12
 49
6
 49
-6
  0
LTYPE
  2
long_dashed_dotted
 70
   64
  3
------------- --- --------------
 72
   65
 73
    4
 40
15.25
 49
12
 49
-1.5
 49
0.25
 49
-1.5
  0
LTYPE
  2
long_dashed_double-dotted
 70
   64
  3
----------- --- --- ------------
 72
   65
 73
    6
 40
17
 49
12
 49
-1.5
 49
0.25
 49
-1.5
 49
0.25
 49
-1.5
  0
LTYPE
  2
long_dashed_triplicate-dotted
 70
   64
  3
--------- --- --- --- ----------
 72
   65
 73
    8
 40
18.75
 49
12
 49
-1.5
 49
0.25
 49
-1.5
 49
0.25
 49
-1.5
 49
0.25
 49
-1.5
  0
LTYPE
  2
dotted
 70
   64
  3
   -       -       -       -    
 72
   65
 73
    2
 40
1.75
 49
0.25
 49
-1.5
  0
LTYPE
  2
chain
 70
   64
  3
-------------- -- --------------
 72
   65
 73
    4
 40
18.5
 49
12
 49
-1.5
 49
3.5
 49
-1.5
  0
LTYPE
  2
chain_double_dash
 70
   64
  3
------------ -- -- -------------
 72
   65
 73
    6
 40
23.5
 49
12
 49
-1.5
 49
3.5
 49
-1.5
 49
3.5
 49
-1.5
  0
LTYPE
  2
dashed_dotted
 70
   64
  3
-----------     -     ----------
 72
   65
 73
    4
 40
9.25
 49
6
 49
-1.5
 49
0.25
 49
-1.5
  0
LTYPE
  2
double-dashed_dotted
 70
   64
  3
------   -----------   -   -----
 72
   65
 73
    6
 40
16.75
 49
6
 49
-1.5
 49
6
 49
-1.5
 49
0.25
 49
-1.5
  0
LTYPE
  2
dashed_double-dotted
 70
   64
  3
---------    -    -    ---------
 72
   65
 73
    6
 40
11
 49
6
 49
-1.5
 49
0.25
 49
-1.5
 49
0.25
 49
-1.5
  0
LTYPE
  2
double-dashed_double-dotted
 70
   64
  3
-----   ---------   -   -   ----
 72
   65
 73
    8
 40
18.5
 49
6
 49
-1.5
 49
6
 49
-1.5
 49
0.25
 49
-1.5
 49
0.25
 49
-1.5
  0
LTYPE
  2
dashed_triplicate-dotted
 70
   64
  3
-------    -    -    -    ------
 72
   65
 73
    8
 40
12.75
 49
6
 49
-1.5
 49
0.25
 49
-1.5
 49
0.25
 49
-1.5
 49
0.25
 49
-1.5
  0
LTYPE
  2
double-dashed_triplicate-dotted
 70
   64
  3
-----  ---------  -  -  -  -----
 72
   65
 73
   10
 40
20.25
 49
6
 49
-1.5
 49
6
 49
-1.5
 49
0.25
 49
-1.5
 49
0.25
 49
-1.5
 49
0.25
 49
-1.5
  0
LTYPE
  2
undefined
 70
   64
  3
--------------------------------
 72
   65
 73
    0
 40
0
  0
LTYPE
  2
_
 70
   64
  3
                                
 72
   65
 73
    0
 40
0
  0
LTYPE
  2
__18
 70
   64
  3
                                
 72
   65
 73
    0
 40
0
  0
LTYPE
  2
__19
 70
   64
  3
                                
 72
   65
 73
    0
 40
0
  0
LTYPE
  2
__20
 70
   64
  3
                                
 72
   65
 73
    0
 40
0
  0
LTYPE
  2
__21
 70
   64
  3
                                
 72
   65
 73
    0
 40
0
  0
LTYPE
  2
__22
 70
   64
  3
                                
 72
   65
 73
    0
 40
0
  0
LTYPE
  2
__23
 70
   64
  3
                                
 72
   65
 73
    0
 40
0
  0
LTYPE
  2
__24
 70
   64
  3
                                
 72
   65
 73
    0
 40
0
  0
LTYPE
  2
__25
 70
   64
  3
                                
 72
   65
 73
    0
 40
0
  0
LTYPE
  2
__26
 70
   64
  3
                                
 72
   65
 73
    0
 40
0
  0
LTYPE
  2
__27
 70
   64
  3
                                
 72
   65
 73
    0
 40
0
  0
LTYPE
  2
__28
 70
   64
  3
                                
 72
   65
 73
    0
 40
0
  0
LTYPE
  2
__29
 70
   64
  3
                                
 72
   65
 73
    0
 40
0
  0
LTYPE
  2
__30
 70
   64
  3
                                
 72
   65
 73
    0
 40
0
  0
LTYPE
  2
__31
 70
   64
  3
                                
 72
   65
 73
    0
 40
0
  0
LTYPE
  2
__32
 70
   64
  3
                                
 72
   65
 73
    0
 40
0
  0
ENDTAB
  0
TABLE
  2
STYLE
  5
3
100
AcDbSymbolTable
 70
     1
  0
STYLE
  5
10
100
AcDbSymbolTableRecord
100
AcDbTextStyleTableRecord
  2
STANDARD
 70
     0
 40
0.0
 41
1.0
 50
0.0
 71
     0
 42
0.2
  3
txt
  4
bigfont.shx
  0
STYLE
  5
26
100
AcDbSymbolTableRecord
100
AcDbTextStyleTableRecord
  2
TATEGAKI
 70
    68
 40
0.0
 41
1.0
 50
0.0
 71
     0
 42
1.0
  3
txt
  4
bigfont.shx
  0
ENDTAB
  0
TABLE
  2
LAYER
 70
    2
  0
LAYER
  2
_0-0_
 70
   64
 62
    7
  6
CONTINUOUS
  0
LAYER
  2
ADD_LINE
 70
   64
 62
    7
  6
CONTINUOUS
  0
ENDTAB
  0
ENDSEC
  0
SECTION
  2
BLOCKS
  0
BLOCK
  2
-000-1
 70
   64
 10
0
 20
0
 30
0
  0
LINE
  8
_0-0_
  6
CONTINUOUS
 62
    7
 10
-19.087929836169984
 20
32.566715906895617
 11
-15.230192785449155
 21
33.520660516819937
  0
LINE
  8
_0-0_
  6
CONTINUOUS
 62
    7
 10
-15.230192785449155
 20
33.520660516819937
 11
-11.136214155862383
 21
33.525487088285963
  0
LINE
  8
_0-0_
  6
CONTINUOUS
 62
    7
 10
-11.136214155862383
 20
33.525487088285963
 11
-6.9303874164164867
 21
32.581048968362076
  0
LINE
  8
_0-0_
  6
CONTINUOUS
 62
    7
 10
-6.9303874164164867
 20
32.581048968362076
 11
-2.7405044843385369
 21
30.716042431413467
  0
LINE
  8
_0-0_
  6
CONTINUOUS
 62
    7
 10
-2.7405044843385369
 20
30.716042431413467
 11
1.3061271676633694
 21
27.987134757326384
  0
LINE
  8
_0-0_
  6
CONTINUOUS
 62
    7
 10
1.3061271676633694
 20
27.987134757326384
 11
5.0865526845375726
 21
24.477242424884121
  0
LINE
  8
_0-0_
  6
CONTINUOUS
 62
    7
 10
5.0865526845375726
 20
24.477242424884121
 11
8.4859057499414305
 21
20.293011736516672
  0
LINE
  8
_0-0_
  6
CONTINUOUS
 62
    7
 10
8.4859057499414305
 20
20.293011736516672
 11
11.400898741138327
 21
15.561578424367223
  0
LINE
  8
_0-0_
  6
CONTINUOUS
 62
    7
 10
11.400898741138327
 20
15.561578424367223
 11
13.742961071148365
 21
10.426704695404649
  0
LINE
  8
_0-0_
  6
CONTINUOUS
 62
    7
 10
13.742961071148365
 20
10.426704695404649
 11
15.440930361214903
 21
5.0444110895119918
  0
LINE
  8
_0-0_
  6
CONTINUOUS
 62
    7
 10
15.440930361214903
 20
5.0444110895119918
 11
16.443214673673204
 21
-0.4217641256676687
  0
LINE
  8
_0-0_
  6
CONTINUOUS
 62
    7
 10
16.443214673673204
 20
-0.4217641256676687
 11
16.719360106869551
 21
-5.8057339822392366
  0
LINE
  8
_0-0_
  6
CONTINUOUS
 62
    7
 10
16.719360106869551
 20
-5.8057339822392366
 11
16.260976121552609
 21
-10.943909280530978
  0
LINE
  8
_0-0_
  6
CONTINUOUS
 62
    7
 10
16.260976121552609
 20
-10.943909280530978
 11
15.08199048316272
 21
-15.680169164146452
  0
LINE
  8
_0-0_
  6
CONTINUOUS
 62
    7
 10
15.08199048316272
 20
-15.680169164146452
 11
13.218226073726875
 21
-19.870604773185153
  0
LINE
  8
_0-0_
  6
CONTINUOUS
 62
    7
 10
13.218226073726875
 20
-19.870604773185153
 11
10.726312431715463
 21
-23.387891842129182
  0
LINE
  8
_0-0_
  6
CONTINUOUS
 62
    7
 10
10.726312431715463
 20
-23.387891842129182
 11
7.6819650921718576
 21
-26.125159383221774
  0
LINE
  8
_0-0_
  6
CONTINUOUS
 62
    7
 10
7.6819650921718576
 20
-26.125159383221774
 11
4.1776850084940307
 21
-27.999236907351094
  0
LINE
  8
_0-0_
  6
CONTINUOUS
 62
    7
 10
-19.087929836169984
 20
32.566715906895617
 11
-22.329280736476441
 21
30.793639173268229
  0
LINE
  8
_0-0_
  6
CONTINUOUS
 62
    7
 10
-22.329280736476441
 20
30.793639173268229
 11
-25.118687862836815
 21
28.154303564767002
  0
LINE
  8
_0-0_
  6
CONTINUOUS
 62
    7
 10
-25.118687862836815
 20
28.154303564767002
 11
-27.37139649122475
 21
24.728903958287997
  0
LINE
  8
_0-0_
  6
CONTINUOUS
 62
    7
 10
-27.37139649122475
 20
24.728903958287997
 11
-29.018959209892266
 21
20.621519387538239
  0
LINE
  8
_0-0_
  6
CONTINUOUS
 62
    7
 10
-29.018959209892266
 20
20.621519387538239
 11
-30.01131565933958
 21
15.95695065426305
  0
LINE
  8
_0-0_
  6
CONTINUOUS
 62
    7
 10
-30.01131565933958
 20
15.95695065426305
 11
-30.318313591006849
 21
10.876928319037358
  0
LINE
  8
_0-0_
  6
CONTINUOUS
 62
    7
 10
-30.318313591006849
 20
10.876928319037358
 11
-29.930625028088805
 21
5.5358062899016529
  0
LINE
  8
_0-0_
  6
CONTINUOUS
 62
    7
 10
-29.930625028088805
 20
5.5358062899016529
 11
-28.860029691389848
 21
0.0958718569730576
  0
LINE
  8
_0-0_
  6
CONTINUOUS
 62
    7
 10
-28.860029691389848
 20
0.0958718569730576
 11
-27.139057078468177
 21
-5.2775853247435309
  0
LINE
  8
_0-0_
  6
CONTINUOUS
 62
    7
 10
-27.139057078468177
 20
-5.2775853247435309
 11
-24.819998071313258
 21
-10.421295477882172
  0
LINE
  8
_0-0_
  6
CONTINUOUS
 62
    7
 10
-24.819998071313258
 20
-10.421295477882172
 11
-21.973316104357032
 21
-15.1789695722827
  0
LINE
  8
_0-0_
  6
CONTINUOUS
 62
    7
 10
-21.973316104357032
 20
-15.1789695722827
 11
-18.68550616867487
 21
-19.406048088085999
  0
LINE
  8
_0-0_
  6
CONTINUOUS
 62
    7
 10
-18.68550616867487
 20
-19.406048088085999
 11
-15.056466705450369
 21
-22.974093383594326
  0
LINE
  8
_0-0_
  6
CONTINUOUS
 62
    7
 10
-15.056466705450369
 20
-22.974093383594326
 11
-11.196464242391038
 21
-25.774692208021694
  0
LINE
  8
_0-0_
  6
CONTINUOUS
 62
    7
 10
-11.196464242391038
 20
-25.774692208021694
 11
-7.2227830010814316
 21
-27.722749783259264
  0
LINE
  8
_0-0_
  6
CONTINUOUS
 62
    7
 10
-7.2227830010814316
 20
-27.722749783259264
 11
-3.2561612752590108
 21
-28.759075365648147
  0
LINE
  8
_0-0_
  6
CONTINUOUS
 62
    7
 10
-3.2561612752590108
 20
-28.759075365648147
 11
0.5828771411445146
 21
-28.852180726773486
  0
LINE
  8
_0-0_
  6
CONTINUOUS
 62
    7
 10
0.5828771411445146
 20
-28.852180726773486
 11
4.1776850084939738
 21
-27.999236907351108
  0
LINE
  8
_0-0_
  6
CONTINUOUS
 62
    7
 10
-17.675038246413045
 20
28.799005000877155
 11
-14.159698994200333
 21
29.650551850755402
  0
LINE
  8
_0-0_
  6
CONTINUOUS
 62
    7
 10
-14.159698994200333
 20
29.650551850755402
 11
-10.444937574872462
 21
29.659123956691712
  0
LINE
  8
_0-0_
  6
CONTINUOUS
 62
    7
 10
-10.444937574872462
 20
29.659123956691712
 11
-6.6436251343957551
 21
28.824460859584899
  0
LINE
  8
_0-0_
  6
CONTINUOUS
 62
    7
 10
-6.6436251343957551
 20
28.824460859584899
 11
-2.8712626277171793
 21
27.171923375280652
  0
LINE
  8
_0-0_
  6
CONTINUOUS
 62
    7
 10
-2.8712626277171793
 20
27.171923375280652
 11
0.7575286193053969
 21
24.751723019015213
  0
LINE
  8
_0-0_
  6
CONTINUOUS
 62
    7
 10
0.7575286193053969
 20
24.751723019015213
 11
4.1324896208881299
 21
21.637396353933251
  0
LINE
  8
_0-0_
  6
CONTINUOUS
 62
    7
 10
4.1324896208881299
 20
21.637396353933251
 11
7.151073894810601
 21
17.923570619827967
  0
LINE
  8
_0-0_
  6
CONTINUOUS
 62
    7
 10
7.151073894810601
 20
17.923570619827967
 11
9.7215632853870559
 21
13.72308853234362
  0
LINE
  8
_0-0_
  6
CONTINUOUS
 62
    7
 10
9.7215632853870559
 20
13.72308853234362
 11
11.765854773215189
 21
9.163579614161943
  0
LINE
  8
_0-0_
  6
CONTINUOUS
 62
    7
 10
11.765854773215189
 20
9.163579614161943
 11
13.221833595898751
 21
4.3835822365390511
  0
LINE
  8
_0-0_
  6
CONTINUOUS
 62
    7
 10
13.221833595898751
 20
4.3835822365390511
 11
14.045260573671335
 21
-0.4716657990013759
  0
LINE
  8
_0-0_
  6
CONTINUOUS
 62
    7
 10
14.045260573671335
 20
-0.4716657990013759
 11
14.211116294487489
 21
-5.2546402377734767
  0
LINE
  8
_0-0_
  6
CONTINUOUS
 62
    7
 10
14.211116294487489
 20
-5.2546402377734767
 11
13.714361316197262
 21
-9.8200128217570359
  0
LINE
  8
_0-0_
  6
CONTINUOUS
 62
    7
 10
13.714361316197262
 20
-9.8200128217570359
 11
12.57008928744586
 21
-14.029067015177692
  0
LINE
  8
_0-0_
  6
CONTINUOUS
 62
    7
 10
12.57008928744586
 20
-14.029067015177692
 11
10.813068334797272
 21
-17.753912836252542
  0
LINE
  8
_0-0_
  6
CONTINUOUS
 62
    7
 10
10.813068334797272
 20
-17.753912836252542
 11
8.4966846508022584
 21
-20.881372729571172
  0
LINE
  8
_0-0_
  6
CONTINUOUS
 62
    7
 10
8.4966846508022584
 20
-20.881372729571172
 11
5.6913203815522948
 21
-23.316420408846174
  0
LINE
  8
_0-0_
  6
CONTINUOUS
 62
    7
 10
5.6913203815522948
 20
-23.316420408846174
 11
2.4822151007857158
 21
-24.985068182536327
  0
LINE
  8
_0-0_
  6
CONTINUOUS
 62
    7
 10
2.4822151007857158
 20
-24.985068182536342
 11
-0.4727537736787255
 21
-25.626598813783904
  0
LINE
  8
_0-0_
  6
CONTINUOUS
 62
    7
 10
-0.4727537736787255
 20
-25.626598813783904
 11
-3.6441713856251212
 21
-25.431535937619277
  0
LINE
  8
_0-0_
  6
CONTINUOUS
 62
    7
 10
-3.6441713856251212
 20
-25.431535937619277
 11
-6.9356758157291765
 21
-24.405806440828133
  0
LINE
  8
_0-0_
  6
CONTINUOUS
 62
    7
 10
-6.9356758157291765
 20
-24.405806440828133
 11
-10.247256367463841
 21
-22.580576595126335
  0
LINE
  8
_0-0_
  6
CONTINUOUS
 62
    7
 10
-10.247256367463841
 20
-22.580576595126335
 11
-13.478292341505231
 21
-20.011305085764622
  0
LINE
  8
_0-0_
  6
CONTINUOUS
 62
    7
 10
-13.478292341505231
 20
-20.011305085764622
 11
-16.530610344765215
 21
-16.776057927440878
  0
LINE
  8
_0-0_
  6
CONTINUOUS
 62
    7
 10
-16.530610344765215
 20
-16.776057927440878
 11
-19.311467239262178
 21
-12.973136467946677
  0
LINE
  8
_0-0_
  6
CONTINUOUS
 62
    7
 10
-19.311467239262178
 20
-12.973136467946677
 11
-21.736368095438301
 21
-8.7180905514576672
  0
LINE
  8
_0-0_
  6
CONTINUOUS
 62
    7
 10
-21.736368095438301
 20
-8.7180905514576672
 11
-23.731633527837708
 21
-4.1402075949892252
  0
LINE
  8
_0-0_
  6
CONTINUOUS
 62
    7
 10
-23.731633527837708
 20
-4.1402075949892252
 11
-25.236638405949996
 21
0.6214157443469003
  0
LINE
  8
_0-0_
  6
CONTINUOUS
 62
    7
 10
-25.236638405949996
 20
0.6214157443469003
 11
-26.205653918122913
 21
5.4220999508826493
  0
LINE
  8
_0-0_
  6
CONTINUOUS
 62
    7
 10
-26.205653918122913
 20
5.4220999508826493
 11
-26.609237018364603
 21
10.11597866426585
  0
LINE
  8
_0-0_
  6
CONTINUOUS
 62
    7
 10
-26.609237018364603
 20
10.11597866426585
 11
-26.435125038397111
 21
14.560430755007612
  0
LINE
  8
_0-0_
  6
CONTINUOUS
 62
    7
 10
-26.435125038397111
 20
14.560430755007612
 11
-25.688608282626852
 21
18.620413795331995
  0
LINE
  8
_0-0_
  6
CONTINUOUS
 62
    7
 10
-25.688608282626852
 20
18.620413795331995
 11
-24.392369284922218
 21
22.172567255009294
  0
LINE
  8
_0-0_
  6
CONTINUOUS
 62
    7
 10
-24.392369284922218
 20
22.172567255009294
 11
-22.585793611299842
 21
25.108960748643607
  0
LINE
  8
_0-0_
  6
CONTINUOUS
 62
    7
 10
-22.585793611299842
 20
25.108960748643607
 11
-20.323773149431368
 21
27.340373445817686
  0
LINE
  8
_0-0_
  6
CONTINUOUS
 62
    7
 10
-20.323773149431368
 20
27.340373445817686
 11
-17.675038246413074
 21
28.799005000877127
  0
ARC
  8
_0-0_
  6
CONTINUOUS
 62
    7
 10
-2.0020020157274061
 20
-6.9780496320009222
 40
22.055383664378279
 50
285.00099462072177
 51
343.58436664218971
  0
ARC
  8
_0-0_
  6
CONTINUOUS
 62
    7
 10
-12.783742123778303
 20
-4.584259237484237
 40
33.082638823095834
 50
344.88468764333186
 51
17.979504724997419
  0
ARC
  8
_0-0_
  6
CONTINUOUS
 62
    7
 10
-30.951521296230517
 20
-8.020738422962939
 40
51.477172687705547
 50
15.37488367602886
 51
38.45822555787386
  0
ARC
  8
_0-0_
  6
CONTINUOUS
 62
    7
 10
-15.49382726921673
 20
3.6929129537667036
 40
32.090643432123137
 50
39.246171769034355
 51
69.224946417297531
  0
ARC
  8
_0-0_
  6
CONTINUOUS
 62
    7
 10
-10.731672854704946
 20
14.785261966724544
 40
20.037079479639132
 50
70.706511684785809
 51
97.757710519385867
  0
ARC
  8
_0-0_
  6
CONTINUOUS
 62
    7
 10
-8.9386585830830043
 20
10.313673368224823
 40
24.737598276076866
 50
100.47558689847313
 51
116.39431074737081
  0
ARC
  8
_0-0_
  6
CONTINUOUS
 62
    7
 10
-15.144398321134396
 20
-1.8859761580386492
 40
17.830908277965353
 50
344.76725335816218
 51
23.18620859199298
  0
ARC
  8
_0-0_
  6
CONTINUOUS
 62
    7
 10
-12.125645342647367
 20
0.7099197902982536
 40
14.084935099219084
 50
18.308302037916665
 51
62.003697211921946
  0
ARC
  8
_0-0_
  6
CONTINUOUS
 62
    7
 10
-10.016677674615288
 20
6.1468792281781743
 40
8.3228924689929844
 50
57.248084925535807
 51
92.614938755479798
  0
ARC
  8
_0-0_
  6
CONTINUOUS
 62
    7
 10
-10.742261719223229
 20
8.5389629304200803
 40
5.9322332154402799
 50
86.65760813562207
 51
141.79788250028631
  0
ARC
  8
_0-0_
  6
CONTINUOUS
 62
    7
 10
-8.902994380494782
 20
6.4308296172241155
 40
8.6968508282063368
 50
138.37549301673019
 51
181.94311081533317
  0
ARC
  8
_0-0_
  6
CONTINUOUS
 62
    7
 10
1.9337072976419805
 20
5.8062958144310199
 40
19.53133378109256
 50
179.03292102947401
 51
216.7593448206045
  0
ARC
  8
_0-0_
  6
CONTINUOUS
 62
    7
 10
-3.9437479368547983
 20
-0.0327364170897412
 40
11.387470592813367
 50
210.90974369605391
 51
265.87525181144821
  0
ARC
  8
_0-0_
  6
CONTINUOUS
 62
    7
 10
-4.278450634310083
 20
-5.3638332737821104
 40
6.0463113348273207
 50
265.40503199315305
 51
322.13966562957626
  0
ARC
  8
_0-0_
  6
CONTINUOUS
 62
    7
 10
-16.427891082052362
 20
3.2431515989980921
 40
20.931295000818714
 50
323.95013121773542
 51
332.03910236609767
  0
ARC
  8
_0-0_
  6
CONTINUOUS
 62
    7
 10
2.7348237182924677
 20
3.4243199837813547
 40
19.717871679263556
 50
163.33803819186073
 51
193.90125366125039
  0
ARC
  8
_0-0_
  6
CONTINUOUS
 62
    7
 10
-11.302392686869545
 20
7.4832530932254953
 40
5.1080580976379526
 50
69.578428063132563
 51
161.80897125566671
  0
ARC
  8
_0-0_
  6
CONTINUOUS
 62
    7
 10
-13.005587246123802
 20
0.0688013002764575
 40
12.689554364870602
 50
26.965695640573838
 51
74.057259191467452
  0
ARC
  8
_0-0_
  6
CONTINUOUS
 62
    7
 10
-15.925639143323174
 20
-2.1266220960811397
 40
16.299943705128971
 50
358.67971641144362
 51
29.189953817559044
  0
ARC
  8
_0-0_
  6
CONTINUOUS
 62
    7
 10
-9.2679822273394237
 20
-2.4824621840094254
 40
9.6379795957511227
 50
323.62558827177037
 51
359.88270267307308
  0
ARC
  8
_0-0_
  6
CONTINUOUS
 62
    7
 10
-5.6609339937797429
 20
-4.5868854956004883
 40
5.5036886438585615
 50
260.40725920359625
 51
318.98998354556443
  0
ARC
  8
_0-0_
  6
CONTINUOUS
 62
    7
 10
-4.5494362743166263
 20
1.2023042957665764
 40
11.397908744360544
 50
229.850149273738
 51
259.74760343531193
  0
ARC
  8
_0-0_
  6
CONTINUOUS
 62
    7
 10
-1.695664333271246
 20
4.5084687977553513
 40
15.76516923185301
 50
205.14058290351613
 51
229.67013035930103
  0
ARC
  8
_0-0_
  6
CONTINUOUS
 62
    7
 10
-10.006638999806306
 20
4.2788501423031375
 40
5.9955739707858164
 50
44.109574394261827
 51
112.22313499341688
  0
ARC
  8
_0-0_
  6
CONTINUOUS
 62
    7
 10
-14.950197321666273
 20
-2.3248402202680341
 40
14.201169187704297
 50
18.015670198572863
 51
49.364464853386679
  0
ARC
  8
_0-0_
  6
CONTINUOUS
 62
    7
 10
-8.8649149125270483
 20
-1.0149271943580134
 40
8.0343502261680904
 50
338.63516981764036
 51
22.558449084817948
  0
ARC
  8
_0-0_
  6
CONTINUOUS
 62
    7
 10
-6.7584234901360887
 20
-2.3606089043319303
 40
5.6034770895905623
 50
291.54955530876987
 51
343.6087396917971
  0
ARC
  8
_0-0_
  6
CONTINUOUS
 62
    7
 10
-6.4595531339231584
 20
-2.5276995893852261
 40
5.3426818731729249
 50
221.53225120907248
 51
289.22600081366414
  0
ARC
  8
_0-0_
  6
CONTINUOUS
 62
    7
 10
0.8015545830784631
 20
5.8962702074022202
 40
16.431506039185415
 50
199.85821570008559
 51
226.7406253742827
  0
ARC
  8
_0-0_
  6
CONTINUOUS
 62
    7
 10
-7.8032319355072772
 20
3.522821237439099
 40
7.5637482340590267
 50
157.24084657696977
 51
205.09743207884506
  0
ARC
  8
_0-0_
  6
CONTINUOUS
 62
    7
 10
-8.7376240083334906
 20
4.5919290605709149
 40
6.3194373464576312
 50
124.03110980483881
 51
162.91117946119087
  0
ARC
  8
_0-0_
  6
CONTINUOUS
 62
    7
 10
-7.3057588744041837
 20
5.451308954249849
 40
6.033831072424614
 50
128.02160318195467
 51
178.84829446388937
  0
ARC
  8
_0-0_
  6
CONTINUOUS
 62
    7
 10
-1.0497727630745644
 20
4.8209399833370226
 40
12.311564481916742
 50
176.49979422313552
 51
212.2629949590457
  0
ARC
  8
_0-0_
  6
CONTINUOUS
 62
    7
 10
-3.8851764539271514
 20
1.6179658853489043
 40
8.2907194820937704
 50
203.97638007897743
 51
249.20590046341181
  0
ARC
  8
_0-0_
  6
CONTINUOUS
 62
    7
 10
-4.694710689003621
 20
-2.0216830891586328
 40
4.6317935957284124
 50
242.56921182425776
 51
289.67373917004693
  0
LINE
  8
_0-0_
  6
CONTINUOUS
 62
    7
 10
13.247842564450686
 20
18.393439081901018
 11
40.269830331585958
 21
11.389156133762551
  0
LINE
  8
_0-0_
  6
CONTINUOUS
 62
    7
 10
13.592315496326343
 20
17.781042758566496
 11
39.198136765750554
 21
11.04468320188688
  0
LINE
  8
_0-0_
  6
CONTINUOUS
 62
    7
 10
40.269830331585958
 20
11.389156133762551
 11
37.628871187205881
 21
8.0975258958395493
  0
LINE
  8
_0-0_
  6
CONTINUOUS
 62
    7
 10
19.984202121130302
 20
-0.3229235500099507
 11
21.476918159258169
 21
-1.1266937243865032
  0
LINE
  8
_0-0_
  6
CONTINUOUS
 62
    7
 10
21.476918159258169
 20
-1.1266937243865032
 11
25.419219490724096
 21
0.9018690966590652
  0
LINE
  8
_0-0_
  6
CONTINUOUS
 62
    7
 10
21.476918159258169
 20
-1.1266937243865032
 11
21.094170457174108
 21
-9.8533413319032839
  0
LINE
  8
_0-0_
  6
CONTINUOUS
 62
    7
 10
19.945927350921899
 20
-10.044715182945314
 11
21.094170457174108
 21
-9.8533413319032839
  0
LINE
  8
_0-0_
  6
CONTINUOUS
 62
    7
 10
21.094170457174108
 20
-9.8533413319032839
 11
24.424075465305499
 21
-7.3654812683568354
  0
ARC
  8
_0-0_
  6
CONTINUOUS
 62
    7
 10
30.118123793962049
 20
-4.2319870834638822
 40
6.959610688046781
 50
132.4671740028478
 51
181.53422269823332
  0
ARC
  8
_0-0_
  6
CONTINUOUS
 62
    7
 10
27.018454936507545
 20
-4.8043214090338795
 40
3.8767113025387685
 50
174.28568977099852
 51
214.18887116052355
  0
ARC
  8
_0-0_
  6
CONTINUOUS
 62
    7
 10
18.855096399983019
 20
-15.594556863163096
 40
9.9363581343989456
 50
55.912051512185137
 51
60.077182071647535
  0
LINE
  8
_0-0_
  6
CONTINUOUS
 62
    7
 10
25.419219490724096
 20
0.9018690966590652
 11
37.628871187205881
 21
8.0975258958395493
  0
ARC
  8
_0-0_
  6
CONTINUOUS
 62
    7
 10
24.87032449068986
 20
-6.3759914703554204
 40
1.0854622301146111
 50
245.72514850494997
 51
302.74764109316834
  0
LINE
  8
_0-0_
  6
CONTINUOUS
 62
    7
 10
25.457494260932471
 20
-7.2889317279400148
 11
36.289254229911627
 21
-0.0932749287595315
  0
LINE
  8
_0-0_
  6
CONTINUOUS
 62
    7
 10
36.289254229911627
 20
-0.0932749287595315
 11
40.690852803878421
 21
-17.814493535251916
  0
LINE
  8
_0-0_
  6
CONTINUOUS
 62
    7
 10
40.690852803878421
 20
-17.814493535251916
 11
40.078456480543913
 21
-25.010150334432414
  0
LINE
  8
_0-0_
  6
CONTINUOUS
 62
    7
 10
37.628871187205881
 20
8.0975258958395493
 11
38.700564753041284
 21
8.2123502064647873
  0
LINE
  8
_0-0_
  6
CONTINUOUS
 62
    7
 10
38.700564753041284
 20
8.2123502064647873
 11
39.15986199554218
 21
7.9061520447975324
  0
LINE
  8
_0-0_
  6
CONTINUOUS
 62
    7
 10
39.15986199554218
 20
7.9061520447975324
 11
39.772258318876688
 21
6.3751612364612482
  0
LINE
  8
_0-0_
  6
CONTINUOUS
 62
    7
 10
39.772258318876688
 20
6.3751612364612482
 11
43.905933501384631
 21
-14.675962378162541
  0
LINE
  8
_0-0_
  6
CONTINUOUS
 62
    7
 10
43.905933501384631
 20
-14.675962378162541
 11
43.14043809721651
 21
-22.790213662344815
  0
LINE
  8
_0-0_
  6
CONTINUOUS
 62
    7
 10
43.14043809721651
 20
-22.790213662344815
 11
40.078456480543913
 21
-25.010150334432414
  0
LINE
  8
_0-0_
  6
CONTINUOUS
 62
    7
 10
43.599735339717348
 20
-15.211809161080243
 11
41.226699586796123
 21
-17.048998131083781
  0
LINE
  8
_0-0_
  6
CONTINUOUS
 62
    7
 10
40.269830331585958
 20
11.389156133762551
 11
41.712244707805134
 21
3.8608907688431868
  0
LINE
  8
_0-0_
  6
CONTINUOUS
 62
    7
 10
41.712244707805134
 20
3.8608907688431868
 11
41.241482452109075
 21
2.354451550615873
  0
LINE
  8
_0-0_
  6
CONTINUOUS
 62
    7
 10
41.840721165765821
 20
2.1906968153540403
 11
40.517343706914836
 21
2.5807449084890619
  0
LINE
  8
_0-0_
  6
CONTINUOUS
 62
    7
 10
32.351691011197524
 20
4.9874635977531154
 11
17.430194153232186
 21
9.3853784611534188
  0
LINE
  8
_0-0_
  6
CONTINUOUS
 62
    7
 10
19.753681348368623
 20
1.2224407638158068
 11
23.133166832787175
 21
0.0102340139700158
  0
LINE
  8
_0-0_
  6
CONTINUOUS
 62
    7
 10
41.840721165765821
 20
2.1906968153540403
 11
40.948932701732851
 21
0.487770006333501
  0
LINE
  8
_0-0_
  6
CONTINUOUS
 62
    7
 10
41.840721165765821
 20
2.1906968153540403
 11
43.703948042291451
 21
-6.4181351140000702
  0
LINE
  8
_0-0_
  6
CONTINUOUS
 62
    7
 10
43.703948042291451
 20
-6.4181351140000702
 11
42.638675443942169
 21
-7.8140095532164411
  0
LINE
  8
_0-0_
  6
CONTINUOUS
 62
    7
 10
37.275578914321365
 20
-4.1039222279308563
 11
32.426751914938258
 21
-2.818248402336839
  0
LINE
  8
_0-0_
  6
CONTINUOUS
 62
    7
 10
40.078456480543913
 20
-25.010150334432414
 11
17.770070303166428
 21
-16.923926945996914
  0
ARC
  8
_0-0_
  6
CONTINUOUS
 62
    7
 10
21.933386058671807
 20
-30.588194554626018
 40
24.146438782745662
 50
58.230632630120361
 51
79.844007696751206
  0
ARC
  8
_0-0_
  6
CONTINUOUS
 62
    7
 10
31.593810644389102
 20
-15.752239745331938
 40
6.4595792515927375
 50
7.6602924590466239
 51
61.79770009999514
  0
ARC
  8
_0-0_
  6
CONTINUOUS
 62
    7
 10
33.213988287127883
 20
-15.325433119525901
 40
4.8014327478594039
 50
309.89708563631893
 51
5.1890363637969594
  0
ARC
  8
_0-0_
  6
CONTINUOUS
 62
    7
 10
37.188086022328413
 20
-19.325446170720273
 40
0.9487106403059676
 50
160.52060332218389
 51
255.6243705495219
  0
ARC
  8
_0-0_
  6
CONTINUOUS
 62
    7
 10
29.606599769748847
 20
-16.969273286706301
 40
1.0830286009754906
 50
177.53425291331126
 51
265.03516887583146
  0
ARC
  8
_0-0_
  6
CONTINUOUS
 62
    7
 10
30.416681210625576
 20
-15.956538609484344
 40
2.2786142356156525
 50
246.63110720566425
 51
312.50226477376464
  0
ARC
  8
_0-0_
  6
CONTINUOUS
 62
    7
 10
29.466141931516326
 20
-14.781371208252356
 40
3.7883559987722677
 50
311.09284921153375
 51
3.7394457471535176
  0
ARC
  8
_0-0_
  6
CONTINUOUS
 62
    7
 10
29.487804395398236
 20
-14.901573159413847
 40
3.7765295823539753
 50
5.5809636992246565
 51
57.005114292615808
  0
ARC
  8
_0-0_
  6
CONTINUOUS
 62
    7
 10
24.827334798934807
 20
-20.163863309316472
 40
10.77863649726045
 50
51.451260439995607
 51
81.25749428980069
  0
ARC
  8
_0-0_
  6
CONTINUOUS
 62
    7
 10
21.599957274728503
 20
-25.082302070980706
 40
16.314318699503559
 50
72.647765581887313
 51
86.60054457801057
  0
ARC
  8
_0-0_
  6
CONTINUOUS
 62
    7
 10
26.184674964874127
 20
-13.927694062773103
 40
3.8006660593922477
 50
307.99952719067056
 51
341.42697485920991
  0
ARC
  8
_0-0_
  6
CONTINUOUS
 62
    7
 10
27.046744887758884
 20
-14.700669838860296
 40
2.7753653666952034
 50
350.92844160833778
 51
43.087452302476798
  0
ARC
  8
_0-0_
  6
CONTINUOUS
 62
    7
 10
23.649191749793069
 20
-18.291300047350706
 40
7.7153360301671174
 50
45.326019535840139
 51
68.151122877604635
  0
ARC
  8
_0-0_
  6
CONTINUOUS
 62
    7
 10
19.252763053462139
 20
-26.703578168003222
 40
17.185795614390031
 50
64.982579931516298
 51
74.172754019036788
  0
ARC
  8
_0-0_
  6
CONTINUOUS
 62
    7
 10
20.894553748439172
 20
-24.624132685118031
 40
14.772140130347045
 50
78.102584573630494
 51
89.225735544383085
  0
ARC
  8
_0-0_
  6
CONTINUOUS
 62
    7
 10
19.946988666786446
 20
-13.885041687913446
 40
0.6859459200937806
 50
160.4772873366945
 51
245.02466534888097
  0
ARC
  8
_0-0_
  6
CONTINUOUS
 62
    7
 10
20.371132344864101
 20
-14.727323773545852
 40
1.5147400745498802
 50
85.842711513202815
 51
134.97705415440538
  0
ARC
  8
_0-0_
  6
CONTINUOUS
 62
    7
 10
20.805799544620051
 20
-15.261792850087947
 40
2.0708624254335368
 50
37.097763000220468
 51
99.025276064366565
  0
ARC
  8
_0-0_
  6
CONTINUOUS
 62
    7
 10
21.735030668308958
 20
-14.058866972868504
 40
0.7239779521530843
 50
266.34358341355858
 51
3.656416586441158
  0
ARC
  8
_0-0_
  6
CONTINUOUS
 62
    7
 10
20.927292960387128
 20
-12.763166278309843
 40
2.15711286598673
 50
233.93395513483236
 51
290.67394142113466
  0
LINE
  8
_0-0_
  6
CONTINUOUS
 62
    7
 10
36.952542154502716
 20
-20.244451592553833
 11
40.301767314727762
 21
-21.479821528702406
  0
LINE
  8
_0-0_
  6
CONTINUOUS
 62
    7
 10
-15.587021398864671
 20
32.705911079000636
 11
-15.657547354172046
 21
31.365917928160552
  0
LINE
  8
_0-0_
  6
CONTINUOUS
 62
    7
 10
-11.567041946344396
 20
32.917488944922759
 11
-11.77861981226652
 21
31.506969838775301
  0
LINE
  8
_0-0_
  6
CONTINUOUS
 62
    7
 10
-0.1418371865499565
 20
28.121723984021383
 11
-0.9176226949310475
 21
26.640678922566547
  0
LINE
  8
_0-0_
  6
CONTINUOUS
 62
    7
 10
4.019194176585053
 20
24.524900263345341
 11
2.8202529363597151
 21
23.255433067812628
  0
LINE
  8
_0-0_
  6
CONTINUOUS
 62
    7
 10
12.834938590006722
 20
11.618650442096065
 11
11.353893528551886
 21
10.701813023100211
  0
LINE
  8
_0-0_
  6
CONTINUOUS
 62
    7
 10
14.880191293920554
 20
5.694470196276721
 11
13.610724098387813
 21
5.1302625538177251
  0
LINE
  8
_0-0_
  6
CONTINUOUS
 62
    7
 10
15.021243204535303
 20
-8.7633506417347782
 11
16.290710400067987
 21
-8.7633506417347782
  0
LINE
  8
_0-0_
  6
CONTINUOUS
 62
    7
 10
15.444398936379521
 20
-13.135959870791911
 11
14.245457696154183
 21
-12.853856049562427
  0
LINE
  8
_0-0_
  6
CONTINUOUS
 62
    7
 10
9.1675889140233053
 20
-22.515911926672548
 11
10.366530154248643
 21
-23.291697435053653
  0
LINE
  8
_0-0_
  6
CONTINUOUS
 62
    7
 10
6.4876026123431316
 20
-24.702216541201114
 11
7.4044400313389716
 21
-25.830631826119092
  0
ARC
  8
_0-0_
  6
CONTINUOUS
 62
    7
 10
-14.668605040570888
 20
18.689666931309187
 40
12.607474107536069
 50
89.045597195902459
 51
149.49649664580934
  0
ARC
  8
_0-0_
  6
CONTINUOUS
 62
    7
 10
-13.928653935494147
 20
10.194697820651907
 40
21.107348081087487
 50
61.569830000647222
 51
91.438703437761234
  0
ARC
  8
_0-0_
  6
CONTINUOUS
 62
    7
 10
-25.68392870863709
 20
-6.4997488766887885
 40
41.453877073865826
 50
41.947705654244061
 51
58.265263490412615
  0
ARC
  8
_0-0_
  6
CONTINUOUS
 62
    7
 10
-40.586782636271273
 20
-15.864503180039808
 40
58.874160549736537
 50
24.68930591696812
 51
39.030027864493867
  0
ARC
  8
_0-0_
  6
CONTINUOUS
 62
    7
 10
-22.538240707346453
 20
-4.5507989457161004
 40
37.849154256846269
 50
358.85431566460102
 51
20.536904182163891
  0
ARC
  8
_0-0_
  6
CONTINUOUS
 62
    7
 10
-12.061110194761433
 20
-6.7360945122873277
 40
27.401718486689269
 50
332.94136880363652
 51
2.9883176502045186
  0
ARC
  8
_0-0_
  6
CONTINUOUS
 62
    7
 10
-4.6825934872251125
 20
-7.5427725410561282
 40
20.633231133764294
 50
290.90337946373074
 51
325.5955416119113
  0
LINE
  8
_0-0_
  6
CONTINUOUS
 62
    7
 10
-24.332239856978937
 20
28.403827805250881
 11
-24.261713901671563
 21
27.275412520332889
  0
LINE
  8
_0-0_
  6
CONTINUOUS
 62
    7
 10
-26.589070426814892
 20
25.018581950496962
 11
-26.024862784355896
 21
24.383848352730592
  0
LINE
  8
_0-0_
  6
CONTINUOUS
 62
    7
 10
-30.044842236876157
 20
14.580740565005737
 11
-29.692212460339299
 21
14.369162699083613
  0
LINE
  8
_0-0_
  6
CONTINUOUS
 62
    7
 10
-29.621686505031924
 20
9.7144496487969825
 11
-30.25642010279828
 21
9.8555015594117314
  0
LINE
  8
_0-0_
  6
CONTINUOUS
 62
    7
 10
-18.408059611159594
 20
-18.002250787000666
 11
-18.478585566466968
 21
-18.91908820599652
  0
LINE
  8
_0-0_
  6
CONTINUOUS
 62
    7
 10
-15.163865667020424
 20
-20.964340909910337
 11
-15.375443532942548
 21
-22.163282150135689
  0
ARC
  8
_0-0_
  6
CONTINUOUS
 62
    7
 10
-15.294351414655914
 20
26.067432755149394
 40
1.7541421809198687
 50
111.58443662701119
 51
269.65487392529906
  0
ARC
  8
_0-0_
  6
CONTINUOUS
 62
    7
 10
-16.439809735999738
 20
25.852659319897423
 40
1.9124691819764599
 50
306.39988185024117
 51
74.839428702069057
  0
ARC
  8
_0-0_
  6
CONTINUOUS
 62
    7
 10
-14.000187404448774
 20
21.927194242857109
 40
1.5837400257829191
 50
204.09201952899068
 51
289.51079944371321
  0
ARC
  8
_0-0_
  6
CONTINUOUS
 62
    7
 10
-14.280134468635232
 20
21.995347765417147
 40
1.3674369051632578
 50
76.672807526070869
 51
211.50774631557397
  0
ARC
  8
_0-0_
  6
CONTINUOUS
 62
    7
 10
-16.726277245817521
 20
20.616192326884242
 40
1.7710666285205594
 50
103.46233691746865
 51
281.84277608364727
  0
ARC
  8
_0-0_
  6
CONTINUOUS
 62
    7
 10
-17.777178271456258
 20
24.829426202018492
 40
1.5049448295300509
 50
124.04155816864092
 51
267.46078915826513
  0
ARC
  8
_0-0_
  6
CONTINUOUS
 62
    7
 10
-20.559101248034473
 20
22.881253693820735
 40
1.664902282899295
 50
145.69286732359913
 51
285.98243858495726
  0
ARC
  8
_0-0_
  6
CONTINUOUS
 62
    7
 10
-18.629211136173218
 20
19.222369614533971
 40
1.8253321690151432
 50
163.88123539549358
 51
293.05522312234081
  0
ARC
  8
_0-0_
  6
CONTINUOUS
 62
    7
 10
-15.569997892411145
 20
15.801569170671296
 40
1.6440724746037003
 50
137.69780563331699
 51
286.85348299583831
  0
ARC
  8
_0-0_
  6
CONTINUOUS
 62
    7
 10
-17.939269437645898
 20
12.946197836117204
 40
1.4313822779862142
 50
109.11763432688244
 51
304.01246802727343
  0
ARC
  8
_0-0_
  6
CONTINUOUS
 62
    7
 10
-20.804374848159007
 20
15.946123059756484
 40
1.564315016617289
 50
122.82076185898457
 51
312.47447942123068
  0
ARC
  8
_0-0_
  6
CONTINUOUS
 62
    7
 10
-22.756697939676876
 20
20.076614306964
 40
1.5678163725711332
 50
137.30943405014312
 51
301.63548564654468
  0
ARC
  8
_0-0_
  6
CONTINUOUS
 62
    7
 10
-23.91024028833646
 20
16.706924693042776
 40
1.6384855933578146
 50
136.97296359408949
 51
287.57832503506586
  0
ARC
  8
_0-0_
  6
CONTINUOUS
 62
    7
 10
-21.829874479776585
 20
12.891382728152262
 40
1.5344876427377023
 50
143.46171095948898
 51
298.91013937193026
  0
ARC
  8
_0-0_
  6
CONTINUOUS
 62
    7
 10
-24.723919239642377
 20
13.291156905710846
 40
1.6214671377312484
 50
158.87723103470867
 51
289.180725103133
  0
ARC
  8
_0-0_
  6
CONTINUOUS
 62
    7
 10
-25.086311113254261
 20
9.183085568715267
 40
1.4087327562025862
 50
144.72885218718824
 51
299.02688688858018
  0
ARC
  8
_0-0_
  6
CONTINUOUS
 62
    7
 10
-22.192396598142729
 20
9.0635141423789314
 40
1.5382801016786911
 50
142.65974793989201
 51
287.77543799649334
  0
ARC
  8
_0-0_
  6
CONTINUOUS
 62
    7
 10
-18.635856832936163
 20
6.1546641586542234
 40
1.8247384362094707
 50
163.20780664807671
 51
279.40942137902073
  0
ARC
  8
_0-0_
  6
CONTINUOUS
 62
    7
 10
-22.094643638590462
 20
5.5405953846969949
 40
1.5470738345907771
 50
160.88924763567073
 51
300.92303459187025
  0
ARC
  8
_0-0_
  6
CONTINUOUS
 62
    7
 10
-24.704022621378463
 20
5.155501537823663
 40
1.5776466525513664
 50
142.42149897823896
 51
294.4859194551729
  0
ARC
  8
_0-0_
  6
CONTINUOUS
 62
    7
 10
-24.029101978903391
 20
0.9061290201445428
 40
1.4230131155840926
 50
143.87739623098227
 51
302.03178679124323
  0
ARC
  8
_0-0_
  6
CONTINUOUS
 62
    7
 10
-20.770679113956596
 20
1.9706997560474049
 40
2.0139945802500643
 50
176.38611924799628
 51
279.0665027398162
  0
ARC
  8
_0-0_
  6
CONTINUOUS
 62
    7
 10
-18.418081720598018
 20
2.263753659811452
 40
1.5921234275421563
 50
165.51990090874196
 51
305.60212047365081
  0
ARC
  8
_0-0_
  6
CONTINUOUS
 62
    7
 10
-22.807756903600996
 20
-3.0531730245445958
 40
1.390422536816502
 50
142.38040815963478
 51
326.20620903915943
  0
ARC
  8
_0-0_
  6
CONTINUOUS
 62
    7
 10
-20.359230119633018
 20
-2.5759115667923611
 40
1.3994556180291635
 50
145.40207002077264
 51
340.16570686461228
  0
ARC
  8
_0-0_
  6
CONTINUOUS
 62
    7
 10
-17.628441170424828
 20
-2.1599747828465938
 40
1.3752922353535584
 50
157.79531459310451
 51
336.96495551081449
  0
ARC
  8
_0-0_
  6
CONTINUOUS
 62
    7
 10
-20.539783268972037
 20
-7.1013911731871291
 40
1.6076154020600466
 50
137.38079673971055
 51
305.46653451029488
  0
ARC
  8
_0-0_
  6
CONTINUOUS
 62
    7
 10
-18.263359806304813
 20
-6.266975016803106
 40
1.4308397246588329
 50
137.89335360958725
 51
306.08107138204605
  0
ARC
  8
_0-0_
  6
CONTINUOUS
 62
    7
 10
-15.551758421210984
 20
-5.7659975411714202
 40
1.3611692082825537
 50
143.42696902148046
 51
323.42696902148094
  0
ARC
  8
_0-0_
  6
CONTINUOUS
 62
    7
 10
-18.654900454735404
 20
-10.738077390341221
 40
1.4214960740825664
 50
136.0050860052543
 51
330.25511870305769
  0
ARC
  8
_0-0_
  6
CONTINUOUS
 62
    7
 10
-16.249315996296112
 20
-10.01597919911595
 40
1.2624081505111668
 50
150.69507838896328
 51
346.3020529629411
  0
ARC
  8
_0-0_
  6
CONTINUOUS
 62
    7
 10
-13.376260203060163
 20
-9.0300980049538033
 40
1.4045171804687735
 50
150.58031602898234
 51
350.70169561962842
  0
ARC
  8
_0-0_
  6
CONTINUOUS
 62
    7
 10
-10.525354525385502
 20
-11.562468624677411
 40
1.339116407324588
 50
159.37236492240348
 51
343.75773743175239
  0
ARC
  8
_0-0_
  6
CONTINUOUS
 62
    7
 10
-13.705148691852862
 20
-12.745603327769675
 40
1.3053395899715627
 50
162.82620977049152
 51
339.32450139740592
  0
ARC
  8
_0-0_
  6
CONTINUOUS
 62
    7
 10
-16.17454810719142
 20
-13.9507052819033
 40
1.3954144566242441
 50
160.66035898525158
 51
337.88852328362748
  0
ARC
  8
_0-0_
  6
CONTINUOUS
 62
    7
 10
-13.829896085316911
 20
-16.349784987200866
 40
1.4268770866600902
 50
169.83847831555036
 51
353.09999046455329
  0
ARC
  8
_0-0_
  6
CONTINUOUS
 62
    7
 10
-10.983216168430197
 20
-15.342379282432805
 40
1.3927953701438041
 50
167.46786816277893
 51
18.557706845587859
  0
ARC
  8
_0-0_
  6
CONTINUOUS
 62
    7
 10
-7.6032926473800089
 20
-13.216969414050386
 40
1.3718839441830899
 50
128.85251330644286
 51
336.19512757083453
  0
ARC
  8
_0-0_
  6
CONTINUOUS
 62
    7
 10
-7.796841918871074
 20
-16.98770553408939
 40
1.3079512324365454
 50
141.22459515461395
 51
358.80919180158605
  0
ARC
  8
_0-0_
  6
CONTINUOUS
 62
    7
 10
-10.821905568073511
 20
-19.39420464946129
 40
1.5823290623135711
 50
112.443312832731
 51
359.32774127658649
  0
ARC
  8
_0-0_
  6
CONTINUOUS
 62
    7
 10
-7.0093020846054159
 20
-20.602895388960054
 40
1.3840999482416014
 50
142.76516601842528
 51
350.83765295427838
  0
ARC
  8
_0-0_
  6
CONTINUOUS
 62
    7
 10
-3.6436783706426681
 20
-21.865821870895719
 40
1.4045171804687748
 50
150.58031602898217
 51
350.70169561962854
  0
ARC
  8
_0-0_
  6
CONTINUOUS
 62
    7
 10
-4.4879991823668277
 20
-17.878830365212753
 40
1.2654509029357783
 50
148.9677897615328
 51
337.90210788431119
  0
ARC
  8
_0-0_
  6
CONTINUOUS
 62
    7
 10
-1.5737759793888912
 20
-18.05304069911195
 40
1.3257059426792241
 50
141.42794760108467
 51
346.8393388107263
  0
ARC
  8
_0-0_
  6
CONTINUOUS
 62
    7
 10
1.199233244666523
 20
-17.457362372624861
 40
1.3419269224358175
 50
147.31949395447225
 51
3.8389597905056689
  0
ARC
  8
_0-0_
  6
CONTINUOUS
 62
    7
 10
-0.3735771785187793
 20
-21.956101784956264
 40
1.4354328205417339
 50
136.29748306607149
 51
333.95186024472429
  0
ARC
  8
_0-0_
  6
CONTINUOUS
 62
    7
 10
2.4676231598228711
 20
-21.458022597061944
 40
1.5531730523121146
 50
129.47245984834387
 51
2.6025622024998256
  0
ARC
  8
_0-0_
  6
CONTINUOUS
 62
    7
 10
-1.6806784146985692
 20
-13.582087749904321
 40
1.4216062044961191
 50
134.70810262976332
 51
349.4973553083413
  0
ARC
  8
_0-0_
  6
CONTINUOUS
 62
    7
 10
1.015886727074566
 20
-12.033148286346705
 40
1.5569935235943844
 50
165.94072792035712
 51
347.87548595094916
  0
ARC
  8
_0-0_
  6
CONTINUOUS
 62
    7
 10
3.1784058298784785
 20
-9.8760462860119453
 40
1.6071327577362664
 50
151.7751570966129
 51
344.1523890230963
  0
ARC
  8
_0-0_
  6
CONTINUOUS
 62
    7
 10
4.6996743399562106
 20
-6.8286521380325143
 40
1.5386722540728406
 50
116.24762628332556
 51
311.13250876863407
  0
ARC
  8
_0-0_
  6
CONTINUOUS
 62
    7
 10
5.2509975108791664
 20
-2.6538521942035134
 40
1.7399635760571248
 50
131.86784722635127
 51
303.26933683130358
  0
ARC
  8
_0-0_
  6
CONTINUOUS
 62
    7
 10
4.4491828729573868
 20
1.419108694520598
 40
1.6332850422593947
 50
137.58263419258321
 51
324.71061712671013
  0
ARC
  8
_0-0_
  6
CONTINUOUS
 62
    7
 10
3.152120398950963
 20
5.7066639362130429
 40
1.4235828962211547
 50
136.76354482548626
 51
319.26203018288021
  0
ARC
  8
_0-0_
  6
CONTINUOUS
 62
    7
 10
1.2199854266471917
 20
9.9041980523620445
 40
1.5776107404432258
 50
136.8114615139996
 51
322.26408350181379
  0
ARC
  8
_0-0_
  6
CONTINUOUS
 62
    7
 10
3.8587642617407951
 20
-15.743424199561691
 40
1.5133744193870982
 50
123.12154744669309
 51
340.88098766829734
  0
ARC
  8
_0-0_
  6
CONTINUOUS
 62
    7
 10
5.9164853323709181
 20
-13.389948615243458
 40
1.4713916286965043
 50
135.58389417692848
 51
336.26171526281013
  0
ARC
  8
_0-0_
  6
CONTINUOUS
 62
    7
 10
5.6217006055137304
 20
-19.816335081851424
 40
1.6370850005893389
 50
126.23909358452467
 51
336.44128990729524
  0
ARC
  8
_0-0_
  6
CONTINUOUS
 62
    7
 10
7.8731796123453037
 20
-17.564688838675952
 40
1.5815918432207174
 50
127.48215521248429
 51
4.5928668383594413
  0
ARC
  8
_0-0_
  6
CONTINUOUS
 62
    7
 10
9.7325860261312656
 20
-14.621083858766401
 40
1.6488382532215839
 50
120.91435619520207
 51
340.14072410811036
  0
ARC
  8
_0-0_
  6
CONTINUOUS
 62
    7
 10
7.4722182221538347
 20
-10.665719592038872
 40
1.5500125186656273
 50
129.43710062857627
 51
335.75218610860651
  0
ARC
  8
_0-0_
  6
CONTINUOUS
 62
    7
 10
8.499385371365328
 20
-6.654146435974444
 40
1.3832647034375081
 50
129.68829177818924
 51
332.9920917136306
  0
ARC
  8
_0-0_
  6
CONTINUOUS
 62
    7
 10
11.863984720156203
 20
-6.9907750224499567
 40
1.6154995991725707
 50
142.74623751954363
 51
341.85481686434662
  0
ARC
  8
_0-0_
  6
CONTINUOUS
 62
    7
 10
12.56491113098739
 20
-1.8326458602387747
 40
1.751916459449101
 50
166.66751262043596
 51
312.64598961108487
  0
ARC
  8
_0-0_
  6
CONTINUOUS
 62
    7
 10
8.5055323468166719
 20
-2.6544484401269175
 40
1.2464578687928094
 50
135.53134467267594
 51
338.00523319136551
  0
ARC
  8
_0-0_
  6
CONTINUOUS
 62
    7
 10
7.6173175156021458
 20
2.0164636498967452
 40
1.4770146023649722
 50
125.02038021801121
 51
335.00584729206037
  0
ARC
  8
_0-0_
  6
CONTINUOUS
 62
    7
 10
11.257060272455227
 20
2.6881614188489307
 40
1.6613514175450113
 50
138.44180550786231
 51
341.76039081490865
  0
ARC
  8
_0-0_
  6
CONTINUOUS
 62
    7
 10
10.000676761091633
 20
7.5193292898550039
 40
1.6381932813589397
 50
148.53389371440574
 51
342.78392641220933
  0
ARC
  8
_0-0_
  6
CONTINUOUS
 62
    7
 10
6.5289982817626893
 20
5.9696747392696166
 40
1.7280982847251829
 50
115.59884490766549
 51
4.9113924984500841
  0
ARC
  8
_0-0_
  6
CONTINUOUS
 62
    7
 10
4.4893672119675685
 20
10.748830326638451
 40
1.5567272287040477
 50
128.25442035251686
 51
345.12431799836151
  0
ARC
  8
_0-0_
  6
CONTINUOUS
 62
    7
 10
7.354689163641531
 20
11.905401322396198
 40
1.615854261942445
 50
119.5356901742017
 51
352.30991926553696
  0
ARC
  8
_0-0_
  6
CONTINUOUS
 62
    7
 10
4.9414368695278554
 20
16.491504905240358
 40
1.5531963261491921
 50
140.84120004478933
 51
354.54638984539542
  0
ARC
  8
_0-0_
  6
CONTINUOUS
 62
    7
 10
1.7530838757876168
 20
14.066179483190762
 40
1.5635248621857332
 50
128.7235380655203
 51
3.3514839853236822
  0
ARC
  8
_0-0_
  6
CONTINUOUS
 62
    7
 10
-1.0650038579451788
 20
17.546989910920711
 40
1.5017672399352557
 50
142.5740108796459
 51
7.9388634474126434
  0
ARC
  8
_0-0_
  6
CONTINUOUS
 62
    7
 10
1.6592872105306711
 20
20.095715267942733
 40
1.73212262889309
 50
151.27905725094251
 51
354.86591662076324
  0
ARC
  8
_0-0_
  6
CONTINUOUS
 62
    7
 10
-1.8283006418476688
 20
22.829813547136705
 40
1.5594952836340188
 50
140.60152517334996
 51
352.29394748086065
  0
ARC
  8
_0-0_
  6
CONTINUOUS
 62
    7
 10
-4.3899065342111285
 20
19.865989239528528
 40
1.5550571832181532
 50
143.68074855609382
 51
344.37046351904365
  0
ARC
  8
_0-0_
  6
CONTINUOUS
 62
    7
 10
-5.0867441632720798
 20
16.277254153664966
 40
1.631414915191943
 50
154.53786717027677
 51
304.53767784553673
  0
ARC
  8
_0-0_
  6
CONTINUOUS
 62
    7
 10
-8.8627727558607816
 20
16.735160690757606
 40
1.5276209105757768
 50
121.58311687009083
 51
1.1959637979786635
  0
ARC
  8
_0-0_
  6
CONTINUOUS
 62
    7
 10
-8.1126475963477063
 20
21.510879896000372
 40
1.5684402012298515
 50
122.5958479753902
 51
340.93650166971588
  0
ARC
  8
_0-0_
  6
CONTINUOUS
 62
    7
 10
-12.065975566338047
 20
22.037359786519868
 40
1.4046065206597371
 50
113.44975399124795
 51
343.28316733561184
  0
ARC
  8
_0-0_
  6
CONTINUOUS
 62
    7
 10
-9.3732678340862563
 20
26.485035434991641
 40
1.5933998741579181
 50
116.5706380113936
 51
322.37428168529397
  0
ARC
  8
_0-0_
  6
CONTINUOUS
 62
    7
 10
-5.6187000306512331
 20
25.146573499017745
 40
1.7263043393873663
 50
114.99463455530203
 51
309.76672085783639
  0
ENDBLK
  0
ENDSEC
  0
SECTION
  2
ENTITIES
  0
INSERT
  2
-000-1
  8
_0-0_
 10
131.88947868024016
 20
103.46173230049341
 41
1
 42
1
 50
0
  0
ENDSEC
  0
EOF
