  0
SECTION
  2
HEADER
  9
$ACADVER
  1
AC1032
  9
$ACADMAINTVER
 90
      228
  9
$DWGCODEPAGE
  3
ANSI_932
  9
$REQUIREDVERSIONS
160
                 0
  9
$INSBASE
 10
0.0
 20
0.0
 30
0.0
  9
$EXTMIN
 10
1.000000000000000E+20
 20
1.000000000000000E+20
 30
1.000000000000000E+20
  9
$EXTMAX
 10
-1.000000000000000E+20
 20
-1.000000000000000E+20
 30
-1.000000000000000E+20
  9
$LIMMIN
 10
0.0
 20
0.0
  9
$LIMMAX
 10
12.0
 20
9.0
  9
$ORTHOMODE
 70
     0
  9
$REGENMODE
 70
     1
  9
$FILLMODE
 70
     1
  9
$QTEXTMODE
 70
     0
  9
$MIRRTEXT
 70
     0
  9
$LTSCALE
 40
1.0
  9
$ATTMODE
 70
     1
  9
$TEXTSIZE
 40
0.2
  9
$TRACEWID
 40
0.05
  9
$TEXTSTYLE
  7
Standard
  9
$CLAYER
  8
0
  9
$CELTYPE
  6
ByLayer
  9
$CECOLOR
 62
   256
  9
$CELTSCALE
 40
1.0
  9
$DISPSILH
 70
     0
  9
$DIMSCALE
 40
1.0
  9
$DIMASZ
 40
0.18
  9
$DIMEXO
 40
0.0625
  9
$DIMDLI
 40
0.38
  9
$DIMRND
 40
0.0
  9
$DIMDLE
 40
0.0
  9
$DIMEXE
 40
0.18
  9
$DIMTP
 40
0.0
  9
$DIMTM
 40
0.0
  9
$DIMTXT
 40
0.18
  9
$DIMCEN
 40
0.09
  9
$DIMTSZ
 40
0.0
  9
$DIMTOL
 70
     0
  9
$DIMLIM
 70
     0
  9
$DIMTIH
 70
     1
  9
$DIMTOH
 70
     1
  9
$DIMSE1
 70
     0
  9
$DIMSE2
 70
     0
  9
$DIMTAD
 70
     0
  9
$DIMZIN
 70
     0
  9
$DIMBLK
  1

  9
$DIMASO
 70
     1
  9
$DIMSHO
 70
     1
  9
$DIMPOST
  1

  9
$DIMAPOST
  1

  9
$DIMALT
 70
     0
  9
$DIMALTD
 70
     2
  9
$DIMALTF
 40
25.4
  9
$DIMLFAC
 40
1.0
  9
$DIMTOFL
 70
     0
  9
$DIMTVP
 40
0.0
  9
$DIMTIX
 70
     0
  9
$DIMSOXD
 70
     0
  9
$DIMSAH
 70
     0
  9
$DIMBLK1
  1

  9
$DIMBLK2
  1

  9
$DIMSTYLE
  2
Standard
  9
$DIMCLRD
 70
     0
  9
$DIMCLRE
 70
     0
  9
$DIMCLRT
 70
     0
  9
$DIMTFAC
 40
1.0
  9
$DIMGAP
 40
0.09
  9
$DIMJUST
 70
     0
  9
$DIMSD1
 70
     0
  9
$DIMSD2
 70
     0
  9
$DIMTOLJ
 70
     1
  9
$DIMTZIN
 70
     0
  9
$DIMALTZ
 70
     0
  9
$DIMALTTZ
 70
     0
  9
$DIMUPT
 70
     0
  9
$DIMDEC
 70
     4
  9
$DIMTDEC
 70
     4
  9
$DIMALTU
 70
     2
  9
$DIMALTTD
 70
     2
  9
$DIMTXSTY
  7
Standard
  9
$DIMAUNIT
 70
     0
  9
$DIMADEC
 70
     0
  9
$DIMALTRND
 40
0.0
  9
$DIMAZIN
 70
     0
  9
$DIMDSEP
 70
    46
  9
$DIMATFIT
 70
     3
  9
$DIMFRAC
 70
     0
  9
$DIMLDRBLK
  1

  9
$DIMLUNIT
 70
     2
  9
$DIMLWD
 70
    -2
  9
$DIMLWE
 70
    -2
  9
$DIMTMOVE
 70
     0
  9
$DIMFXL
 40
1.0
  9
$DIMFXLON
 70
     0
  9
$DIMJOGANG
 40
0.7853981633974483
  9
$DIMTFILL
 70
     0
  9
$DIMTFILLCLR
 70
     0
  9
$DIMARCSYM
 70
     0
  9
$DIMLTYPE
  6

  9
$DIMLTEX1
  6

  9
$DIMLTEX2
  6

  9
$DIMTXTDIRECTION
 70
     0
  9
$LUNITS
 70
     2
  9
$LUPREC
 70
     4
  9
$SKETCHINC
 40
0.1
  9
$FILLETRAD
 40
0.0
  9
$AUNITS
 70
     0
  9
$AUPREC
 70
     0
  9
$MENU
  1
.
  9
$ELEVATION
 40
0.0
  9
$PELEVATION
 40
0.0
  9
$THICKNESS
 40
0.0
  9
$LIMCHECK
 70
     0
  9
$CHAMFERA
 40
0.0
  9
$CHAMFERB
 40
0.0
  9
$CHAMFERC
 40
0.0
  9
$CHAMFERD
 40
0.0
  9
$SKPOLY
 70
     0
  9
$TDCREATE
 40
2460006.832604167
  9
$TDUCREATE
 40
2460006.457604166
  9
$TDUPDATE
 40
2460006.832604167
  9
$TDUUPDATE
 40
2460006.457604166
  9
$TDINDWG
 40
0.0000000000
  9
$TDUSRTIMER
 40
0.0000000000
  9
$USRTIMER
 70
     1
  9
$ANGBASE
 50
0.0
  9
$ANGDIR
 70
     0
  9
$PDMODE
 70
     0
  9
$PDSIZE
 40
0.0
  9
$PLINEWID
 40
0.0
  9
$SPLFRAME
 70
     0
  9
$SPLINETYPE
 70
     6
  9
$SPLINESEGS
 70
     8
  9
$HANDSEED
  5
DA
  9
$SURFTAB1
 70
     6
  9
$SURFTAB2
 70
     6
  9
$SURFTYPE
 70
     6
  9
$SURFU
 70
     6
  9
$SURFV
 70
     6
  9
$UCSBASE
  2

  9
$UCSNAME
  2

  9
$UCSORG
 10
0.0
 20
0.0
 30
0.0
  9
$UCSXDIR
 10
1.0
 20
0.0
 30
0.0
  9
$UCSYDIR
 10
0.0
 20
1.0
 30
0.0
  9
$UCSORTHOREF
  2

  9
$UCSORTHOVIEW
 70
     0
  9
$UCSORGTOP
 10
0.0
 20
0.0
 30
0.0
  9
$UCSORGBOTTOM
 10
0.0
 20
0.0
 30
0.0
  9
$UCSORGLEFT
 10
0.0
 20
0.0
 30
0.0
  9
$UCSORGRIGHT
 10
0.0
 20
0.0
 30
0.0
  9
$UCSORGFRONT
 10
0.0
 20
0.0
 30
0.0
  9
$UCSORGBACK
 10
0.0
 20
0.0
 30
0.0
  9
$PUCSBASE
  2

  9
$PUCSNAME
  2

  9
$PUCSORG
 10
0.0
 20
0.0
 30
0.0
  9
$PUCSXDIR
 10
1.0
 20
0.0
 30
0.0
  9
$PUCSYDIR
 10
0.0
 20
1.0
 30
0.0
  9
$PUCSORTHOREF
  2

  9
$PUCSORTHOVIEW
 70
     0
  9
$PUCSORGTOP
 10
0.0
 20
0.0
 30
0.0
  9
$PUCSORGBOTTOM
 10
0.0
 20
0.0
 30
0.0
  9
$PUCSORGLEFT
 10
0.0
 20
0.0
 30
0.0
  9
$PUCSORGRIGHT
 10
0.0
 20
0.0
 30
0.0
  9
$PUCSORGFRONT
 10
0.0
 20
0.0
 30
0.0
  9
$PUCSORGBACK
 10
0.0
 20
0.0
 30
0.0
  9
$USERI1
 70
     0
  9
$USERI2
 70
     0
  9
$USERI3
 70
     0
  9
$USERI4
 70
     0
  9
$USERI5
 70
     0
  9
$USERR1
 40
0.0
  9
$USERR2
 40
0.0
  9
$USERR3
 40
0.0
  9
$USERR4
 40
0.0
  9
$USERR5
 40
0.0
  9
$WORLDVIEW
 70
     1
  9
$SHADEDGE
 70
     3
  9
$SHADEDIF
 70
    70
  9
$TILEMODE
 70
     1
  9
$MAXACTVP
 70
    64
  9
$PINSBASE
 10
0.0
 20
0.0
 30
0.0
  9
$PLIMCHECK
 70
     0
  9
$PEXTMIN
 10
1.000000000000000E+20
 20
1.000000000000000E+20
 30
1.000000000000000E+20
  9
$PEXTMAX
 10
-1.000000000000000E+20
 20
-1.000000000000000E+20
 30
-1.000000000000000E+20
  9
$PLIMMIN
 10
0.0
 20
0.0
  9
$PLIMMAX
 10
12.0
 20
9.0
  9
$UNITMODE
 70
     0
  9
$VISRETAIN
 70
     1
  9
$PLINEGEN
 70
     0
  9
$PSLTSCALE
 70
     1
  9
$TREEDEPTH
 70
  3020
  9
$CMLSTYLE
  2
Standard
  9
$CMLJUST
 70
     0
  9
$CMLSCALE
 40
1.0
  9
$PROXYGRAPHICS
 70
     1
  9
$MEASUREMENT
 70
     0
  9
$CELWEIGHT
370
    -1
  9
$ENDCAPS
280
     0
  9
$JOINSTYLE
280
     0
  9
$LWDISPLAY
290
     1
  9
$INSUNITS
 70
     4
  9
$HYPERLINKBASE
  1

  9
$STYLESHEET
  1

  9
$XEDIT
290
     1
  9
$CEPSNTYPE
380
     0
  9
$PSTYLEMODE
290
     1
  9
$FINGERPRINTGUID
  2
{6805BE22-4F8B-C24A-A58E-FE8387980BD6}
  9
$VERSIONGUID
  2
{D2595094-072F-CD45-B4F0-162063893FB0}
  9
$EXTNAMES
290
     1
  9
$PSVPSCALE
 40
0.0
  9
$OLESTARTUP
290
     0
  9
$SORTENTS
280
   127
  9
$INDEXCTL
280
     0
  9
$HIDETEXT
280
     1
  9
$XCLIPFRAME
280
     2
  9
$HALOGAP
280
     0
  9
$OBSCOLOR
 70
   257
  9
$OBSLTYPE
280
     0
  9
$INTERSECTIONDISPLAY
280
     0
  9
$INTERSECTIONCOLOR
 70
   257
  9
$DIMASSOC
280
     2
  9
$PROJECTNAME
  1

  9
$CAMERADISPLAY
290
     0
  9
$LENSLENGTH
 40
50.0
  9
$CAMERAHEIGHT
 40
0.0
  9
$STEPSPERSEC
 40
2.0
  9
$STEPSIZE
 40
6.0
  9
$3DDWFPREC
 40
2.0
  9
$PSOLWIDTH
 40
0.25
  9
$PSOLHEIGHT
 40
4.0
  9
$LOFTANG1
 40
1.570796326794896
  9
$LOFTANG2
 40
1.570796326794896
  9
$LOFTMAG1
 40
0.0
  9
$LOFTMAG2
 40
0.0
  9
$LOFTPARAM
 70
     7
  9
$LOFTNORMALS
280
     1
  9
$LATITUDE
 40
37.795
  9
$LONGITUDE
 40
-122.394
  9
$NORTHDIRECTION
 40
0.0
  9
$TIMEZONE
 70
 -8000
  9
$LIGHTGLYPHDISPLAY
280
     1
  9
$TILEMODELIGHTSYNCH
280
     1
  9
$CMATERIAL
347
11
  9
$SOLIDHIST
280
     0
  9
$SHOWHIST
280
     1
  9
$DWFFRAME
280
     2
  9
$DGNFRAME
280
     0
  9
$REALWORLDSCALE
290
     1
  9
$INTERFERECOLOR
 62
     1
  9
$INTERFEREOBJVS
345
33
  9
$INTERFEREVPVS
346
30
  9
$CSHADOW
280
     0
  9
$SHADOWPLANELOCATION
 40
0.0
  0
ENDSEC
  0
SECTION
  2
CLASSES
  0
CLASS
  1
ACDBDICTIONARYWDFLT
  2
AcDbDictionaryWithDefault
  3
ObjectDBX Classes
 90
        0
 91
        1
280
     0
281
     0
  0
CLASS
  1
MATERIAL
  2
AcDbMaterial
  3
ObjectDBX Classes
 90
     1153
 91
        3
280
     0
281
     0
  0
CLASS
  1
VISUALSTYLE
  2
AcDbVisualStyle
  3
ObjectDBX Classes
 90
     4095
 91
       24
280
     0
281
     0
  0
CLASS
  1
SCALE
  2
AcDbScale
  3
ObjectDBX Classes
 90
     1153
 91
       17
280
     0
281
     0
  0
CLASS
  1
TABLESTYLE
  2
AcDbTableStyle
  3
ObjectDBX Classes
 90
     4095
 91
        1
280
     0
281
     0
  0
CLASS
  1
MLEADERSTYLE
  2
AcDbMLeaderStyle
  3
ACDB_MLEADERSTYLE_CLASS
 90
     4095
 91
        1
280
     0
281
     0
  0
CLASS
  1
ACDBSECTIONVIEWSTYLE
  2
AcDbSectionViewStyle
  3
ObjectDBX Classes
 90
     1025
 91
        1
280
     0
281
     0
  0
CLASS
  1
ACDBDETAILVIEWSTYLE
  2
AcDbDetailViewStyle
  3
ObjectDBX Classes
 90
     1025
 91
        1
280
     0
281
     0
  0
CLASS
  1
DICTIONARYVAR
  2
AcDbDictionaryVar
  3
ObjectDBX Classes
 90
        0
 91
        5
280
     0
281
     0
  0
CLASS
  1
CELLSTYLEMAP
  2
AcDbCellStyleMap
  3
ObjectDBX Classes
 90
     1152
 91
        1
280
     0
281
     0
  0
ENDSEC
  0
SECTION
  2
TABLES
  0
TABLE
  2
VPORT
  5
8
330
0
100
AcDbSymbolTable
 70
     1
  0
VPORT
  5
57
330
8
100
AcDbSymbolTableRecord
100
AcDbViewportTableRecord
  2
*Active
 70
     0
 10
0.0
 20
0.0
 11
1.0
 21
1.0
 12
0.0
 22
0.0
 13
0.0
 23
0.0
 14
1.0
 24
1.0
 15
0.0
 25
0.0
 16
0.0
 26
0.0
 36
1.0
 17
148.5000119155931
 27
-104.9999970067632
 37
0.0
 40
214.199993893797
 41
1.414285868084624
 42
50.0
 43
0.0
 44
0.0
 50
0.0
 51
0.0
 71
     0
 72
   100
 73
     1
 74
     1
 75
     0
 76
     0
 77
     0
 78
     0
281
     0
 65
     1
110
0.0
120
0.0
130
0.0
111
1.0
121
0.0
131
0.0
112
0.0
122
1.0
132
0.0
 79
     0
146
0.0
 60
     3
 61
     5
292
     1
282
     1
141
0.0
142
0.0
 63
   250
421
  3355443
  0
ENDTAB
  0
TABLE
  2
LTYPE
  5
5
330
0
100
AcDbSymbolTable
 70
     1
  0
LTYPE
  5
5B
330
5
100
AcDbSymbolTableRecord
100
AcDbLinetypeTableRecord
  2
ByBlock
 70
     0
  3

 72
    65
 73
     0
 40
0.0
  0
LTYPE
  5
5C
330
5
100
AcDbSymbolTableRecord
100
AcDbLinetypeTableRecord
  2
ByLayer
 70
     0
  3

 72
    65
 73
     0
 40
0.0
  0
LTYPE
  5
5D
330
5
100
AcDbSymbolTableRecord
100
AcDbLinetypeTableRecord
  2
Continuous
 70
     0
  3
Solid line
 72
    65
 73
     0
 40
0.0
  0
ENDTAB
  0
TABLE
  2
LAYER
  5
2
330
0
100
AcDbSymbolTable
 70
     2
  0
LAYER
  5
54
330
2
100
AcDbSymbolTableRecord
100
AcDbLayerTableRecord
  2
0
 70
     0
 62
     7
  6
Continuous
370
    -3
390
F
347
21
348
0
  0
LAYER
  5
78
330
2
100
AcDbSymbolTableRecord
100
AcDbLayerTableRecord
  2
レイヤー 1
 70
     0
 62
     7
  6
Continuous
370
     0
390
F
347
21
348
0
  0
ENDTAB
  0
TABLE
  2
STYLE
  5
3
330
0
100
AcDbSymbolTable
 70
     2
  0
STYLE
  5
55
330
3
100
AcDbSymbolTableRecord
100
AcDbTextStyleTableRecord
  2
Standard
 70
     0
 40
0.0
 41
1.0
 50
0.0
 71
     0
 42
0.2
  3
txt
  4

  0
STYLE
  5
5A
330
3
100
AcDbSymbolTableRecord
100
AcDbTextStyleTableRecord
  2
Annotative
 70
     0
 40
0.0
 41
1.0
 50
0.0
 71
     0
 42
0.2
  3
txt
  4

1001
AcadAnnotative
1000
AnnotativeData
1002
{
1070
     1
1070
     1
1002
}
  0
ENDTAB
  0
TABLE
  2
VIEW
  5
6
330
0
100
AcDbSymbolTable
 70
     0
  0
ENDTAB
  0
TABLE
  2
UCS
  5
7
330
0
100
AcDbSymbolTable
 70
     0
  0
ENDTAB
  0
TABLE
  2
APPID
  5
9
330
0
100
AcDbSymbolTable
 70
     2
  0
APPID
  5
56
330
9
100
AcDbSymbolTableRecord
100
AcDbRegAppTableRecord
  2
ACAD
 70
     0
  0
APPID
  5
5E
330
9
100
AcDbSymbolTableRecord
100
AcDbRegAppTableRecord
  2
AcadAnnotative
 70
     0
  0
ENDTAB
  0
TABLE
  2
DIMSTYLE
  5
A
330
0
100
AcDbSymbolTable
 70
     2
100
AcDbDimStyleTable
 71
     0
  0
DIMSTYLE
105
58
330
A
100
AcDbSymbolTableRecord
100
AcDbDimStyleTableRecord
  2
Standard
 70
     0
340
55
  0
DIMSTYLE
105
59
330
A
100
AcDbSymbolTableRecord
100
AcDbDimStyleTableRecord
  2
Annotative
 70
     0
340
55
1001
AcadAnnotative
1000
AnnotativeData
1002
{
1070
     1
1070
     1
1002
}
  0
ENDTAB
  0
TABLE
  2
BLOCK_RECORD
  5
1
330
0
100
AcDbSymbolTable
 70
     2
  0
BLOCK_RECORD
  5
70
330
1
100
AcDbSymbolTableRecord
100
AcDbBlockTableRecord
  2
*Model_Space
340
73
 70
     0
280
     1
281
     0
  0
BLOCK_RECORD
  5
6C
330
1
100
AcDbSymbolTableRecord
100
AcDbBlockTableRecord
  2
*Paper_Space
340
6F
 70
     0
280
     1
281
     0
  0
BLOCK_RECORD
  5
74
330
1
100
AcDbSymbolTableRecord
100
AcDbBlockTableRecord
  2
*Paper_Space0
340
77
 70
     0
280
     1
281
     0
  0
BLOCK_RECORD
  5
C3
330
1
100
AcDbSymbolTableRecord
100
AcDbBlockTableRecord
  2
Block_0
340
0
102
{BLKREFS
331
C4
102
}
 70
     0
280
     1
281
     0
  0
ENDTAB
  0
ENDSEC
  0
SECTION
  2
BLOCKS
  0
BLOCK
  5
71
330
70
100
AcDbEntity
  8
0
100
AcDbBlockBegin
  2
*Model_Space
 70
     0
 10
0.0
 20
0.0
 30
0.0
  3
*Model_Space
  1

  0
ENDBLK
  5
72
330
70
100
AcDbEntity
  8
0
100
AcDbBlockEnd
  0
BLOCK
  5
6D
330
6C
100
AcDbEntity
 67
     1
  8
0
100
AcDbBlockBegin
  2
*Paper_Space
 70
     0
 10
0.0
 20
0.0
 30
0.0
  3
*Paper_Space
  1

  0
ENDBLK
  5
6E
330
6C
100
AcDbEntity
 67
     1
  8
0
100
AcDbBlockEnd
  0
BLOCK
  5
75
330
74
100
AcDbEntity
 67
     1
  8
0
100
AcDbBlockBegin
  2
*Paper_Space0
 70
     0
 10
0.0
 20
0.0
 30
0.0
  3
*Paper_Space0
  1

  0
ENDBLK
  5
76
330
74
100
AcDbEntity
 67
     1
  8
0
100
AcDbBlockEnd
  0
BLOCK
  5
C5
330
C3
100
AcDbEntity
  8
0
100
AcDbBlockBegin
  2
Block_0
 70
     0
 10
0.0
 20
0.0
 30
0.0
  3
Block_0
  1

  0
SPLINE
  5
C7
330
C3
100
AcDbEntity
  8
レイヤー 1
 62
   250
420
  2299925
370
   158
100
AcDbSpline
210
0.0
220
0.0
230
1.0
 70
    24
 71
     3
 72
     8
 73
     4
 74
     0
 42
0.0000000001
 43
0.0000000001
 40
0.0
 40
0.0
 40
0.0
 40
0.0
 40
1.0
 40
1.0
 40
1.0
 40
1.0
 10
171.4368991216061
 20
-162.5253214357789
 30
0.0
 10
172.79320463794
 20
-162.5253214357789
 30
0.0
 10
173.2022331761369
 20
-162.5253214357789
 30
0.0
 10
174.5585386924708
 20
-162.5253214357789
 30
0.0
  0
LWPOLYLINE
  5
C8
330
C3
100
AcDbEntity
  8
レイヤー 1
 62
   250
420
  2299925
370
     9
100
AcDbPolyline
 90
        4
 70
     1
 43
0.0
 10
204.3344542207655
 20
-168.0371284276524
 10
178.5818393891018
 20
-168.0371284276524
 10
178.5818393891018
 20
-157.2431730685665
 10
204.3344542207655
 20
-157.2431730685665
  0
SPLINE
  5
C9
330
C3
100
AcDbEntity
  8
レイヤー 1
 62
   250
420
  2299925
370
     9
100
AcDbSpline
210
0.0
220
0.0
230
1.0
 70
    11
 71
     3
 72
    23
 73
    19
 74
     0
 42
0.0000000001
 43
0.0000000001
 40
0.0
 40
0.0
 40
0.0
 40
0.0
 40
1.0
 40
1.0
 40
1.0
 40
2.0
 40
2.0
 40
2.0
 40
3.0
 40
3.0
 40
3.0
 40
4.0
 40
4.0
 40
4.0
 40
5.0
 40
5.0
 40
5.0
 40
6.0
 40
6.0
 40
6.0
 40
6.0
 10
204.3487402714734
 20
-163.9131678826768
 30
0.0
 10
204.3487402714734
 20
-163.9131678826768
 30
0.0
 10
206.7558032425599
 20
-163.9131678826768
 30
0.0
 10
206.7558032425599
 20
-163.9131678826768
 30
0.0
 10
207.1252574545456
 20
-163.9131678826768
 30
0.0
 10
207.4247673019803
 20
-163.7220992146182
 30
0.0
 10
207.4247673019803
 20
-163.4864037497324
 30
0.0
 10
207.4247673019803
 20
-163.4864037497324
 30
0.0
 10
207.4247673019803
 20
-161.793898135854
 30
0.0
 10
207.4247673019803
 20
-161.793898135854
 30
0.0
 10
207.4247673019803
 20
-161.5582026709683
 30
0.0
 10
207.1252574545456
 20
-161.367129408367
 30
0.0
 10
206.7558032425599
 20
-161.367129408367
 30
0.0
 10
206.7558032425599
 20
-161.367129408367
 30
0.0
 10
204.3487402714734
 20
-161.367129408367
 30
0.0
 10
204.3487402714734
 20
-161.367129408367
 30
0.0
 10
204.3487402714734
 20
-161.367129408367
 30
0.0
 10
204.3487402714734
 20
-163.9131678826768
 30
0.0
 10
204.3487402714734
 20
-163.9131678826768
 30
0.0
  0
SPLINE
  5
CA
330
C3
100
AcDbEntity
  8
レイヤー 1
 62
   250
420
  2299925
370
     9
100
AcDbSpline
210
0.0
220
0.0
230
1.0
 70
    11
 71
     3
 72
    23
 73
    19
 74
     0
 42
0.0000000001
 43
0.0000000001
 40
0.0
 40
0.0
 40
0.0
 40
0.0
 40
1.0
 40
1.0
 40
1.0
 40
2.0
 40
2.0
 40
2.0
 40
3.0
 40
3.0
 40
3.0
 40
4.0
 40
4.0
 40
4.0
 40
5.0
 40
5.0
 40
5.0
 40
6.0
 40
6.0
 40
6.0
 40
6.0
 10
178.5818393891018
 20
-161.3671320264856
 30
0.0
 10
178.5818393891018
 20
-161.3671320264856
 30
0.0
 10
176.1747796265361
 20
-161.3671309954234
 30
0.0
 10
176.1747796265361
 20
-161.3671309954234
 30
0.0
 10
175.8053188204986
 20
-161.3671308371651
 30
0.0
 10
175.505811557098
 20
-161.5582008961801
 30
0.0
 10
175.5058114301494
 20
-161.7938979169037
 30
0.0
 10
175.5058114301494
 20
-161.7938979169037
 30
0.0
 10
175.5058105185479
 20
-163.4864019751496
 30
0.0
 10
175.5058105185479
 20
-163.4864019751496
 30
0.0
 10
175.5058103915987
 20
-163.7220989958739
 30
0.0
 10
175.8053174491755
 20
-163.9131693114755
 30
0.0
 10
176.1747782552131
 20
-163.9131694697333
 30
0.0
 10
176.1747782552131
 20
-163.9131694697333
 30
0.0
 10
178.5818380177775
 20
-163.9131705007954
 30
0.0
 10
178.5818380177775
 20
-163.9131705007954
 30
0.0
 10
178.5818380177775
 20
-163.9131705007954
 30
0.0
 10
178.5818393891018
 20
-161.3671320264856
 30
0.0
 10
178.5818393891018
 20
-161.3671320264856
 30
0.0
  0
LWPOLYLINE
  5
CB
330
C3
100
AcDbEntity
  8
レイヤー 1
 62
   250
420
  2299925
370
     9
100
AcDbPolyline
 90
        3
 70
     0
 43
0.0
 10
178.5818393891018
 20
-157.6565585929571
 10
175.5058105185479
 20
-157.6565585929571
 10
175.5058105185479
 20
-161.3671309954234
  0
LWPOLYLINE
  5
CC
330
C3
100
AcDbEntity
  8
レイヤー 1
 62
   250
420
  2299925
370
     9
100
AcDbPolyline
 90
        3
 70
     0
 43
0.0
 10
175.5058105185479
 20
-163.4306222342792
 10
175.5058105185479
 20
-167.3940842786006
 10
178.5818393891018
 20
-167.3940842786006
  0
LWPOLYLINE
  5
CD
330
C3
100
AcDbEntity
  8
レイヤー 1
 62
   250
420
  2299925
370
     9
100
AcDbPolyline
 90
        1
 70
     0
 43
0.0
 10
189.5009480777279
 20
-157.2431730685665
  0
SPLINE
  5
CE
330
C3
100
AcDbEntity
  8
レイヤー 1
 62
   250
420
  2299925
370
   158
100
AcDbSpline
210
0.0
220
0.0
230
1.0
 70
     9
 71
     3
 72
    11
 73
     7
 74
     0
 42
0.0000000001
 43
0.0000000001
 40
0.0
 40
0.0
 40
0.0
 40
0.0
 40
1.0
 40
1.0
 40
1.0
 40
2.0
 40
2.0
 40
2.0
 40
2.0
 10
207.4247673019803
 20
-162.5712534722053
 30
0.0
 10
208.6952343491206
 20
-162.5559444547001
 30
0.0
 10
209.9656910921413
 20
-162.5406308426523
 30
0.0
 10
211.236158139281
 20
-162.5253218251471
 30
0.0
 10
211.236158139281
 20
-162.5253218251471
 30
0.0
 10
207.4247673019803
 20
-162.5712534722053
 30
0.0
 10
207.4247673019803
 20
-162.5712534722053
 30
0.0
  0
LWPOLYLINE
  5
CF
330
C3
100
AcDbEntity
  8
レイヤー 1
 62
   250
420
  2299925
370
     9
100
AcDbPolyline
 90
        6
 70
     0
 43
0.0
 10
204.3344542207655
 20
-157.6565585929571
 10
207.4247673019803
 20
-157.6565585929571
 10
207.4247673019803
 20
-161.2160201896399
 10
207.4247673019803
 20
-163.6583763507024
 10
207.4247673019803
 20
-167.3940842786006
 10
204.3487402714734
 20
-167.3940842786006
  0
ENDBLK
  5
C6
330
C3
100
AcDbEntity
  8
0
100
AcDbBlockEnd
  0
ENDSEC
  0
SECTION
  2
ENTITIES
  0
SPLINE
  5
79
330
70
100
AcDbEntity
  8
レイヤー 1
 62
   250
420
  2299925
370
     9
100
AcDbSpline
210
0.0
220
0.0
230
1.0
 70
     9
 71
     3
 72
   380
 73
   376
 74
     0
 42
0.0000000001
 43
0.0000000001
 40
0.0
 40
0.0
 40
0.0
 40
0.0
 40
1.0
 40
1.0
 40
1.0
 40
2.0
 40
2.0
 40
2.0
 40
3.0
 40
3.0
 40
3.0
 40
4.0
 40
4.0
 40
4.0
 40
5.0
 40
5.0
 40
5.0
 40
6.0
 40
6.0
 40
6.0
 40
7.0
 40
7.0
 40
7.0
 40
8.0
 40
8.0
 40
8.0
 40
9.0
 40
9.0
 40
9.0
 40
10.0
 40
10.0
 40
10.0
 40
11.0
 40
11.0
 40
11.0
 40
12.0
 40
12.0
 40
12.0
 40
13.0
 40
13.0
 40
13.0
 40
14.0
 40
14.0
 40
14.0
 40
15.0
 40
15.0
 40
15.0
 40
16.0
 40
16.0
 40
16.0
 40
17.0
 40
17.0
 40
17.0
 40
18.0
 40
18.0
 40
18.0
 40
19.0
 40
19.0
 40
19.0
 40
20.0
 40
20.0
 40
20.0
 40
21.0
 40
21.0
 40
21.0
 40
22.0
 40
22.0
 40
22.0
 40
23.0
 40
23.0
 40
23.0
 40
24.0
 40
24.0
 40
24.0
 40
25.0
 40
25.0
 40
25.0
 40
26.0
 40
26.0
 40
26.0
 40
27.0
 40
27.0
 40
27.0
 40
28.0
 40
28.0
 40
28.0
 40
29.0
 40
29.0
 40
29.0
 40
30.0
 40
30.0
 40
30.0
 40
31.0
 40
31.0
 40
31.0
 40
32.0
 40
32.0
 40
32.0
 40
33.0
 40
33.0
 40
33.0
 40
34.0
 40
34.0
 40
34.0
 40
35.0
 40
35.0
 40
35.0
 40
36.0
 40
36.0
 40
36.0
 40
37.0
 40
37.0
 40
37.0
 40
38.0
 40
38.0
 40
38.0
 40
39.0
 40
39.0
 40
39.0
 40
40.0
 40
40.0
 40
40.0
 40
41.0
 40
41.0
 40
41.0
 40
42.0
 40
42.0
 40
42.0
 40
43.0
 40
43.0
 40
43.0
 40
44.0
 40
44.0
 40
44.0
 40
45.0
 40
45.0
 40
45.0
 40
46.0
 40
46.0
 40
46.0
 40
47.0
 40
47.0
 40
47.0
 40
48.0
 40
48.0
 40
48.0
 40
49.0
 40
49.0
 40
49.0
 40
50.0
 40
50.0
 40
50.0
 40
51.0
 40
51.0
 40
51.0
 40
52.0
 40
52.0
 40
52.0
 40
53.0
 40
53.0
 40
53.0
 40
54.0
 40
54.0
 40
54.0
 40
55.0
 40
55.0
 40
55.0
 40
56.0
 40
56.0
 40
56.0
 40
57.0
 40
57.0
 40
57.0
 40
58.0
 40
58.0
 40
58.0
 40
59.0
 40
59.0
 40
59.0
 40
60.0
 40
60.0
 40
60.0
 40
61.0
 40
61.0
 40
61.0
 40
62.0
 40
62.0
 40
62.0
 40
63.0
 40
63.0
 40
63.0
 40
64.0
 40
64.0
 40
64.0
 40
65.0
 40
65.0
 40
65.0
 40
66.0
 40
66.0
 40
66.0
 40
67.0
 40
67.0
 40
67.0
 40
68.0
 40
68.0
 40
68.0
 40
69.0
 40
69.0
 40
69.0
 40
70.0
 40
70.0
 40
70.0
 40
71.0
 40
71.0
 40
71.0
 40
72.0
 40
72.0
 40
72.0
 40
73.0
 40
73.0
 40
73.0
 40
74.0
 40
74.0
 40
74.0
 40
75.0
 40
75.0
 40
75.0
 40
76.0
 40
76.0
 40
76.0
 40
77.0
 40
77.0
 40
77.0
 40
78.0
 40
78.0
 40
78.0
 40
79.0
 40
79.0
 40
79.0
 40
80.0
 40
80.0
 40
80.0
 40
81.0
 40
81.0
 40
81.0
 40
82.0
 40
82.0
 40
82.0
 40
83.0
 40
83.0
 40
83.0
 40
84.0
 40
84.0
 40
84.0
 40
85.0
 40
85.0
 40
85.0
 40
86.0
 40
86.0
 40
86.0
 40
87.0
 40
87.0
 40
87.0
 40
88.0
 40
88.0
 40
88.0
 40
89.0
 40
89.0
 40
89.0
 40
90.0
 40
90.0
 40
90.0
 40
91.0
 40
91.0
 40
91.0
 40
92.0
 40
92.0
 40
92.0
 40
93.0
 40
93.0
 40
93.0
 40
94.0
 40
94.0
 40
94.0
 40
95.0
 40
95.0
 40
95.0
 40
96.0
 40
96.0
 40
96.0
 40
97.0
 40
97.0
 40
97.0
 40
98.0
 40
98.0
 40
98.0
 40
99.0
 40
99.0
 40
99.0
 40
100.0
 40
100.0
 40
100.0
 40
101.0
 40
101.0
 40
101.0
 40
102.0
 40
102.0
 40
102.0
 40
103.0
 40
103.0
 40
103.0
 40
104.0
 40
104.0
 40
104.0
 40
105.0
 40
105.0
 40
105.0
 40
106.0
 40
106.0
 40
106.0
 40
107.0
 40
107.0
 40
107.0
 40
108.0
 40
108.0
 40
108.0
 40
109.0
 40
109.0
 40
109.0
 40
110.0
 40
110.0
 40
110.0
 40
111.0
 40
111.0
 40
111.0
 40
112.0
 40
112.0
 40
112.0
 40
113.0
 40
113.0
 40
113.0
 40
114.0
 40
114.0
 40
114.0
 40
115.0
 40
115.0
 40
115.0
 40
116.0
 40
116.0
 40
116.0
 40
117.0
 40
117.0
 40
117.0
 40
118.0
 40
118.0
 40
118.0
 40
119.0
 40
119.0
 40
119.0
 40
120.0
 40
120.0
 40
120.0
 40
121.0
 40
121.0
 40
121.0
 40
122.0
 40
122.0
 40
122.0
 40
123.0
 40
123.0
 40
123.0
 40
124.0
 40
124.0
 40
124.0
 40
125.0
 40
125.0
 40
125.0
 40
125.0
 10
128.1646062929518
 20
-96.17224297224751
 30
0.0
 10
128.1551574724064
 20
-96.19384027635131
 30
0.0
 10
128.149283237563
 20
-96.21359541997046
 30
0.0
 10
128.1464256310481
 20
-96.23699537380083
 30
0.0
 10
128.0827340999367
 20
-96.75854334749056
 30
0.0
 10
127.2634731104195
 20
-103.4920167939568
 30
0.0
 10
126.9539854755081
 20
-107.2942934514379
 30
0.0
 10
126.6318840263132
 20
-111.2515398272602
 30
0.0
 10
126.8159419972818
 20
-113.4602354788815
 30
0.0
 10
126.9539854755081
 20
-117.371467361962
 30
0.0
 10
127.0920289537344
 20
-121.2826992450411
 30
0.0
 10
127.5061593884134
 20
-127.448641272486
 30
0.0
 10
128.1503622868032
 20
-131.1758151845976
 30
0.0
 10
128.7945651851929
 20
-134.9029890967092
 30
0.0
 10
129.2547101126141
 20
-139.5044383709207
 30
0.0
 10
129.8068840255194
 20
-141.3450180806055
 30
0.0
 10
130.3590579384248
 20
-143.1855977902903
 30
0.0
 10
133.2579709811784
 20
-152.4805253241983
 30
0.0
 10
133.7641304013415
 20
-153.7229166282359
 30
0.0
 10
134.2702898215046
 20
-154.9653079322722
 30
0.0
 10
135.4206521400574
 20
-156.7598731492152
 30
0.0
 10
136.0648550384472
 20
-156.9439311201841
 30
0.0
 10
136.6790554886928
 20
-157.1194169631105
 30
0.0
 10
137.2932559389384
 20
-157.0857616255049
 30
0.0
 10
138.0270969008016
 20
-156.6036840841307
 30
0.0
 10
138.0946079407336
 20
-156.5593344800099
 30
0.0
 10
138.1354273269504
 20
-156.478903438212
 30
0.0
 10
138.1358562171059
 20
-156.398129408031
 30
0.0
 10
138.1423497873498
 20
-155.1751779552546
 30
0.0
 10
138.2378655484002
 20
-154.3086490782837
 30
0.0
 10
138.2885273986275
 20
-153.9324188787494
 30
0.0
 10
138.3047855885555
 20
-153.8116806504118
 30
0.0
 10
138.407189307509
 20
-153.7229166282359
 30
0.0
 10
138.5290172538999
 20
-153.7229166282359
 30
0.0
 10
138.5290172538999
 20
-153.7229166282359
 30
0.0
 10
140.2990290591373
 20
-153.7229166282359
 30
0.0
 10
140.2990290591373
 20
-153.7229166282359
 30
0.0
 10
140.3578149304778
 20
-153.7229166282359
 30
0.0
 10
140.414602666662
 20
-153.7442537748846
 30
0.0
 10
140.4588435434113
 20
-153.7829645420399
 30
0.0
 10
140.4588435434113
 20
-153.7829645420399
 30
0.0
 10
141.0728483352906
 20
-154.3202187349339
 30
0.0
 10
141.0728483352906
 20
-154.3202187349339
 30
0.0
 10
141.1077012652289
 20
-154.3507150486299
 30
0.0
 10
141.1323974128864
 20
-154.388147811967
 30
0.0
 10
141.145330552254
 20
-154.4326167424743
 30
0.0
 10
141.2754116507087
 20
-154.8798838106626
 30
0.0
 10
142.0485277070511
 20
-157.4739920927825
 30
0.0
 10
142.5528985150864
 20
-157.7261774968001
 30
0.0
 10
143.1012736541262
 20
-158.0003650663199
 30
0.0
 10
144.8971837393766
 20
-158.90992221857
 30
0.0
 10
148.4264177453366
 20
-157.9759264707141
 30
0.0
 10
148.4747755216782
 20
-157.9631288048743
 30
0.0
 10
148.5177406160113
 20
-157.9376612426976
 30
0.0
 10
148.5503759809944
 20
-157.899750983716
 30
0.0
 10
148.7798081715505
 20
-157.6332353872976
 30
0.0
 10
149.7476202253178
 20
-156.4100625945679
 30
0.0
 10
150.5079251872265
 20
-153.9392915474173
 30
0.0
 10
150.5386924642834
 20
-153.8393068029273
 30
0.0
 10
150.6300272478948
 20
-153.7675989135124
 30
0.0
 10
150.7346201728834
 20
-153.7656254620974
 30
0.0
 10
150.7346201728834
 20
-153.7656254620974
 30
0.0
 10
152.7457352944315
 20
-153.7276798937666
 30
0.0
 10
152.7457352944315
 20
-153.7276798937666
 30
0.0
 10
152.880398547045
 20
-153.7251390776794
 30
0.0
 10
152.9912950122978
 20
-153.8303102498263
 30
0.0
 10
152.9926598235686
 20
-153.9649905551458
 30
0.0
 10
152.9966912063577
 20
-154.3628095623832
 30
0.0
 10
153.0587392324175
 20
-155.1968745323675
 30
0.0
 10
153.452411750701
 20
-156.0567736916712
 30
0.0
 10
153.4567545414198
 20
-156.0662596525006
 30
0.0
 10
153.4609430499253
 20
-156.0744414937925
 30
0.0
 10
153.4661556699826
 20
-156.0834787431643
 30
0.0
 10
153.5132437248517
 20
-156.1651164780476
 30
0.0
 10
153.7717573479968
 20
-156.5919005518384
 30
0.0
 10
154.2100934893586
 20
-156.9213882637127
 30
0.0
 10
154.2307273854308
 20
-156.9368983131075
 30
0.0
 10
154.2532223891689
 20
-156.9496590794616
 30
0.0
 10
154.2776491298424
 20
-156.9580049550551
 30
0.0
 10
154.4560900928936
 20
-157.0189728139428
 30
0.0
 10
155.2429047119641
 20
-157.2103982208969
 30
0.0
 10
155.8510869175589
 20
-156.1156702508261
 30
0.0
 10
156.5413043086905
 20
-154.8732789467885
 30
0.0
 10
159.3021738732178
 20
-148.2471919919233
 30
0.0
 10
161.0047101046763
 20
-142.4493659064161
 30
0.0
 10
162.7072463361348
 20
-136.6515398209089
 30
0.0
 10
163.719565176461
 20
-131.8200180829867
 30
0.0
 10
164.5018115530771
 20
-122.7551630127895
 30
0.0
 10
165.2840579296932
 20
-113.6903079425923
 30
0.0
 10
165.0539854659837
 20
-112.8620470732343
 30
0.0
 10
164.7778985095304
 20
-107.6624093933743
 30
0.0
 10
164.5032211404815
 20
-102.4893189429616
 30
0.0
 10
164.9117312174904
 20
-107.3363110347144
 30
0.0
 10
164.1455837970398
 20
-95.28729063331333
 30
0.0
 10
164.1386656886407
 20
-95.17849116859819
 30
0.0
 10
164.0598665552146
 20
-95.08490991563391
 30
0.0
 10
163.9531858504701
 20
-95.06245081989815
 30
0.0
 10
163.9531858504701
 20
-95.06245081989815
 30
0.0
 10
163.3015451288392
 20
-94.92526329955397
 30
0.0
 10
163.3015451288392
 20
-94.92526329955397
 30
0.0
 10
163.2736793617165
 20
-94.91939682226577
 30
0.0
 10
163.2470634905477
 20
-94.90867192974912
 30
0.0
 10
163.2229153852367
 20
-94.89357936392982
 30
0.0
 10
163.2229153852367
 20
-94.89357936392982
 30
0.0
 10
163.0053702925404
 20
-94.75761368099481
 30
0.0
 10
163.0053702925404
 20
-94.75761368099481
 30
0.0
 10
162.9344113710206
 20
-94.71326435504508
 30
0.0
 10
162.8913043071031
 20
-94.63548853664002
 30
0.0
 10
162.8913043071031
 20
-94.55181039579372
 30
0.0
 10
162.8913043071031
 20
-94.55181039579372
 30
0.0
 10
162.8913043071031
 20
-94.10380938825014
 30
0.0
 10
162.8913043071031
 20
-94.10380938825014
 30
0.0
 10
162.8913043071031
 20
-93.9920501781382
 30
0.0
 10
162.9669054964216
 20
-93.8934361750457
 30
0.0
 10
163.0757924777006
 20
-93.86826185573271
 30
0.0
 10
163.4681511262777
 20
-93.77754980008905
 30
0.0
 10
164.384709051688
 20
-93.48548930242229
 30
0.0
 10
164.8160290503481
 20
-92.67663123661277
 30
0.0
 10
164.8216856542113
 20
-92.6660233592276
 30
0.0
 10
164.826202142682
 20
-92.65647569142732
 30
0.0
 10
164.8307882007013
 20
-92.64536298240882
 30
0.0
 10
164.8934238502934
 20
-92.49358737355874
 30
0.0
 10
165.3558951590925
 20
-91.30583025557205
 30
0.0
 10
165.0461676694033
 20
-90.03005882374472
 30
0.0
 10
165.0403067228543
 20
-90.0059175110776
 30
0.0
 10
165.0380057504859
 20
-89.98343624909983
 30
0.0
 10
165.0403202737419
 20
-89.95870172557804
 30
0.0
 10
165.0843429340451
 20
-89.48824651451273
 30
0.0
 10
165.4857597102203
 20
-84.23938913039426
 30
0.0
 10
162.0170289450032
 20
-79.409510849713
 30
0.0
 10
158.4065539043323
 20
-74.38226712219741
 30
0.0
 10
158.7451879038524
 20
-75.11981475220064
 30
0.0
 10
152.3480217478214
 20
-71.88400864993221
 30
0.0
 10
152.2679556103569
 20
-71.84350970244953
 30
0.0
 10
152.2147617725174
 20
-71.76105917256605
 30
0.0
 10
152.2128732230291
 20
-71.67135307190173
 30
0.0
 10
152.2128732230291
 20
-71.67135307190173
 30
0.0
 10
152.1294374165652
 20
-67.70815226486902
 30
0.0
 10
152.1294374165652
 20
-67.70815226486902
 30
0.0
 10
152.1273079963683
 20
-67.60700480549317
 30
0.0
 10
152.1929589355186
 20
-67.52761705834115
 30
0.0
 10
152.2806072934456
 20
-67.47708876605506
 30
0.0
 10
152.3842816130133
 20
-67.41732168717759
 30
0.0
 10
152.535445531792
 20
-67.20143096730691
 30
0.0
 10
152.7221014110945
 20
-66.57146737466103
 30
0.0
 10
152.7221014110945
 20
-66.57146737466103
 30
0.0
 10
152.9786474280124
 20
-66.2721636882581
 30
0.0
 10
151.8430695552543
 20
-65.67355631545161
 30
0.0
 10
151.7628768421448
 20
-65.63128360966516
 30
0.0
 10
151.7097825707683
 20
-65.54825620060261
 30
0.0
 10
151.7097825707683
 20
-65.45760382672098
 30
0.0
 10
151.7097825707683
 20
-65.45760382672098
 30
0.0
 10
151.7097825707683
 20
-65.20998471897573
 30
0.0
 10
151.7097825707683
 20
-65.20998471897573
 30
0.0
 10
151.7097825707683
 20
-65.09722345015362
 30
0.0
 10
151.787742943481
 20
-65.00174212590369
 30
0.0
 10
151.8969955939519
 20
-64.97383223318434
 30
0.0
 10
152.0600989903231
 20
-64.93216552509704
 30
0.0
 10
152.2869167042183
 20
-64.84037435687205
 30
0.0
 10
152.3949388806469
 20
-64.64230185005121
 30
0.0
 10
152.4392701406424
 20
-64.56101480244455
 30
0.0
 10
152.4316801353502
 20
-64.45762314605104
 30
0.0
 10
152.3740776403036
 20
-64.38513316546227
 30
0.0
 10
152.294428374844
 20
-64.28489838045121
 30
0.0
 10
152.1321556857458
 20
-64.12895956444329
 30
0.0
 10
151.8111973628804
 20
-63.95534782250289
 30
0.0
 10
151.7487004251755
 20
-63.92154218031239
 30
0.0
 10
151.7009044206699
 20
-63.86267512017565
 30
0.0
 10
151.6854906168239
 20
-63.79331300286799
 30
0.0
 10
151.6854906168239
 20
-63.79331300286799
 30
0.0
 10
151.6867753243967
 20
-63.29293476678518
 30
0.0
 10
151.6867753243967
 20
-63.29293476678518
 30
0.0
 10
151.6867753243967
 20
-63.29293476678518
 30
0.0
 10
152.4805253241983
 20
-63.13188404218759
 30
0.0
 10
152.4825275575755
 20
-62.74499588644938
 30
0.0
 10
152.4830044214242
 20
-62.65285229464365
 30
0.0
 10
152.5055584112969
 20
-62.5632694776361
 30
0.0
 10
152.4453861639738
 20
-62.49348431042832
 30
0.0
 10
152.3523352600506
 20
-62.38556790082086
 30
0.0
 10
152.1875957203981
 20
-62.22393957298919
 30
0.0
 10
151.9439609198422
 20
-62.08787220385023
 30
0.0
 10
151.8595640531894
 20
-62.04073747768285
 30
0.0
 10
151.8054841160382
 20
-61.95359907682419
 30
0.0
 10
151.8111605991383
 20
-61.85709886412317
 30
0.0
 10
151.8111605991383
 20
-61.85709886412317
 30
0.0
 10
151.8364718142317
 20
-61.42680820754356
 30
0.0
 10
151.8364718142317
 20
-61.42680820754356
 30
0.0
 10
151.8424241398886
 20
-61.32561867137998
 30
0.0
 10
151.9140545573083
 20
-61.24489492443578
 30
0.0
 10
152.0103600940031
 20
-61.21327221089456
 30
0.0
 10
152.094940917425
 20
-61.18549940320423
 30
0.0
 10
152.2798510086292
 20
-61.19544080595659
 30
0.0
 10
152.4230072082709
 20
-61.07273549197778
 30
0.0
 10
152.4230072082709
 20
-61.07273549197778
 30
0.0
 10
152.6140852679755
 20
-60.35863675481949
 30
0.0
 10
152.2159419909311
 20
-60.29048911536168
 30
0.0
 10
152.1763153694419
 20
-60.28370647988868
 30
0.0
 10
151.8512695802544
 20
-60.05793539876322
 30
0.0
 10
151.8342683576219
 20
-60.02150420740711
 30
0.0
 10
151.8342683576219
 20
-60.02150420740711
 30
0.0
 10
151.7853637297042
 20
-59.91670857615513
 30
0.0
 10
151.7853637297042
 20
-59.91670857615513
 30
0.0
 10
151.7660454539248
 20
-59.87531227091423
 30
0.0
 10
151.7588029752504
 20
-59.82930414038954
 30
0.0
 10
151.7644691364348
 20
-59.78397485091665
 30
0.0
 10
151.7644691364348
 20
-59.78397485091665
 30
0.0
 10
151.7943784218429
 20
-59.54470056764775
 30
0.0
 10
151.7943784218429
 20
-59.54470056764775
 30
0.0
 10
151.7943784218429
 20
-59.54470056764775
 30
0.0
 10
152.017835722442
 20
-59.29529409113836
 30
0.0
 10
152.0328387585102
 20
-58.85996754871202
 30
0.0
 10
152.0332853346288
 20
-58.8470097422576
 30
0.0
 10
152.0310205708916
 20
-58.83483179802612
 30
0.0
 10
152.0285904676473
 20
-58.82209606967861
 30
0.0
 10
152.008335234167
 20
-58.71594208145104
 30
0.0
 10
151.8841322382253
 20
-58.19045391655671
 30
0.0
 10
151.3735435558031
 20
-57.93603538926116
 30
0.0
 10
151.3534274819106
 20
-57.92601185746175
 30
0.0
 10
151.3361833458046
 20
-57.9151029159921
 30
0.0
 10
151.3201737289706
 20
-57.89932889344246
 30
0.0
 10
151.1523526545608
 20
-57.73397744003215
 30
0.0
 10
150.0213793452922
 20
-56.65283410248626
 30
0.0
 10
148.62055873834
 20
-56.12404217581125
 30
0.0
 10
148.5455861860292
 20
-56.09574099278503
 30
0.0
 10
148.4888996675984
 20
-56.03354728911352
 30
0.0
 10
148.4703174483476
 20
-55.95559511346465
 30
0.0
 10
148.4703174483476
 20
-55.95559511346465
 30
0.0
 10
148.2780729622186
 20
-55.14913191613086
 30
0.0
 10
148.2780729622186
 20
-55.14913191613086
 30
0.0
 10
148.2652189161239
 20
-55.09520935470529
 30
0.0
 10
148.2357064469142
 20
-55.047732085967
 30
0.0
 10
148.1915918204755
 20
-55.01416470796619
 30
0.0
 10
147.9857557204668
 20
-54.8575414124093
 30
0.0
 10
147.3193189306773
 20
-54.40738970669679
 30
0.0
 10
146.3721014126823
 20
-54.33161230525723
 30
0.0
 10
146.3721014126823
 20
-54.33161230525723
 30
0.0
 10
145.5956481179081
 20
-54.24453343107703
 30
0.0
 10
144.9568451159751
 20
-55.0444783475112
 30
0.0
 10
144.9222507389847
 20
-55.08779936498826
 30
0.0
 10
144.9034721859963
 20
-55.14409285960457
 30
0.0
 10
144.9034721859963
 20
-55.19953184836346
 30
0.0
 10
144.9034721859963
 20
-55.19953184836346
 30
0.0
 10
144.9034721859963
 20
-55.72246849609892
 30
0.0
 10
144.9034721859963
 20
-55.72246849609892
 30
0.0
 10
144.9034721859963
 20
-55.8023633132364
 30
0.0
 10
144.8641502382378
 20
-55.87714005847285
 30
0.0
 10
144.7983257949612
 20
-55.92242056722356
 30
0.0
 10
144.7983257949612
 20
-55.92242056722356
 30
0.0
 10
144.343900269655
 20
-56.23501901775258
 30
0.0
 10
144.343900269655
 20
-56.23501901775258
 30
0.0
 10
144.317262647014
 20
-56.25334298746738
 30
0.0
 10
144.2873343357379
 20
-56.26652928728618
 30
0.0
 10
144.2556477766035
 20
-56.27295523284495
 30
0.0
 10
144.1063940891398
 20
-56.30322346316962
 30
0.0
 10
143.5940660877346
 20
-56.42042497993138
 30
0.0
 10
142.743718248218
 20
-56.74983216227854
 30
0.0
 10
142.7041723590627
 20
-56.76515142260303
 30
0.0
 10
142.6686982238603
 20
-56.79018559802093
 30
0.0
 10
142.6414467769548
 20
-56.82268045496045
 30
0.0
 10
142.5591669693515
 20
-56.92079159695962
 30
0.0
 10
142.3783624650022
 20
-57.17978175804667
 30
0.0
 10
142.129703323764
 20
-57.78367129736744
 30
0.0
 10
142.1063271865771
 20
-57.8404422033012
 30
0.0
 10
142.061721216735
 20
-57.88895141641003
 30
0.0
 10
142.0059089337325
 20
-57.91453204611952
 30
0.0
 10
142.0059089337325
 20
-57.91453204611952
 30
0.0
 10
141.0661242693524
 20
-58.34526668396043
 30
0.0
 10
141.0661242693524
 20
-58.34526668396043
 30
0.0
 10
141.0158266966083
 20
-58.36831973813474
 30
0.0
 10
140.9749160584641
 20
-58.4078670733441
 30
0.0
 10
140.9501722142567
 20
-58.45735476175859
 30
0.0
 10
140.9501722142567
 20
-58.45735476175859
 30
0.0
 10
140.7665866186186
 20
-58.8245259530348
 30
0.0
 10
140.7665866186186
 20
-58.8245259530348
 30
0.0
 10
140.7324242375266
 20
-58.89285071521889
 30
0.0
 10
140.7324242375266
 20
-58.97327244372008
 30
0.0
 10
140.7665866186189
 20
-59.04159720590385
 30
0.0
 10
140.7665866186189
 20
-59.04159720590385
 30
0.0
 10
140.8707549905509
 20
-59.24993394976804
 30
0.0
 10
140.8707549905509
 20
-59.24993394976804
 30
0.0
 10
140.887604614219
 20
-59.28363319710403
 30
0.0
 10
140.8963767763701
 20
-59.32079267228559
 30
0.0
 10
140.8963767763701
 20
-59.35846957620256
 30
0.0
 10
140.8963767763701
 20
-59.35846957620256
 30
0.0
 10
140.8963767763701
 20
-60.09993375079533
 30
0.0
 10
140.8963767763701
 20
-60.09993375079533
 30
0.0
 10
140.8963767763701
 20
-60.17520884935811
 30
0.0
 10
140.8627709484607
 20
-60.24533452024238
 30
0.0
 10
140.8030266386729
 20
-60.29112707325721
 30
0.0
 10
140.6192937947196
 20
-60.43195380683563
 30
0.0
 10
140.2913339833714
 20
-60.51929971478153
 30
0.0
 10
140.1860280446635
 20
-60.76501357176635
 30
0.0
 10
140.1860280446635
 20
-60.76501357176635
 30
0.0
 10
139.7857800688289
 20
-61.45519545788683
 30
0.0
 10
140.602095474879
 20
-61.89299589912068
 30
0.0
 10
140.6959212855143
 20
-61.94331588694719
 30
0.0
 10
140.696095545136
 20
-62.04104812600416
 30
0.0
 10
140.675215499531
 20
-62.14544835402965
 30
0.0
 10
140.675215499531
 20
-62.14544835402965
 30
0.0
 10
140.6820251177998
 20
-62.35155900216848
 30
0.0
 10
140.6820251177998
 20
-62.35155900216848
 30
0.0
 10
140.6720137252233
 20
-62.40161596505217
 30
0.0
 10
140.6772492008918
 20
-62.49035219591966
 30
0.0
 10
140.6398226585063
 20
-62.52506791915222
 30
0.0
 10
140.4853539510719
 20
-62.66834839748563
 30
0.0
 10
140.0163474520703
 20
-62.42959089419858
 30
0.0
 10
140.114130399754
 20
-63.30443838997066
 30
0.0
 10
140.1687726098853
 20
-63.79331300286799
 30
0.0
 10
140.4264590768923
 20
-63.80439704316888
 30
0.0
 10
140.4264590768923
 20
-63.80439704316888
 30
0.0
 10
140.4264590768923
 20
-63.80439704316888
 30
0.0
 10
140.3991285430783
 20
-63.79331300286799
 30
0.0
 10
140.675215499531
 20
-63.79331300286799
 30
0.0
 10
140.675215499531
 20
-63.79331300286799
 30
0.0
 10
140.6663043126596
 20
-64.27074273755497
 30
0.0
 10
140.6663043126596
 20
-64.27074273755497
 30
0.0
 10
140.6663043126596
 20
-64.27074273755497
 30
0.0
 10
140.4129671689783
 20
-64.34083332742334
 30
0.0
 10
139.9902090169099
 20
-64.86729729814761
 30
0.0
 10
139.9902090169099
 20
-64.86729729814761
 30
0.0
 10
139.7632698925951
 20
-66.03862471353832
 30
0.0
 10
140.5046437639965
 20
-65.9940821873268
 30
0.0
 10
140.5879279222774
 20
-65.98907838702304
 30
0.0
 10
140.6202898199174
 20
-66.11593784890999
 30
0.0
 10
140.6202898199174
 20
-66.19937218859075
 30
0.0
 10
140.6202898199174
 20
-66.19937218859075
 30
0.0
 10
140.6202898199174
 20
-66.4478821111258
 30
0.0
 10
140.6202898199174
 20
-66.4478821111258
 30
0.0
 10
140.6202898199174
 20
-66.52552849339523
 30
0.0
 10
140.5831373889652
 20
-66.59848732444427
 30
0.0
 10
140.5203419578084
 20
-66.64415672892201
 30
0.0
 10
140.5203419578084
 20
-66.64415672892201
 30
0.0
 10
140.2129260263664
 20
-66.86773195178918
 30
0.0
 10
140.2129260263664
 20
-66.86773195178918
 30
0.0
 10
140.1507768680664
 20
-66.91293133964375
 30
0.0
 10
140.1137069298378
 20
-66.98489459762841
 30
0.0
 10
140.1129887624381
 20
-67.0617385093934
 30
0.0
 10
140.1129887624381
 20
-67.0617385093934
 30
0.0
 10
140.0697714673604
 20
-71.68598908268117
 30
0.0
 10
140.0697714673604
 20
-71.68598908268117
 30
0.0
 10
140.0687916736254
 20
-71.79082701233581
 30
0.0
 10
140.0017732531465
 20
-71.88244431656577
 30
0.0
 10
139.9019615767183
 20
-71.91453139712262
 30
0.0
 10
138.8889016878701
 20
-72.240206061907
 30
0.0
 10
133.4864393308002
 20
-74.15434340883462
 30
0.0
 10
130.4510869239089
 20
-78.81132244406481
 30
0.0
 10
130.4510869239089
 20
-78.81132244406481
 30
0.0
 10
127.2760869247033
 20
-83.73487316747114
 30
0.0
 10
127.3681159101874
 20
-89.90081519491509
 30
0.0
 10
127.3681159101874
 20
-89.90081519491509
 30
0.0
 10
127.3229801880455
 20
-92.42841563486559
 30
0.0
 10
127.3229801880455
 20
-92.42841563486559
 30
0.0
 10
127.3223381330293
 20
-92.46437071578093
 30
0.0
 10
127.3284708086539
 20
-92.49918940986331
 30
0.0
 10
127.3437891657444
 20
-92.53172443736165
 30
0.0
 10
127.4331571093059
 20
-92.72153516471952
 30
0.0
 10
127.8494343610913
 20
-93.36250870162889
 30
0.0
 10
129.4847825763249
 20
-93.67400359976889
 30
0.0
 10
129.4847825763249
 20
-93.67400359976889
 30
0.0
 10
129.7148550400353
 20
-93.85806157073742
 30
0.0
 10
129.7148550400353
 20
-93.85806157073742
 30
0.0
 10
129.7148550400353
 20
-93.85806157073742
 30
0.0
 10
129.7148550400353
 20
-94.27567891684324
 30
0.0
 10
129.7148550400353
 20
-94.27567891684324
 30
0.0
 10
129.7148550400353
 20
-94.38285415778242
 30
0.0
 10
129.6445545957524
 20
-94.47734010966994
 30
0.0
 10
129.5418993328561
 20
-94.50813668853861
 30
0.0
 10
129.5418993328561
 20
-94.50813668853861
 30
0.0
 10
128.9021515161219
 20
-94.70006103355895
 30
0.0
 10
128.9021515161219
 20
-94.70006103355895
 30
0.0
 10
128.8339047712331
 20
-94.72053505702541
 30
0.0
 10
128.7781028608127
 20
-94.76996510285015
 30
0.0
 10
128.7495438401067
 20
-94.83524286446296
 30
0.0
 10
128.7495438401067
 20
-94.83524286446296
 30
0.0
 10
128.1646062929518
 20
-96.17224297224751
 30
0.0
 10
128.1646062929518
 20
-96.17224297224751
 30
0.0
  0
SPLINE
  5
7A
330
70
100
AcDbEntity
  8
レイヤー 1
 62
   250
420
  2299925
370
     9
100
AcDbSpline
210
0.0
220
0.0
230
1.0
 70
     8
 71
     3
 72
     8
 73
     4
 74
     0
 42
0.0000000001
 43
0.0000000001
 40
0.0
 40
0.0
 40
0.0
 40
0.0
 40
1.0
 40
1.0
 40
1.0
 40
1.0
 10
127.3681159101868
 20
-89.77427533987329
 30
0.0
 10
127.3681159101868
 20
-89.77427533987329
 30
0.0
 10
140.9068755290267
 20
-89.27323896946091
 30
0.0
 10
165.1052493350536
 20
-90.21397454579988
 30
0.0
  0
LWPOLYLINE
  5
7B
330
70
100
AcDbEntity
  8
レイヤー 1
 62
   250
420
  2299925
370
     9
100
AcDbPolyline
 90
        1
 70
     0
 43
0.0
 10
118.3952898254749
 20
-78.59275360354016
  0
ELLIPSE
  5
7C
330
70
100
AcDbEntity
  8
レイヤー 1
 62
   250
420
  2299925
370
     9
100
AcDbEllipse
 10
134.2958092652724
 20
-81.21860314780004
 30
0.0
 11
0.6190521530605212
 21
2.251958136383742
 31
0.0
210
0.0
220
0.0
230
1.0
 40
0.2758313141429818
 41
0.0
 42
6.283185307179585
  0
ELLIPSE
  5
7D
330
70
100
AcDbEntity
  8
レイヤー 1
 62
   250
420
  2299925
370
     9
100
AcDbEllipse
 10
157.072983172621
 20
-81.21860314780004
 30
0.0
 11
-0.6190521530605221
 21
2.251958136383697
 31
0.0
210
0.0
220
0.0
230
0.9999999999999998
 40
0.2758313141430531
 41
0.0
 42
6.283185307179585
  0
LINE
  5
7E
330
70
100
AcDbEntity
  8
レイヤー 1
 62
   250
420
  2299925
370
     9
100
AcDbLine
 10
144.7983257949612
 20
-55.92242056722356
 30
0.0
 11
148.4703174483476
 21
-55.95559511346465
 31
0.0
  0
LINE
  5
7F
330
70
100
AcDbEntity
  8
レイヤー 1
 62
   250
420
  2299925
370
     9
100
AcDbLine
 10
151.3735435558031
 20
-57.93603538926116
 30
0.0
 11
142.2184093724112
 21
-57.57626057243977
 31
0.0
  0
SPLINE
  5
80
330
70
100
AcDbEntity
  8
レイヤー 1
 62
   250
420
  2299925
370
     9
100
AcDbSpline
210
0.0
220
0.0
230
1.0
 70
     8
 71
     3
 72
    11
 73
     7
 74
     0
 42
0.0000000001
 43
0.0000000001
 40
0.0
 40
0.0
 40
0.0
 40
0.0
 40
1.0
 40
1.0
 40
1.0
 40
2.0
 40
2.0
 40
2.0
 40
2.0
 10
152.0285904676473
 20
-58.82209606967861
 30
0.0
 10
152.0285904676473
 20
-58.82209606967861
 30
0.0
 10
150.7970599400039
 20
-59.04349743384077
 30
0.0
 10
148.865877447525
 20
-59.26485966114622
 30
0.0
 10
146.7952010674086
 20
-59.50221140667881
 30
0.0
 10
143.9201472389942
 20
-59.73951815726202
 30
0.0
 10
140.8963767763701
 20
-59.70380433290026
 30
0.0
  0
SPLINE
  5
81
330
70
100
AcDbEntity
  8
レイヤー 1
 62
   250
420
  2299925
370
     9
100
AcDbSpline
210
0.0
220
0.0
230
1.0
 70
     8
 71
     3
 72
    11
 73
     7
 74
     0
 42
0.0000000001
 43
0.0000000001
 40
0.0
 40
0.0
 40
0.0
 40
0.0
 40
1.0
 40
1.0
 40
1.0
 40
2.0
 40
2.0
 40
2.0
 40
2.0
 10
152.0285904676473
 20
-59.26474229207634
 30
0.0
 10
152.0285904676473
 20
-59.26474229207634
 30
0.0
 10
150.7970599400039
 20
-59.48614365623882
 30
0.0
 10
148.865877447525
 20
-59.70750588354427
 30
0.0
 10
146.7952010674086
 20
-59.94485762907686
 30
0.0
 10
143.9201472389942
 20
-60.18216437966007
 30
0.0
 10
140.8963767763701
 20
-60.146450555298
 30
0.0
  0
SPLINE
  5
82
330
70
100
AcDbEntity
  8
レイヤー 1
 62
   250
420
  2299925
370
     9
100
AcDbSpline
210
0.0
220
0.0
230
1.0
 70
     8
 71
     3
 72
    11
 73
     7
 74
     0
 42
0.0000000001
 43
0.0000000001
 40
0.0
 40
0.0
 40
0.0
 40
0.0
 40
1.0
 40
1.0
 40
1.0
 40
2.0
 40
2.0
 40
2.0
 40
2.0
 10
151.8074291908088
 20
-61.41055718419573
 30
0.0
 10
151.8074291908088
 20
-61.41055718419573
 30
0.0
 10
150.5758986631654
 20
-61.63106218615081
 30
0.0
 10
148.6447161706856
 20
-61.85152820969782
 30
0.0
 10
146.5740397905695
 20
-62.08791901655107
 30
0.0
 10
143.6989859621551
 20
-62.32426501062047
 30
0.0
 10
140.675215499531
 20
-62.28869577670685
 30
0.0
  0
SPLINE
  5
83
330
70
100
AcDbEntity
  8
レイヤー 1
 62
   250
420
  2299925
370
     9
100
AcDbSpline
210
0.0
220
0.0
230
1.0
 70
     8
 71
     3
 72
    11
 73
     7
 74
     0
 42
0.0000000001
 43
0.0000000001
 40
0.0
 40
0.0
 40
0.0
 40
0.0
 40
1.0
 40
1.0
 40
1.0
 40
2.0
 40
2.0
 40
2.0
 40
2.0
 10
151.7720363497835
 20
-61.85141131580704
 30
0.0
 10
151.7720363497835
 20
-61.85141131580704
 30
0.0
 10
150.54050582214
 20
-62.07191631776212
 30
0.0
 10
148.6093233296609
 20
-62.29238234130914
 30
0.0
 10
146.5386469495448
 20
-62.52877314816238
 30
0.0
 10
143.2443093768441
 20
-62.7686888129423
 30
0.0
 10
140.2205389142199
 20
-62.7331195790287
 30
0.0
  0
SPLINE
  5
84
330
70
100
AcDbEntity
  8
レイヤー 1
 62
   250
420
  2299925
370
     9
100
AcDbSpline
210
0.0
220
0.0
230
1.0
 70
     8
 71
     3
 72
    11
 73
     7
 74
     0
 42
0.0000000001
 43
0.0000000001
 40
0.0
 40
0.0
 40
0.0
 40
0.0
 40
1.0
 40
1.0
 40
1.0
 40
2.0
 40
2.0
 40
2.0
 40
2.0
 10
151.5586727681695
 20
-63.55278789474101
 30
0.0
 10
151.5586727681695
 20
-63.55278789474101
 30
0.0
 10
150.3271422405261
 20
-63.77329289669609
 30
0.0
 10
148.395959748047
 20
-63.9937589202431
 30
0.0
 10
146.3252833679309
 20
-64.23014972709636
 30
0.0
 10
143.4502295395164
 20
-64.46649572116574
 30
0.0
 10
140.4264590768923
 20
-64.43092648725214
 30
0.0
  0
SPLINE
  5
85
330
70
100
AcDbEntity
  8
レイヤー 1
 62
   250
420
  2299925
370
     9
100
AcDbSpline
210
0.0
220
0.0
230
1.0
 70
     8
 71
     3
 72
    11
 73
     7
 74
     0
 42
0.0000000001
 43
0.0000000001
 40
0.0
 40
0.0
 40
0.0
 40
0.0
 40
1.0
 40
1.0
 40
1.0
 40
2.0
 40
2.0
 40
2.0
 40
2.0
 10
151.6854906168239
 20
-63.79331300286799
 30
0.0
 10
151.6854906168239
 20
-63.79331300286799
 30
0.0
 10
150.379925971788
 20
-64.08532799524339
 30
0.0
 10
148.3326494092526
 20
-64.37729136847344
 30
0.0
 10
146.1374932092983
 20
-64.69034394800059
 30
0.0
 10
143.1843184750781
 20
-64.98790751467535
 30
0.0
 10
139.9787724312796
 20
-64.94080314299207
 30
0.0
  0
SPLINE
  5
86
330
70
100
AcDbEntity
  8
レイヤー 1
 62
   250
420
  2299925
370
     9
100
AcDbSpline
210
0.0
220
0.0
230
1.0
 70
     8
 71
     3
 72
    11
 73
     7
 74
     0
 42
0.0000000001
 43
0.0000000001
 40
0.0
 40
0.0
 40
0.0
 40
0.0
 40
1.0
 40
1.0
 40
1.0
 40
2.0
 40
2.0
 40
2.0
 40
2.0
 10
151.5586727681695
 20
-66.03862471353832
 30
0.0
 10
151.5586727681695
 20
-66.03862471353832
 30
0.0
 10
150.3271422405261
 20
-66.25912971549341
 30
0.0
 10
148.395959748047
 20
-66.47959573904042
 30
0.0
 10
146.3252833679309
 20
-66.71598654589367
 30
0.0
 10
143.2443093768441
 20
-66.98665617369719
 30
0.0
 10
140.2205389142199
 20
-66.95108693978392
 30
0.0
  0
SPLINE
  5
87
330
70
100
AcDbEntity
  8
レイヤー 1
 62
   250
420
  2299925
370
     9
100
AcDbSpline
210
0.0
220
0.0
230
1.0
 70
     8
 71
     3
 72
    14
 73
    10
 74
     0
 42
0.0000000001
 43
0.0000000001
 40
0.0
 40
0.0
 40
0.0
 40
0.0
 40
1.0
 40
1.0
 40
1.0
 40
2.0
 40
2.0
 40
2.0
 40
3.0
 40
3.0
 40
3.0
 40
3.0
 10
129.6484579890862
 20
-93.56980166567037
 30
0.0
 10
129.6484579890862
 20
-93.56980166567037
 30
0.0
 10
138.4751666069897
 20
-93.7205436060772
 30
0.0
 10
147.4290604350513
 20
-93.77615993498926
 30
0.0
 10
148.6254621935285
 20
-93.78359127994272
 30
0.0
 10
149.8241346889006
 20
-93.78932427305532
 30
0.0
 10
151.0043244489525
 20
-93.79277237582781
 30
0.0
 10
155.821836348905
 20
-93.80684746502314
 30
0.0
 10
160.3313784338262
 20
-93.7828504159124
 30
0.0
 10
163.1213767708132
 20
-93.68088706292601
 30
0.0
  0
SPLINE
  5
88
330
70
100
AcDbEntity
  8
レイヤー 1
 62
   250
420
  2299925
370
     9
100
AcDbSpline
210
0.0
220
0.0
230
1.0
 70
     8
 71
     3
 72
    68
 73
    64
 74
     0
 42
0.0000000001
 43
0.0000000001
 40
0.0
 40
0.0
 40
0.0
 40
0.0
 40
1.0
 40
1.0
 40
1.0
 40
2.0
 40
2.0
 40
2.0
 40
3.0
 40
3.0
 40
3.0
 40
4.0
 40
4.0
 40
4.0
 40
5.0
 40
5.0
 40
5.0
 40
6.0
 40
6.0
 40
6.0
 40
7.0
 40
7.0
 40
7.0
 40
8.0
 40
8.0
 40
8.0
 40
9.0
 40
9.0
 40
9.0
 40
10.0
 40
10.0
 40
10.0
 40
11.0
 40
11.0
 40
11.0
 40
12.0
 40
12.0
 40
12.0
 40
13.0
 40
13.0
 40
13.0
 40
14.0
 40
14.0
 40
14.0
 40
15.0
 40
15.0
 40
15.0
 40
16.0
 40
16.0
 40
16.0
 40
17.0
 40
17.0
 40
17.0
 40
18.0
 40
18.0
 40
18.0
 40
19.0
 40
19.0
 40
19.0
 40
20.0
 40
20.0
 40
20.0
 40
21.0
 40
21.0
 40
21.0
 40
21.0
 10
129.5418993328561
 20
-94.50813668853861
 30
0.0
 10
129.5418993328561
 20
-94.50813668853861
 30
0.0
 10
134.6844202561836
 20
-94.50813668853861
 30
0.0
 10
134.6844202561836
 20
-94.50813668853861
 30
0.0
 10
134.6844202561836
 20
-94.50813668853861
 30
0.0
 10
136.2028985166732
 20
-94.329710121347
 30
0.0
 10
136.432970980384
 20
-96.53840577296895
 30
0.0
 10
136.432970980384
 20
-96.53840577296895
 30
0.0
 10
136.432970980384
 20
-103.7166666407375
 30
0.0
 10
136.432970980384
 20
-103.7166666407375
 30
0.0
 10
136.432970980384
 20
-103.7166666407375
 30
0.0
 10
136.8471014150633
 20
-103.7166666407375
 30
0.0
 10
136.8471014150633
 20
-103.7166666407375
 30
0.0
 10
136.8471014150633
 20
-103.7166666407375
 30
0.0
 10
136.8471014150633
 20
-105.8793477996169
 30
0.0
 10
136.8471014150633
 20
-105.8793477996169
 30
0.0
 10
136.8471014150633
 20
-105.8793477996169
 30
0.0
 10
136.3409419948999
 20
-105.8793477996169
 30
0.0
 10
136.3409419948999
 20
-105.8793477996169
 30
0.0
 10
136.3409419948999
 20
-105.8793477996169
 30
0.0
 10
136.5710144586093
 20
-134.3163043142475
 30
0.0
 10
137.2152173569991
 20
-137.5373188061956
 30
0.0
 10
137.2152173569991
 20
-137.5373188061956
 30
0.0
 10
137.9514492408733
 20
-137.5373188061956
 30
0.0
 10
137.9514492408733
 20
-137.5373188061956
 30
0.0
 10
137.9514492408733
 20
-137.5373188061956
 30
0.0
 10
137.9514492408733
 20
-140.2061593852384
 30
0.0
 10
137.9514492408733
 20
-140.2061593852384
 30
0.0
 10
137.9514492408733
 20
-140.2061593852384
 30
0.0
 10
137.3992753279676
 20
-140.2061593852384
 30
0.0
 10
137.3992753279676
 20
-140.2061593852384
 30
0.0
 10
137.3992753279676
 20
-140.2061593852384
 30
0.0
 10
137.6143710831191
 20
-145.7139578579338
 30
0.0
 10
137.9514492408733
 20
-149.8231883683416
 30
0.0
 10
137.9514492408733
 20
-149.8231883683416
 30
0.0
 10
139.1478260521684
 20
-149.8231883683416
 30
0.0
 10
139.1478260521684
 20
-149.8231883683416
 30
0.0
 10
139.1478260521684
 20
-149.8231883683416
 30
0.0
 10
138.2735506900679
 20
-137.215217357001
 30
0.0
 10
138.2735506900679
 20
-137.215217357001
 30
0.0
 10
138.2735506900679
 20
-137.215217357001
 30
0.0
 10
137.3992753279686
 20
-127.9202898230937
 30
0.0
 10
137.5833332989372
 20
-119.4076086658018
 30
0.0
 10
137.5833332989372
 20
-119.4076086658018
 30
0.0
 10
138.043478226358
 20
-108.9623188133413
 30
0.0
 10
138.0894927191003
 20
-100.7717391052439
 30
0.0
 10
138.0894927191003
 20
-100.7717391052439
 30
0.0
 10
137.5833332989369
 20
-100.7717391052439
 30
0.0
 10
137.5833332989369
 20
-100.7717391052439
 30
0.0
 10
137.5833332989369
 20
-100.7717391052439
 30
0.0
 10
137.5373188061949
 20
-97.45869562781138
 30
0.0
 10
137.5373188061949
 20
-97.45869562781138
 30
0.0
 10
137.5373188061949
 20
-97.45869562781138
 30
0.0
 10
138.73369561749
 20
-97.55072461329516
 30
0.0
 10
138.73369561749
 20
-97.55072461329516
 30
0.0
 10
138.73369561749
 20
-97.55072461329516
 30
0.0
 10
138.8717390957163
 20
-96.03224635280552
 30
0.0
 10
140.2061593852378
 20
-94.69782606328411
 30
0.0
 10
140.2061593852378
 20
-94.69782606328411
 30
0.0
 10
145.1297101086444
 20
-94.50468463123513
 30
0.0
 10
145.1297101086444
 20
-94.50468463123513
 30
0.0
 10
145.1297101086444
 20
-94.50468463123513
 30
0.0
 10
145.1297101086444
 20
-93.75986401788956
 30
0.0
 10
145.1297101086444
 20
-93.75986401788956
 30
0.0
  0
SPLINE
  5
89
330
70
100
AcDbEntity
  8
レイヤー 1
 62
   250
420
  2299925
370
     9
100
AcDbSpline
210
0.0
220
0.0
230
1.0
 70
     8
 71
     3
 72
    80
 73
    76
 74
     0
 42
0.0000000001
 43
0.0000000001
 40
0.0
 40
0.0
 40
0.0
 40
0.0
 40
1.0
 40
1.0
 40
1.0
 40
2.0
 40
2.0
 40
2.0
 40
3.0
 40
3.0
 40
3.0
 40
4.0
 40
4.0
 40
4.0
 40
5.0
 40
5.0
 40
5.0
 40
6.0
 40
6.0
 40
6.0
 40
7.0
 40
7.0
 40
7.0
 40
8.0
 40
8.0
 40
8.0
 40
9.0
 40
9.0
 40
9.0
 40
10.0
 40
10.0
 40
10.0
 40
11.0
 40
11.0
 40
11.0
 40
12.0
 40
12.0
 40
12.0
 40
13.0
 40
13.0
 40
13.0
 40
14.0
 40
14.0
 40
14.0
 40
15.0
 40
15.0
 40
15.0
 40
16.0
 40
16.0
 40
16.0
 40
17.0
 40
17.0
 40
17.0
 40
18.0
 40
18.0
 40
18.0
 40
19.0
 40
19.0
 40
19.0
 40
20.0
 40
20.0
 40
20.0
 40
21.0
 40
21.0
 40
21.0
 40
22.0
 40
22.0
 40
22.0
 40
23.0
 40
23.0
 40
23.0
 40
24.0
 40
24.0
 40
24.0
 40
25.0
 40
25.0
 40
25.0
 40
25.0
 10
149.0869564844668
 20
-93.79645382526513
 30
0.0
 10
149.0869564844668
 20
-93.79645382526513
 30
0.0
 10
149.0869564844668
 20
-94.60579707779999
 30
0.0
 10
149.0869564844668
 20
-94.60579707779999
 30
0.0
 10
149.0869564844668
 20
-94.60579707779999
 30
0.0
 10
152.5840579328682
 20
-94.60579707779999
 30
0.0
 10
152.5840579328682
 20
-94.60579707779999
 30
0.0
 10
152.5840579328682
 20
-94.60579707779999
 30
0.0
 10
153.6884057586789
 20
-94.28369562860543
 30
0.0
 10
155.3909419901374
 20
-97.50471012055358
 30
0.0
 10
155.3909419901374
 20
-97.50471012055358
 30
0.0
 10
155.66702894659
 20
-107.3518115673678
 30
0.0
 10
155.66702894659
 20
-111.0329709867369
 30
0.0
 10
155.66702894659
 20
-111.0329709867369
 30
0.0
 10
155.66702894659
 20
-124.4231883746929
 30
0.0
 10
155.66702894659
 20
-124.4231883746929
 30
0.0
 10
155.66702894659
 20
-124.4231883746929
 30
0.0
 10
154.9768115554577
 20
-135.1905796763486
 30
0.0
 10
153.8264492369046
 20
-140.2061593852397
 30
0.0
 10
153.8264492369046
 20
-140.2061593852397
 30
0.0
 10
152.1699274981879
 20
-149.1329709772112
 30
0.0
 10
151.4336956143144
 20
-152.4920289473863
 30
0.0
 10
151.4336956143144
 20
-152.4920289473863
 30
0.0
 10
152.9981883675466
 20
-152.4920289473863
 30
0.0
 10
152.9981883675466
 20
-152.4920289473863
 30
0.0
 10
152.9981883675466
 20
-152.4920289473863
 30
0.0
 10
154.2865941643261
 20
-147.6605072094635
 30
0.0
 10
154.5626811207787
 20
-144.301449239289
 30
0.0
 10
154.5626811207787
 20
-144.301449239289
 30
0.0
 10
153.7344202514207
 20
-144.2094202538052
 30
0.0
 10
153.7344202514207
 20
-144.2094202538052
 30
0.0
 10
153.7344202514207
 20
-144.2094202538052
 30
0.0
 10
153.8264492369046
 20
-142.3228260513785
 30
0.0
 10
153.8264492369046
 20
-142.3228260513785
 30
0.0
 10
153.8264492369046
 20
-142.3228260513785
 30
0.0
 10
154.8847825699733
 20
-142.3228260513785
 30
0.0
 10
154.8847825699733
 20
-142.3228260513785
 30
0.0
 10
154.8847825699733
 20
-142.3228260513785
 30
0.0
 10
155.6210144538468
 20
-136.248913009418
 30
0.0
 10
156.3112318449791
 20
-128.0123188085788
 30
0.0
 10
156.3112318449791
 20
-128.0123188085788
 30
0.0
 10
156.5873188014318
 20
-123.1442413863259
 30
0.0
 10
156.5873188014318
 20
-123.1442413863259
 30
0.0
 10
156.5873188014318
 20
-123.1442413863259
 30
0.0
 10
156.2192028594953
 20
-123.1442413863259
 30
0.0
 10
156.2192028594953
 20
-123.1442413863259
 30
0.0
 10
156.2192028594953
 20
-123.1442413863259
 30
0.0
 10
156.2192028594953
 20
-120.143840549676
 30
0.0
 10
156.2192028594953
 20
-120.143840549676
 30
0.0
 10
156.2192028594953
 20
-120.143840549676
 30
0.0
 10
156.8173912651426
 20
-120.1898550424185
 30
0.0
 10
156.8173912651426
 20
-120.1898550424185
 30
0.0
 10
156.8173912651426
 20
-120.1898550424185
 30
0.0
 10
156.8173912651426
 20
-112.8275362036792
 30
0.0
 10
156.8173912651426
 20
-112.8275362036792
 30
0.0
 10
156.8173912651426
 20
-112.8275362036792
 30
0.0
 10
156.1271738740096
 20
-112.7815217109373
 30
0.0
 10
156.1271738740096
 20
-112.7815217109373
 30
0.0
 10
156.1271738740096
 20
-112.7815217109373
 30
0.0
 10
156.1271738740096
 20
-110.5268115665734
 30
0.0
 10
156.1271738740096
 20
-110.5268115665734
 30
0.0
 10
156.1271738740096
 20
-110.5268115665734
 30
0.0
 10
156.8173912651426
 20
-110.4807970738315
 30
0.0
 10
156.8173912651426
 20
-110.4807970738315
 30
0.0
 10
156.8173912651426
 20
-110.4807970738315
 30
0.0
 10
156.8173912651426
 20
-96.44637678748516
 30
0.0
 10
156.8173912651426
 20
-96.44637678748516
 30
0.0
 10
156.8173912651426
 20
-96.44637678748516
 30
0.0
 10
157.2775361925635
 20
-95.84818838183728
 30
0.0
 10
158.7960144530531
 20
-94.37572461408954
 30
0.0
 10
158.7960144530531
 20
-94.37572461408954
 30
0.0
 10
160.2684782208008
 20
-94.23768113586321
 30
0.0
 10
160.2684782208008
 20
-94.23768113586321
 30
0.0
 10
160.2684782208008
 20
-94.23768113586321
 30
0.0
 10
160.2684782208008
 20
-93.68312774546776
 30
0.0
 10
160.2684782208008
 20
-93.68312774546776
 30
0.0
  0
SPLINE
  5
8A
330
70
100
AcDbEntity
  8
レイヤー 1
 62
   250
420
  2299925
370
     9
100
AcDbSpline
210
0.0
220
0.0
230
1.0
 70
     8
 71
     3
 72
    17
 73
    13
 74
     0
 42
0.0000000001
 43
0.0000000001
 40
0.0
 40
0.0
 40
0.0
 40
0.0
 40
1.0
 40
1.0
 40
1.0
 40
2.0
 40
2.0
 40
2.0
 40
3.0
 40
3.0
 40
3.0
 40
4.0
 40
4.0
 40
4.0
 40
4.0
 10
133.7641304013415
 20
-153.7229166282359
 30
0.0
 10
133.7641304013415
 20
-153.7229166282359
 30
0.0
 10
136.2949275021567
 20
-153.7229166282359
 30
0.0
 10
136.2949275021567
 20
-153.7229166282359
 30
0.0
 10
136.2949275021567
 20
-153.7229166282359
 30
0.0
 10
134.2242753287611
 20
-156.0174726979782
 30
0.0
 10
134.0862318505347
 20
-121.7915261931156
 30
0.0
 10
134.0862318505347
 20
-121.7915261931156
 30
0.0
 10
133.7641304013415
 20
-97.73478258426081
 30
0.0
 10
133.7641304013415
 20
-97.73478258426081
 30
0.0
 10
133.7641304013415
 20
-97.73478258426081
 30
0.0
 10
127.9667322809235
 20
-97.73478258426081
 30
0.0
 10
127.9667322809235
 20
-97.73478258426081
 30
0.0
  0
SPLINE
  5
8B
330
70
100
AcDbEntity
  8
レイヤー 1
 62
   250
420
  2299925
370
     9
100
AcDbSpline
210
0.0
220
0.0
230
1.0
 70
     9
 71
     3
 72
    32
 73
    28
 74
     0
 42
0.0000000001
 43
0.0000000001
 40
0.0
 40
0.0
 40
0.0
 40
0.0
 40
1.0
 40
1.0
 40
1.0
 40
2.0
 40
2.0
 40
2.0
 40
3.0
 40
3.0
 40
3.0
 40
4.0
 40
4.0
 40
4.0
 40
5.0
 40
5.0
 40
5.0
 40
6.0
 40
6.0
 40
6.0
 40
7.0
 40
7.0
 40
7.0
 40
8.0
 40
8.0
 40
8.0
 40
9.0
 40
9.0
 40
9.0
 40
9.0
 10
140.8503622836237
 20
-98.2869564971639
 30
0.0
 10
140.8503622836237
 20
-98.2869564971639
 30
0.0
 10
152.881821760797
 20
-98.28626615123569
 30
0.0
 10
152.881821760797
 20
-98.28626615123569
 30
0.0
 10
152.881821760797
 20
-98.28626615123569
 30
0.0
 10
153.4252248867014
 20
-102.4282608439567
 30
0.0
 10
153.3331959012176
 20
-112.4594202617389
 30
0.0
 10
153.3331959012176
 20
-112.4594202617389
 30
0.0
 10
153.341643874494
 20
-125.2054347513064
 30
0.0
 10
153.341643874494
 20
-125.2054347513064
 30
0.0
 10
153.341643874494
 20
-125.2054347513064
 30
0.0
 10
152.7681159038326
 20
-132.5217390973006
 30
0.0
 10
151.9858695272165
 20
-138.2275361973234
 30
0.0
 10
151.9858695272165
 20
-138.2275361973234
 30
0.0
 10
149.3984371989487
 20
-154.3326086570673
 30
0.0
 10
148.2828455363607
 20
-155.3909419901361
 30
0.0
 10
148.2828455363607
 20
-155.3909419901361
 30
0.0
 10
143.071964019724
 20
-155.3909419901361
 30
0.0
 10
143.071964019724
 20
-155.3909419901361
 30
0.0
 10
143.071964019724
 20
-155.3909419901361
 30
0.0
 10
140.4491359783426
 20
-142.460867189184
 30
0.0
 10
139.8509489769459
 20
-135.3286259630754
 30
0.0
 10
139.3039662404186
 20
-127.9185764601408
 30
0.0
 10
139.2527619755492
 20
-121.6163043174199
 30
0.0
 10
139.2527619755492
 20
-117.567027083781
 30
0.0
 10
139.2527619755492
 20
-117.567027083781
 30
0.0
 10
140.0552098225286
 20
-100.5416666415277
 30
0.0
 10
140.8503622836237
 20
-98.2869564971639
 30
0.0
  0
SPLINE
  5
8C
330
70
100
AcDbEntity
  8
レイヤー 1
 62
   250
420
  2299925
370
     9
100
AcDbSpline
210
0.0
220
0.0
230
1.0
 70
     8
 71
     3
 72
    17
 73
    13
 74
     0
 42
0.0000000001
 43
0.0000000001
 40
0.0
 40
0.0
 40
0.0
 40
0.0
 40
1.0
 40
1.0
 40
1.0
 40
2.0
 40
2.0
 40
2.0
 40
3.0
 40
3.0
 40
3.0
 40
4.0
 40
4.0
 40
4.0
 40
4.0
 10
164.2995571073375
 20
-97.73478258426081
 30
0.0
 10
164.2995571073375
 20
-97.73478258426081
 30
0.0
 10
159.1411231486205
 20
-97.73478258426081
 30
0.0
 10
159.1411231486205
 20
-97.73478258426081
 30
0.0
 10
159.1411231486205
 20
-97.73478258426081
 30
0.0
 10
159.900362278865
 20
-109.926243683438
 30
0.0
 10
159.1411231486205
 20
-123.0875783464267
 30
0.0
 10
158.381884018376
 20
-136.2489130094154
 30
0.0
 10
157.0014492361121
 20
-151.6177535852813
 30
0.0
 10
154.99981880183
 20
-155.3909419901361
 30
0.0
 10
154.99981880183
 20
-155.3909419901361
 30
0.0
 10
156.2094467970043
 20
-155.3909419901361
 30
0.0
 10
156.2094467970043
 20
-155.3909419901361
 30
0.0
  0
CIRCLE
  5
8D
330
70
100
AcDbEntity
  8
レイヤー 1
 62
   250
420
  2299925
370
     9
100
AcDbCircle
 10
147.1236970836462
 20
-103.6501927214461
 30
0.0
 40
0.738779703696343
  0
CIRCLE
  5
8E
330
70
100
AcDbEntity
  8
レイヤー 1
 62
   250
420
  2299925
370
     9
100
AcDbCircle
 10
147.0495797050908
 20
-126.5577837772269
 30
0.0
 40
0.8128970824704138
  0
CIRCLE
  5
8F
330
70
100
AcDbEntity
  8
レイヤー 1
 62
   250
420
  2299925
370
     9
100
AcDbCircle
 10
146.506541029951
 20
-148.3185821166024
 30
0.0
 40
0.5430386752859996
  0
LWPOLYLINE
  5
90
330
70
100
AcDbEntity
  8
レイヤー 1
 62
   250
420
  2299925
370
     9
100
AcDbPolyline
 90
        4
 70
     1
 43
0.0
 10
144.1979166306172
 20
-99.78817932287917
 10
142.5586503266791
 20
-99.78817932287917
 10
142.5586503266791
 20
-100.6336956270157
 10
144.1979166306175
 20
-100.6336956270157
  0
LWPOLYLINE
  5
91
330
70
100
AcDbEntity
  8
レイヤー 1
 62
   250
420
  2299925
370
     9
100
AcDbPolyline
 90
        4
 70
     1
 43
0.0
 10
151.3761774983876
 20
-99.78817932287917
 10
149.7369111944499
 20
-99.78817932287917
 10
149.7369111944499
 20
-100.6336956270157
 10
151.3761774983883
 20
-100.6336956270157
  0
LWPOLYLINE
  5
92
330
70
100
AcDbEntity
  8
レイヤー 1
 62
   250
420
  2299925
370
     9
100
AcDbPolyline
 90
        4
 70
     1
 43
0.0
 10
143.9218296741652
 20
-103.3600543219859
 10
142.2825633702274
 20
-103.3600543219859
 10
142.2825633702274
 20
-104.2055706261227
 10
143.9218296741658
 20
-104.2055706261227
  0
LWPOLYLINE
  5
93
330
70
100
AcDbEntity
  8
レイヤー 1
 62
   250
420
  2299925
370
     9
100
AcDbPolyline
 90
        4
 70
     1
 43
0.0
 10
147.7611639123348
 20
-100.8925271486901
 10
146.121897608397
 20
-100.8925271486901
 10
146.121897608397
 20
-101.7380434528269
 10
147.7611639123354
 20
-101.7380434528269
  0
LWPOLYLINE
  5
94
330
70
100
AcDbEntity
  8
レイヤー 1
 62
   250
420
  2299925
370
     9
100
AcDbPolyline
 90
        4
 70
     1
 43
0.0
 10
151.8334465200125
 20
-103.4463314958776
 10
150.1941802160747
 20
-103.4463314958776
 10
150.1941802160747
 20
-104.2918478000144
 10
151.8334465200131
 20
-104.2918478000144
  0
LWPOLYLINE
  5
95
330
70
100
AcDbEntity
  8
レイヤー 1
 62
   250
420
  2299925
370
     9
100
AcDbPolyline
 90
        4
 70
     1
 43
0.0
 10
147.7611639123348
 20
-105.2667798649868
 10
146.121897608397
 20
-105.2667798649868
 10
146.121897608397
 20
-106.1122961691237
 10
147.7611639123354
 20
-106.1122961691237
  0
LWPOLYLINE
  5
96
330
70
100
AcDbEntity
  8
レイヤー 1
 62
   250
420
  2299925
370
     9
100
AcDbPolyline
 90
        4
 70
     1
 43
0.0
 10
151.8334465200125
 20
-106.7938858428659
 10
150.1941802160747
 20
-106.7938858428659
 10
150.1941802160747
 20
-107.6394021470028
 10
151.8334465200131
 20
-107.6394021470028
  0
LWPOLYLINE
  5
97
330
70
100
AcDbEntity
  8
レイヤー 1
 62
   250
420
  2299925
370
     9
100
AcDbPolyline
 90
        4
 70
     1
 43
0.0
 10
143.5853486959871
 20
-106.7938858428659
 10
141.9460823920494
 20
-106.7938858428659
 10
141.9460823920494
 20
-107.6394021470028
 10
143.5853486959878
 20
-107.6394021470028
  0
LWPOLYLINE
  5
98
330
70
100
AcDbEntity
  8
レイヤー 1
 62
   250
420
  2299925
370
     9
100
AcDbPolyline
 90
        4
 70
     1
 43
0.0
 10
147.7611639123348
 20
-108.8817934510391
 10
146.121897608397
 20
-108.8817934510391
 10
146.121897608397
 20
-109.7273097551759
 10
147.7611639123354
 20
-109.7273097551759
  0
LWPOLYLINE
  5
99
330
70
100
AcDbEntity
  8
レイヤー 1
 62
   250
420
  2299925
370
     9
100
AcDbPolyline
 90
        4
 70
     1
 43
0.0
 10
151.8334465200125
 20
-110.2449727985248
 10
150.1941802160747
 20
-110.2449727985248
 10
150.1941802160747
 20
-111.0904891026617
 10
151.8334465200131
 20
-111.0904891026617
  0
LWPOLYLINE
  5
9A
330
70
100
AcDbEntity
  8
レイヤー 1
 62
   250
420
  2299925
370
     9
100
AcDbPolyline
 90
        4
 70
     1
 43
0.0
 10
152.0060008677952
 20
-113.8513586671876
 10
150.3667345638575
 20
-113.8513586671876
 10
150.3667345638575
 20
-114.6968749713245
 10
152.0060008677959
 20
-114.6968749713245
  0
LWPOLYLINE
  5
9B
330
70
100
AcDbEntity
  8
レイヤー 1
 62
   250
420
  2299925
370
     9
100
AcDbPolyline
 90
        4
 70
     1
 43
0.0
 10
147.7611639123348
 20
-112.4968070370913
 10
146.121897608397
 20
-112.4968070370913
 10
146.121897608397
 20
-113.3423233412282
 10
147.7611639123354
 20
-113.3423233412282
  0
LWPOLYLINE
  5
9C
330
70
100
AcDbEntity
  8
レイヤー 1
 62
   250
420
  2299925
370
     9
100
AcDbPolyline
 90
        4
 70
     1
 43
0.0
 10
143.2920063047563
 20
-110.2449727985248
 10
141.6527400008185
 20
-110.2449727985248
 10
141.6527400008185
 20
-111.0904891026617
 10
143.2920063047569
 20
-111.0904891026617
  0
LWPOLYLINE
  5
9D
330
70
100
AcDbEntity
  8
レイヤー 1
 62
   250
420
  2299925
370
     9
100
AcDbPolyline
 90
        4
 70
     1
 43
0.0
 10
143.2057291308646
 20
-113.8513586671876
 10
141.5664628269268
 20
-113.8513586671876
 10
141.5664628269268
 20
-114.6968749713245
 10
143.2057255131842
 20
-114.6968749713245
  0
LWPOLYLINE
  5
9E
330
70
100
AcDbEntity
  8
レイヤー 1
 62
   250
420
  2299925
370
     9
100
AcDbPolyline
 90
        4
 70
     1
 43
0.0
 10
147.7611639123348
 20
-116.370652144818
 10
146.121897608397
 20
-116.370652144818
 10
146.121897608397
 20
-117.2161684489549
 10
147.7611639123354
 20
-117.2161684489549
  0
LWPOLYLINE
  5
9F
330
70
100
AcDbEntity
  8
レイヤー 1
 62
   250
420
  2299925
370
     9
100
AcDbPolyline
 90
        4
 70
     1
 43
0.0
 10
147.7611639123348
 20
-120.046059752595
 10
146.121897608397
 20
-120.046059752595
 10
146.121897608397
 20
-120.8915760567318
 10
147.7611639123354
 20
-120.8915760567318
  0
LWPOLYLINE
  5
A0
330
70
100
AcDbEntity
  8
レイヤー 1
 62
   250
420
  2299925
370
     9
100
AcDbPolyline
 90
        4
 70
     1
 43
0.0
 10
143.2057291308646
 20
-116.9573369272798
 10
141.5664628269268
 20
-116.9573369272798
 10
141.5664628269268
 20
-117.8028532314166
 10
143.2057255131842
 20
-117.8028532314166
  0
LWPOLYLINE
  5
A1
330
70
100
AcDbEntity
  8
レイヤー 1
 62
   250
420
  2299925
370
     9
100
AcDbPolyline
 90
        4
 70
     1
 43
0.0
 10
152.0060008677952
 20
-116.9573369272798
 10
150.3667345638575
 20
-116.9573369272798
 10
150.3667345638575
 20
-117.8028532314166
 10
152.0060008677959
 20
-117.8028532314166
  0
LWPOLYLINE
  5
A2
330
70
100
AcDbEntity
  8
レイヤー 1
 62
   250
420
  2299925
370
     9
100
AcDbPolyline
 90
        4
 70
     1
 43
0.0
 10
152.0060008677952
 20
-120.4688179046634
 10
150.3667345638575
 20
-120.4688179046634
 10
150.3667345638575
 20
-121.3143342088002
 10
152.0060008677959
 20
-121.3143342088002
  0
LWPOLYLINE
  5
A3
330
70
100
AcDbEntity
  8
レイヤー 1
 62
   250
420
  2299925
370
     9
100
AcDbPolyline
 90
        4
 70
     1
 43
0.0
 10
143.2057291308646
 20
-120.4688179046634
 10
141.5664628269268
 20
-120.4688179046634
 10
141.5664628269268
 20
-121.3143342088002
 10
143.2057255131842
 20
-121.3143342088002
  0
LWPOLYLINE
  5
A4
330
70
100
AcDbEntity
  8
レイヤー 1
 62
   250
420
  2299925
370
     9
100
AcDbPolyline
 90
        4
 70
     1
 43
0.0
 10
151.7299139113426
 20
-123.72146736037
 10
150.0906476074048
 20
-123.72146736037
 10
150.0906476074048
 20
-124.5669836645068
 10
151.7299139113432
 20
-124.5669836645068
  0
LWPOLYLINE
  5
A5
330
70
100
AcDbEntity
  8
レイヤー 1
 62
   250
420
  2299925
370
     9
100
AcDbPolyline
 90
        4
 70
     1
 43
0.0
 10
147.7611639123348
 20
-123.72146736037
 10
146.121897608397
 20
-123.72146736037
 10
146.121897608397
 20
-124.5669836645068
 10
147.7611639123354
 20
-124.5669836645068
  0
LWPOLYLINE
  5
A6
330
70
100
AcDbEntity
  8
レイヤー 1
 62
   250
420
  2299925
370
     9
100
AcDbPolyline
 90
        4
 70
     1
 43
0.0
 10
143.2057291308646
 20
-123.72146736037
 10
141.5664628269268
 20
-123.72146736037
 10
141.5664628269268
 20
-124.5669836645068
 10
143.2057255131842
 20
-124.5669836645068
  0
LWPOLYLINE
  5
A7
330
70
100
AcDbEntity
  8
レイヤー 1
 62
   250
420
  2299925
370
     9
100
AcDbPolyline
 90
        4
 70
     1
 43
0.0
 10
151.4797101070569
 20
-126.9741168160766
 10
149.8404438031192
 20
-126.9741168160766
 10
149.8404438031192
 20
-127.8196331202134
 10
151.4797101070576
 20
-127.8196331202134
  0
LWPOLYLINE
  5
A8
330
70
100
AcDbEntity
  8
レイヤー 1
 62
   250
420
  2299925
370
     9
100
AcDbPolyline
 90
        4
 70
     1
 43
0.0
 10
147.6027686586023
 20
-128.2423912722818
 10
145.9635023546645
 20
-128.2423912722818
 10
145.9635023546645
 20
-129.0879075764187
 10
147.6027686586032
 20
-129.0879075764187
  0
LWPOLYLINE
  5
A9
330
70
100
AcDbEntity
  8
レイヤー 1
 62
   250
420
  2299925
370
     9
100
AcDbPolyline
 90
        4
 70
     1
 43
0.0
 10
143.2920063047563
 20
-126.9479227076289
 10
141.6527400008185
 20
-126.9479227076289
 10
141.6527400008185
 20
-127.7934390117657
 10
143.2920063047569
 20
-127.7934390117657
  0
LWPOLYLINE
  5
AA
330
70
100
AcDbEntity
  8
レイヤー 1
 62
   250
420
  2299925
370
     9
100
AcDbPolyline
 90
        4
 70
     1
 43
0.0
 10
147.6027686586023
 20
-131.4432744236551
 10
145.9635023546645
 20
-131.4432744236551
 10
145.9635023546645
 20
-132.2887907277919
 10
147.6027686586032
 20
-132.2887907277919
  0
LWPOLYLINE
  5
AB
330
70
100
AcDbEntity
  8
レイヤー 1
 62
   250
420
  2299925
370
     9
100
AcDbPolyline
 90
        4
 70
     1
 43
0.0
 10
151.3330389114418
 20
-130.554619532573
 10
149.693772607504
 20
-130.554619532573
 10
149.693772607504
 20
-131.4001358367099
 10
151.3330389114425
 20
-131.4001358367099
  0
LWPOLYLINE
  5
AC
330
70
100
AcDbEntity
  8
レイヤー 1
 62
   250
420
  2299925
370
     9
100
AcDbPolyline
 90
        4
 70
     1
 43
0.0
 10
143.3955389134262
 20
-130.554619532573
 10
141.7562726094884
 20
-130.554619532573
 10
141.7562726094884
 20
-131.4001358367099
 10
143.3955389134268
 20
-131.4001358367099
  0
LWPOLYLINE
  5
AD
330
70
100
AcDbEntity
  8
レイヤー 1
 62
   250
420
  2299925
370
     9
100
AcDbPolyline
 90
        4
 70
     1
 43
0.0
 10
150.9706747810974
 20
-133.8676630100056
 10
149.3314084771597
 20
-133.8676630100056
 10
149.3314084771597
 20
-134.7131793141425
 10
150.9706747810981
 20
-134.7131793141425
  0
LWPOLYLINE
  5
AE
330
70
100
AcDbEntity
  8
レイヤー 1
 62
   250
420
  2299925
370
     9
100
AcDbPolyline
 90
        4
 70
     1
 43
0.0
 10
147.6027686586023
 20
-134.6441575750283
 10
145.9635023546645
 20
-134.6441575750283
 10
145.9635023546645
 20
-135.4896738791651
 10
147.6027686586032
 20
-135.4896738791651
  0
LWPOLYLINE
  5
AF
330
70
100
AcDbEntity
  8
レイヤー 1
 62
   250
420
  2299925
370
     9
100
AcDbPolyline
 90
        4
 70
     1
 43
0.0
 10
143.6716258698789
 20
-133.8676630100056
 10
142.0323595659411
 20
-133.8676630100056
 10
142.0323595659411
 20
-134.7131793141425
 10
143.6716258698795
 20
-134.7131793141425
  0
LWPOLYLINE
  5
B0
330
70
100
AcDbEntity
  8
レイヤー 1
 62
   250
420
  2299925
370
     9
100
AcDbPolyline
 90
        4
 70
     1
 43
0.0
 10
150.6600769550877
 20
-137.1116847483241
 10
149.02081065115
 20
-137.1116847483241
 10
149.02081065115
 20
-137.9572010524609
 10
150.6600769550884
 20
-137.9572010524609
  0
LWPOLYLINE
  5
B1
330
70
100
AcDbEntity
  8
レイヤー 1
 62
   250
420
  2299925
370
     9
100
AcDbPolyline
 90
        4
 70
     1
 43
0.0
 10
147.6027686586023
 20
-138.1642662698001
 10
145.9635023546645
 20
-138.1642662698001
 10
145.9635023546645
 20
-139.0097825739369
 10
147.6027686586032
 20
-139.0097825739369
  0
LWPOLYLINE
  5
B2
330
70
100
AcDbEntity
  8
レイヤー 1
 62
   250
420
  2299925
370
     9
100
AcDbPolyline
 90
        4
 70
     1
 43
0.0
 10
143.9132019567751
 20
-137.1116847483241
 10
142.2739356528373
 20
-137.1116847483241
 10
142.2739356528373
 20
-137.9572010524609
 10
143.9132019567757
 20
-137.9572010524609
  0
LWPOLYLINE
  5
B3
330
70
100
AcDbEntity
  8
レイヤー 1
 62
   250
420
  2299925
370
     9
100
AcDbPolyline
 90
        4
 70
     1
 43
0.0
 10
150.0216258682914
 20
-140.3557064866425
 10
148.3823595643536
 20
-140.3557064866425
 10
148.3823595643536
 20
-141.2012227907793
 10
150.021625868292
 20
-141.2012227907793
  0
LWPOLYLINE
  5
B4
330
70
100
AcDbEntity
  8
レイヤー 1
 62
   250
420
  2299925
370
     9
100
AcDbPolyline
 90
        4
 70
     1
 43
0.0
 10
147.6027686586023
 20
-141.3392662690057
 10
145.9635023546645
 20
-141.3392662690057
 10
145.9635023546645
 20
-142.1847825731425
 10
147.6027686586032
 20
-142.1847825731425
  0
LWPOLYLINE
  5
B5
330
70
100
AcDbEntity
  8
レイヤー 1
 62
   250
420
  2299925
370
     9
100
AcDbPolyline
 90
        4
 70
     1
 43
0.0
 10
144.491259021848
 20
-140.3557064866425
 10
142.8519927179103
 20
-140.3557064866425
 10
142.8519927179103
 20
-141.2012227907793
 10
144.4912590218487
 20
-141.2012227907793
  0
LWPOLYLINE
  5
B6
330
70
100
AcDbEntity
  8
レイヤー 1
 62
   250
420
  2299925
370
     9
100
AcDbPolyline
 90
        4
 70
     1
 43
0.0
 10
149.4521965206078
 20
-143.4271738771789
 10
147.8129302166701
 20
-143.4271738771789
 10
147.8129302166701
 20
-144.2726901813157
 10
149.4521965206085
 20
-144.2726901813157
  0
LWPOLYLINE
  5
B7
330
70
100
AcDbEntity
  8
レイヤー 1
 62
   250
420
  2299925
370
     9
100
AcDbPolyline
 90
        4
 70
     1
 43
0.0
 10
147.4814730949251
 20
-144.6868206159947
 10
145.8422067909873
 20
-144.6868206159947
 10
145.8422067909873
 20
-145.5323369201315
 10
147.4814730949257
 20
-145.5323369201315
  0
LWPOLYLINE
  5
B8
330
70
100
AcDbEntity
  8
レイヤー 1
 62
   250
420
  2299925
370
     9
100
AcDbPolyline
 90
        4
 70
     1
 43
0.0
 10
144.844995434803
 20
-143.4271738771789
 10
143.2057255131842
 20
-143.4271738771789
 10
143.2057255131842
 20
-144.2726901813157
 10
144.8449954348036
 20
-144.2726901813157
  0
LWPOLYLINE
  5
B9
330
70
100
AcDbEntity
  8
レイヤー 1
 62
   250
420
  2299925
370
     9
100
AcDbPolyline
 90
        4
 70
     1
 43
0.0
 10
149.2019927163221
 20
-146.7057064850544
 10
147.5627264123844
 20
-146.7057064850544
 10
147.5627264123844
 20
-147.5512227891912
 10
149.2019927163228
 20
-147.5512227891912
  0
LWPOLYLINE
  5
BA
330
70
100
AcDbEntity
  8
レイヤー 1
 62
   250
420
  2299925
370
     9
100
AcDbPolyline
 90
        4
 70
     1
 43
0.0
 10
145.0520606521428
 20
-146.7057064850544
 10
143.412794348205
 20
-146.7057064850544
 10
143.412794348205
 20
-147.5512227891912
 10
145.0520606521434
 20
-147.5512227891912
  0
LWPOLYLINE
  5
BB
330
70
100
AcDbEntity
  8
レイヤー 1
 62
   250
420
  2299925
370
     9
100
AcDbPolyline
 90
        4
 70
     1
 43
0.0
 10
147.3261741819199
 20
-150.2603260493832
 10
145.6869078779821
 20
-150.2603260493832
 10
145.6869078779821
 20
-151.10584235352
 10
147.3261741819205
 20
-151.10584235352
  0
LWPOLYLINE
  5
BC
330
70
100
AcDbEntity
  8
レイヤー 1
 62
   250
420
  2299925
370
     9
100
AcDbPolyline
 90
        4
 70
     1
 43
0.0
 10
147.2089899994294
 20
-153.228260831249
 10
145.5697236954917
 20
-153.228260831249
 10
145.5697236954917
 20
-154.0737771353858
 10
147.2089899994301
 20
-154.0737771353858
  0
SPLINE
  5
BD
330
70
100
AcDbEntity
  8
レイヤー 1
 62
   250
420
  2299925
370
     9
100
AcDbSpline
210
0.0
220
0.0
230
1.0
 70
     8
 71
     3
 72
     8
 73
     4
 74
     0
 42
0.0000000001
 43
0.0000000001
 40
0.0
 40
0.0
 40
0.0
 40
0.0
 40
1.0
 40
1.0
 40
1.0
 40
1.0
 10
140.0824215917749
 20
-70.33242577034258
 30
0.0
 10
140.0824215917749
 20
-70.33242577034258
 30
0.0
 10
145.9874865413005
 20
-68.67517764563825
 30
0.0
 10
152.1846852798382
 20
-70.33242577034258
 30
0.0
  0
SPLINE
  5
BE
330
70
100
AcDbEntity
  8
レイヤー 1
 62
   250
420
  2299925
370
     9
100
AcDbSpline
210
0.0
220
0.0
230
1.0
 70
     8
 71
     3
 72
     8
 73
     4
 74
     0
 42
0.0000000001
 43
0.0000000001
 40
0.0
 40
0.0
 40
0.0
 40
0.0
 40
1.0
 40
1.0
 40
1.0
 40
1.0
 10
140.0697714673604
 20
-71.68598908268117
 30
0.0
 10
140.0697714673604
 20
-71.68598908268117
 30
0.0
 10
145.5607102538903
 20
-71.56009746609541
 30
0.0
 10
152.2128732230291
 20
-71.67135307190173
 30
0.0
  0
SPLINE
  5
BF
330
70
100
AcDbEntity
  8
レイヤー 1
 62
   250
420
  2299925
370
     9
100
AcDbSpline
210
0.0
220
0.0
230
1.0
 70
     8
 71
     3
 72
     8
 73
     4
 74
     0
 42
0.0000000001
 43
0.0000000001
 40
0.0
 40
0.0
 40
0.0
 40
0.0
 40
1.0
 40
1.0
 40
1.0
 40
1.0
 10
140.0824215917749
 20
-67.9173912873692
 30
0.0
 10
140.0824215917749
 20
-67.9173912873692
 30
0.0
 10
149.1900342921875
 20
-68.18913063350052
 30
0.0
 10
152.1294374165652
 20
-67.70815226486902
 30
0.0
  0
LINE
  5
C0
330
70
100
AcDbEntity
  8
レイヤー 1
 62
   250
420
  2299925
370
     9
100
AcDbLine
 10
136.432970980384
 20
-97.45869562780976
 30
0.0
 11
137.5373188061949
 21
-97.45869562781138
 31
0.0
  0
LINE
  5
C1
330
70
100
AcDbEntity
  8
レイヤー 1
 62
   250
420
  2299925
370
     9
100
AcDbLine
 10
155.3909419901374
 20
-97.50471012055358
 30
0.0
 11
156.8173912651426
 21
-97.50471012055358
 31
0.0
  0
LWPOLYLINE
  5
C2
330
70
100
AcDbEntity
  8
レイヤー 1
 62
   250
420
  2299925
370
    35
100
AcDbPolyline
 90
        1
 70
     0
 43
0.0
 10
164.2031124128338
 20
-124.3631346497631
  0
INSERT
  5
C4
330
70
100
AcDbEntity
  8
レイヤー 1
100
AcDbBlockReference
  2
Block_0
 10
0.0
 20
0.0
 30
0.0
  0
MTEXT
  5
D0
330
70
100
AcDbEntity
  8
レイヤー 1
100
AcDbMText
 10
182.8241968426348
 20
-164.3688908113061
 30
0.0
 40
0.2
 41
0.0
 46
0.0
 71
     7
 72
     1
  1
\C250;\c1382435;\FBIZ UDMincho Medium|b0|i0|c128;\H2.997200;\W1.000000;別置電源
 73
     1
 44
1.0
  0
ENDSEC
  0
SECTION
  2
OBJECTS
  0
DICTIONARY
  5
C
330
0
100
AcDbDictionary
281
     1
  3
ACAD_COLOR
350
63
  3
ACAD_DETAILVIEWSTYLE
350
6A
  3
ACAD_GROUP
350
D
  3
ACAD_LAYOUT
350
62
  3
ACAD_MATERIAL
350
10
  3
ACAD_MLEADERSTYLE
350
66
  3
ACAD_MLINESTYLE
350
5F
  3
ACAD_PLOTSETTINGS
350
61
  3
ACAD_PLOTSTYLENAME
350
E
  3
ACAD_SCALELIST
350
42
  3
ACAD_SECTIONVIEWSTYLE
350
68
  3
ACAD_TABLESTYLE
350
64
  3
ACAD_VISUALSTYLE
350
29
  3
ACDB_RECOMPOSE_DATA
350
D9
  3
AcDbVariableDictionary
350
D1
  0
DICTIONARY
  5
63
102
{ACAD_REACTORS
330
C
102
}
330
C
100
AcDbDictionary
281
     1
  0
DICTIONARY
  5
6A
102
{ACAD_REACTORS
330
C
102
}
330
C
100
AcDbDictionary
281
     1
  3
Imperial24
350
6B
  0
DICTIONARY
  5
D
102
{ACAD_REACTORS
330
C
102
}
330
C
100
AcDbDictionary
281
     1
  0
DICTIONARY
  5
62
102
{ACAD_REACTORS
330
C
102
}
330
C
100
AcDbDictionary
281
     1
  3
Layout1
350
6F
  3
Layout2
350
77
  3
Model
350
73
  0
DICTIONARY
  5
10
102
{ACAD_REACTORS
330
C
102
}
330
C
100
AcDbDictionary
281
     1
  3
ByBlock
350
19
  3
ByLayer
350
11
  3
Global
350
21
  0
DICTIONARY
  5
66
102
{ACAD_REACTORS
330
C
102
}
330
C
100
AcDbDictionary
281
     1
  3
Standard
350
67
  0
DICTIONARY
  5
5F
102
{ACAD_REACTORS
330
C
102
}
330
C
100
AcDbDictionary
281
     1
  3
Standard
350
60
  0
DICTIONARY
  5
61
102
{ACAD_REACTORS
330
C
102
}
330
C
100
AcDbDictionary
281
     1
  0
ACDBDICTIONARYWDFLT
  5
E
102
{ACAD_REACTORS
330
C
102
}
330
C
100
AcDbDictionary
281
     1
  3
Normal
350
F
100
AcDbDictionaryWithDefault
340
F
  0
DICTIONARY
  5
42
102
{ACAD_REACTORS
330
C
102
}
330
C
100
AcDbDictionary
281
     1
  3
A0
350
43
  3
A1
350
44
  3
A2
350
45
  3
A3
350
46
  3
A4
350
47
  3
A5
350
48
  3
A6
350
49
  3
A7
350
4A
  3
A8
350
4B
  3
A9
350
4C
  3
B0
350
4D
  3
B1
350
4E
  3
B2
350
4F
  3
B3
350
50
  3
B4
350
51
  3
B5
350
52
  3
B6
350
53
  0
DICTIONARY
  5
68
102
{ACAD_REACTORS
330
C
102
}
330
C
100
AcDbDictionary
281
     1
  3
Imperial24
350
69
  0
DICTIONARY
  5
64
102
{ACAD_REACTORS
330
C
102
}
330
C
100
AcDbDictionary
281
     1
  3
Standard
350
65
  0
DICTIONARY
  5
29
102
{ACAD_REACTORS
330
C
102
}
330
C
100
AcDbDictionary
281
     1
  3
2dWireframe
350
2F
  3
Basic
350
2E
  3
Brighten
350
35
  3
ColorChange
350
39
  3
Conceptual
350
32
  3
Dim
350
34
  3
EdgeColorOff
350
41
  3
Facepattern
350
38
  3
Flat
350
2A
  3
FlatWithEdges
350
2B
  3
Gouraud
350
2C
  3
GouraudWithEdges
350
2D
  3
Hidden
350
31
  3
JitterOff
350
3F
  3
Linepattern
350
37
  3
OverhangOff
350
40
  3
Realistic
350
33
  3
Shaded
350
3E
  3
Shaded with edges
350
3D
  3
Shades of Gray
350
3A
  3
Sketchy
350
3B
  3
Thicken
350
36
  3
Wireframe
350
30
  3
X-Ray
350
3C
  0
XRECORD
  5
D9
102
{ACAD_REACTORS
330
C
102
}
330
C
100
AcDbXrecord
280
     1
 90
        1
330
65
  0
DICTIONARY
  5
D1
102
{ACAD_REACTORS
330
C
102
}
330
C
100
AcDbDictionary
281
     1
  3
CANNOSCALE
350
D6
  3
CMLEADERSTYLE
350
D3
  3
CTABLESTYLE
350
D2
  3
CVIEWDETAILSTYLE
350
D4
  3
CVIEWSECTIONSTYLE
350
D5
  0
ACDBDETAILVIEWSTYLE
  5
6B
102
{ACAD_REACTORS
330
6A
102
}
330
6A
100
AcDbModelDocViewStyle
 70
     0
  3
Imperial24
290
     1
300
Imperial24
 90
        0
100
AcDbDetailViewStyle
 70
     0
 71
     0
 90
        3
 71
     1
340
55
 62
   256
 40
0.24
340
0
 62
   256
 40
0.24
300

 40
0.36
280
     3
 71
     2
340
5D
 90
       25
 62
   256
 71
     3
340
55
 62
   256
 40
0.24
 90
        1
 40
0.75
 90
        1
300
%<\AcVar ViewType \f "%tc1">% %<\AcVar ViewDetailId>%\PSCALE %<\AcVar ViewScale \f "%sn">%
 71
     4
340
5D
 90
       25
 62
   256
340
5D
 90
       25
 62
   256
280
     0
  0
LAYOUT
  5
6F
102
{ACAD_REACTORS
330
62
102
}
330
62
100
AcDbPlotSettings
  1

  2

  4

  6

 40
0.0
 41
0.0
 42
0.0
 43
0.0
 44
0.0
 45
0.0
 46
0.0
 47
0.0
 48
0.0
 49
0.0
140
0.0
141
0.0
142
1.0
143
1.0
 70
   688
 72
     0
 73
     0
 74
     5
  7

 75
    16
147
1.0
 76
     0
 77
     2
 78
   300
148
0.0
149
0.0
100
AcDbLayout
  1
Layout1
 70
     1
 71
     1
 10
0.0
 20
0.0
 11
12.0
 21
9.0
 12
0.0
 22
0.0
 32
0.0
 14
0.0
 24
0.0
 34
0.0
 15
0.0
 25
0.0
 35
0.0
146
0.0
 13
0.0
 23
0.0
 33
0.0
 16
1.0
 26
0.0
 36
0.0
 17
0.0
 27
1.0
 37
0.0
 76
     0
330
6C
  0
LAYOUT
  5
77
102
{ACAD_REACTORS
330
62
102
}
330
62
100
AcDbPlotSettings
  1

  2

  4

  6

 40
0.0
 41
0.0
 42
0.0
 43
0.0
 44
0.0
 45
0.0
 46
0.0
 47
0.0
 48
0.0
 49
0.0
140
0.0
141
0.0
142
1.0
143
1.0
 70
   688
 72
     0
 73
     0
 74
     5
  7

 75
    16
147
1.0
 76
     0
 77
     2
 78
   300
148
0.0
149
0.0
100
AcDbLayout
  1
Layout2
 70
     1
 71
     2
 10
0.0
 20
0.0
 11
12.0
 21
9.0
 12
0.0
 22
0.0
 32
0.0
 14
0.0
 24
0.0
 34
0.0
 15
0.0
 25
0.0
 35
0.0
146
0.0
 13
0.0
 23
0.0
 33
0.0
 16
1.0
 26
0.0
 36
0.0
 17
0.0
 27
1.0
 37
0.0
 76
     0
330
74
  0
LAYOUT
  5
73
102
{ACAD_REACTORS
330
62
102
}
330
62
100
AcDbPlotSettings
  1

  2

  4

  6

 40
0.0
 41
0.0
 42
0.0
 43
0.0
 44
0.0
 45
0.0
 46
0.0
 47
0.0
 48
0.0
 49
0.0
140
0.0
141
0.0
142
1.0
143
1.0
 70
  1712
 72
     0
 73
     0
 74
     0
  7

 75
     0
147
1.0
 76
     0
 77
     2
 78
   300
148
0.0
149
0.0
100
AcDbLayout
  1
Model
 70
     1
 71
     0
 10
0.0
 20
0.0
 11
12.0
 21
9.0
 12
0.0
 22
0.0
 32
0.0
 14
0.0
 24
0.0
 34
0.0
 15
0.0
 25
0.0
 35
0.0
146
0.0
 13
0.0
 23
0.0
 33
0.0
 16
1.0
 26
0.0
 36
0.0
 17
0.0
 27
1.0
 37
0.0
 76
     0
330
70
  0
MATERIAL
  5
19
102
{ACAD_XDICTIONARY
360
1A
102
}
102
{ACAD_REACTORS
330
10
102
}
330
10
100
AcDbMaterial
  1
ByBlock
 72
     0
 43
0.0208333333333333
 43
0.0
 43
0.0
 43
0.0
 43
0.0
 43
0.0208333333333333
 43
0.0
 43
0.0
 43
0.0
 43
0.0
 43
1.0
 43
0.0
 43
0.0
 43
0.0
 43
0.0
 43
1.0
 77
     0
 47
0.0208333333333333
 47
0.0
 47
0.0
 47
0.0
 47
0.0
 47
0.0208333333333333
 47
0.0
 47
0.0
 47
0.0
 47
0.0
 47
1.0
 47
0.0
 47
0.0
 47
0.0
 47
0.0
 47
1.0
171
     0
 49
0.0208333333333333
 49
0.0
 49
0.0
 49
0.0
 49
0.0
 49
0.0208333333333333
 49
0.0
 49
0.0
 49
0.0
 49
0.0
 49
1.0
 49
0.0
 49
0.0
 49
0.0
 49
0.0
 49
1.0
175
     0
142
0.0208333333333333
142
0.0
142
0.0
142
0.0
142
0.0
142
0.0208333333333333
142
0.0
142
0.0
142
0.0
142
0.0
142
1.0
142
0.0
142
0.0
142
0.0
142
0.0
142
1.0
179
     0
144
0.0208333333333333
144
0.0
144
0.0
144
0.0
144
0.0
144
0.0208333333333333
144
0.0
144
0.0
144
0.0
144
0.0
144
1.0
144
0.0
144
0.0
144
0.0
144
0.0
144
1.0
147
0.0208333333333333
147
0.0
147
0.0
147
0.0
147
0.0
147
0.0208333333333333
147
0.0
147
0.0
147
0.0
147
0.0
147
1.0
147
0.0
147
0.0
147
0.0
147
0.0
147
1.0
  0
MATERIAL
  5
11
102
{ACAD_XDICTIONARY
360
12
102
}
102
{ACAD_REACTORS
330
10
102
}
330
10
100
AcDbMaterial
  1
ByLayer
 72
     0
 43
0.0208333333333333
 43
0.0
 43
0.0
 43
0.0
 43
0.0
 43
0.0208333333333333
 43
0.0
 43
0.0
 43
0.0
 43
0.0
 43
1.0
 43
0.0
 43
0.0
 43
0.0
 43
0.0
 43
1.0
 77
     0
 47
0.0208333333333333
 47
0.0
 47
0.0
 47
0.0
 47
0.0
 47
0.0208333333333333
 47
0.0
 47
0.0
 47
0.0
 47
0.0
 47
1.0
 47
0.0
 47
0.0
 47
0.0
 47
0.0
 47
1.0
171
     0
 49
0.0208333333333333
 49
0.0
 49
0.0
 49
0.0
 49
0.0
 49
0.0208333333333333
 49
0.0
 49
0.0
 49
0.0
 49
0.0
 49
1.0
 49
0.0
 49
0.0
 49
0.0
 49
0.0
 49
1.0
175
     0
142
0.0208333333333333
142
0.0
142
0.0
142
0.0
142
0.0
142
0.0208333333333333
142
0.0
142
0.0
142
0.0
142
0.0
142
1.0
142
0.0
142
0.0
142
0.0
142
0.0
142
1.0
179
     0
144
0.0208333333333333
144
0.0
144
0.0
144
0.0
144
0.0
144
0.0208333333333333
144
0.0
144
0.0
144
0.0
144
0.0
144
1.0
144
0.0
144
0.0
144
0.0
144
0.0
144
1.0
147
0.0208333333333333
147
0.0
147
0.0
147
0.0
147
0.0
147
0.0208333333333333
147
0.0
147
0.0
147
0.0
147
0.0
147
1.0
147
0.0
147
0.0
147
0.0
147
0.0
147
1.0
  0
MATERIAL
  5
21
102
{ACAD_XDICTIONARY
360
22
102
}
102
{ACAD_REACTORS
330
10
102
}
330
10
100
AcDbMaterial
  1
Global
 72
     0
 43
0.0208333333333333
 43
0.0
 43
0.0
 43
0.0
 43
0.0
 43
0.0208333333333333
 43
0.0
 43
0.0
 43
0.0
 43
0.0
 43
1.0
 43
0.0
 43
0.0
 43
0.0
 43
0.0
 43
1.0
 77
     0
 47
0.0208333333333333
 47
0.0
 47
0.0
 47
0.0
 47
0.0
 47
0.0208333333333333
 47
0.0
 47
0.0
 47
0.0
 47
0.0
 47
1.0
 47
0.0
 47
0.0
 47
0.0
 47
0.0
 47
1.0
171
     0
 49
0.0208333333333333
 49
0.0
 49
0.0
 49
0.0
 49
0.0
 49
0.0208333333333333
 49
0.0
 49
0.0
 49
0.0
 49
0.0
 49
1.0
 49
0.0
 49
0.0
 49
0.0
 49
0.0
 49
1.0
175
     0
142
0.0208333333333333
142
0.0
142
0.0
142
0.0
142
0.0
142
0.0208333333333333
142
0.0
142
0.0
142
0.0
142
0.0
142
1.0
142
0.0
142
0.0
142
0.0
142
0.0
142
1.0
179
     0
144
0.0208333333333333
144
0.0
144
0.0
144
0.0
144
0.0
144
0.0208333333333333
144
0.0
144
0.0
144
0.0
144
0.0
144
1.0
144
0.0
144
0.0
144
0.0
144
0.0
144
1.0
147
0.0208333333333333
147
0.0
147
0.0
147
0.0
147
0.0
147
0.0208333333333333
147
0.0
147
0.0
147
0.0
147
0.0
147
1.0
147
0.0
147
0.0
147
0.0
147
0.0
147
1.0
  0
MLEADERSTYLE
  5
67
102
{ACAD_REACTORS
330
66
102
}
330
66
100
AcDbMLeaderStyle
179
     2
170
     2
171
     1
172
     0
 90
        2
 40
0.0
 41
0.0
173
     1
 91
-1056964608
340
5B
 92
       -2
290
     1
 42
0.09
291
     1
 43
0.36
  3
Standard
 44
0.18
300

342
55
174
     1
178
     6
175
     1
176
     0
 93
-1056964608
 45
0.18
292
     0
297
     0
 46
0.18
 94
-1056964608
 47
1.0
 49
1.0
140
1.0
293
     1
141
0.0
294
     1
177
     0
142
1.0
295
     1
296
     0
143
0.125
271
     0
272
     9
273
     9
298
     1
  0
MLINESTYLE
  5
60
102
{ACAD_REACTORS
330
5F
102
}
330
5F
100
AcDbMlineStyle
  2
STANDARD
 70
     0
  3

 62
   256
 51
90.0
 52
90.0
 71
     2
 49
0.5
 62
   256
  6
BYLAYER
 49
-0.5
 62
   256
  6
BYLAYER
  0
ACDBPLACEHOLDER
  5
F
102
{ACAD_REACTORS
330
E
102
}
330
E
  0
SCALE
  5
43
102
{ACAD_REACTORS
330
42
102
}
330
42
100
AcDbScale
 70
     0
300
1:1
140
1.0
141
1.0
290
     1
  0
SCALE
  5
44
102
{ACAD_REACTORS
330
42
102
}
330
42
100
AcDbScale
 70
     0
300
1/128" = 1'-0"
140
0.0078125
141
12.0
290
     0
  0
SCALE
  5
45
102
{ACAD_REACTORS
330
42
102
}
330
42
100
AcDbScale
 70
     0
300
1/64" = 1'-0"
140
0.015625
141
12.0
290
     0
  0
SCALE
  5
46
102
{ACAD_REACTORS
330
42
102
}
330
42
100
AcDbScale
 70
     0
300
1/32" = 1'-0"
140
0.03125
141
12.0
290
     0
  0
SCALE
  5
47
102
{ACAD_REACTORS
330
42
102
}
330
42
100
AcDbScale
 70
     0
300
1/16" = 1'-0"
140
0.0625
141
12.0
290
     0
  0
SCALE
  5
48
102
{ACAD_REACTORS
330
42
102
}
330
42
100
AcDbScale
 70
     0
300
3/32" = 1'-0"
140
0.09375
141
12.0
290
     0
  0
SCALE
  5
49
102
{ACAD_REACTORS
330
42
102
}
330
42
100
AcDbScale
 70
     0
300
1/8" = 1'-0"
140
0.125
141
12.0
290
     0
  0
SCALE
  5
4A
102
{ACAD_REACTORS
330
42
102
}
330
42
100
AcDbScale
 70
     0
300
3/16" = 1'-0"
140
0.1875
141
12.0
290
     0
  0
SCALE
  5
4B
102
{ACAD_REACTORS
330
42
102
}
330
42
100
AcDbScale
 70
     0
300
1/4" = 1'-0"
140
0.25
141
12.0
290
     0
  0
SCALE
  5
4C
102
{ACAD_REACTORS
330
42
102
}
330
42
100
AcDbScale
 70
     0
300
3/8" = 1'-0"
140
0.375
141
12.0
290
     0
  0
SCALE
  5
4D
102
{ACAD_REACTORS
330
42
102
}
330
42
100
AcDbScale
 70
     0
300
1/2" = 1'-0"
140
0.5
141
12.0
290
     0
  0
SCALE
  5
4E
102
{ACAD_REACTORS
330
42
102
}
330
42
100
AcDbScale
 70
     0
300
3/4" = 1'-0"
140
0.75
141
12.0
290
     0
  0
SCALE
  5
4F
102
{ACAD_REACTORS
330
42
102
}
330
42
100
AcDbScale
 70
     0
300
1" = 1'-0"
140
1.0
141
12.0
290
     0
  0
SCALE
  5
50
102
{ACAD_REACTORS
330
42
102
}
330
42
100
AcDbScale
 70
     0
300
1-1/2" = 1'-0"
140
1.5
141
12.0
290
     0
  0
SCALE
  5
51
102
{ACAD_REACTORS
330
42
102
}
330
42
100
AcDbScale
 70
     0
300
3" = 1'-0"
140
3.0
141
12.0
290
     0
  0
SCALE
  5
52
102
{ACAD_REACTORS
330
42
102
}
330
42
100
AcDbScale
 70
     0
300
6" = 1'-0"
140
6.0
141
12.0
290
     0
  0
SCALE
  5
53
102
{ACAD_REACTORS
330
42
102
}
330
42
100
AcDbScale
 70
     0
300
1'-0" = 1'-0"
140
12.0
141
12.0
290
     0
  0
ACDBSECTIONVIEWSTYLE
  5
69
102
{ACAD_REACTORS
330
68
102
}
330
68
100
AcDbModelDocViewStyle
 70
     0
  3
Imperial24
290
     1
300
Imperial24
 90
        0
100
AcDbSectionViewStyle
 70
     0
 71
     0
 90
       78
 71
     1
340
55
 62
   256
 40
0.24
340
0
340
0
 62
   256
 40
0.24
300
I, O, Q, S, X, Z
 40
0.48
 90
        3
 40
0.18
 90
        1
 71
     2
340
5D
 90
       25
 62
   256
340
5D
 90
       50
 62
   256
 40
0.24
 40
0.0
 40
0.24
 71
     3
340
55
 62
   256
 40
0.24
 90
        1
 40
0.75
 90
        1
300
%<\AcVar ViewType \f "%tc1">% %<\AcVar ViewSectionStartId>%-%<\AcVar ViewSectionEndId>%\PSCALE %<\AcVar ViewScale \f "%sn">%
 71
     4
 62
   256
 62
   257
300
ANSI31
 40
1.0
 90
        0
290
     0
290
     0
 90
        6
 40
0.0
 40
1.570796326794896
 40
0.2617993877991494
 40
1.308996938995747
 40
-0.2617993877991494
 40
1.832595714594046
  0
TABLESTYLE
  5
65
102
{ACAD_XDICTIONARY
360
D7
102
}
102
{ACAD_REACTORS
330
64
102
}
330
64
100
AcDbTableStyle
280
     0
  3
Standard
 70
     0
 71
     0
 40
0.06
 41
0.06
280
     0
281
     0
  7
Standard
140
0.18
170
     2
 62
     0
 63
     7
283
     0
 90
      512
 91
        0
  1

274
    -2
284
     1
 64
     0
275
    -2
285
     1
 65
     0
276
    -2
286
     1
 66
     0
277
    -2
287
     1
 67
     0
278
    -2
288
     1
 68
     0
279
    -2
289
     1
 69
     0
  7
Standard
140
0.25
170
     5
 62
     0
 63
     7
283
     0
 90
      512
 91
        0
  1

274
    -2
284
     1
 64
     0
275
    -2
285
     1
 65
     0
276
    -2
286
     1
 66
     0
277
    -2
287
     1
 67
     0
278
    -2
288
     1
 68
     0
279
    -2
289
     1
 69
     0
  7
Standard
140
0.18
170
     5
 62
     0
 63
     7
283
     0
 90
      512
 91
        0
  1

274
    -2
284
     1
 64
     0
275
    -2
285
     1
 65
     0
276
    -2
286
     1
 66
     0
277
    -2
287
     1
 67
     0
278
    -2
288
     1
 68
     0
279
    -2
289
     1
 69
     0
  0
VISUALSTYLE
  5
2F
102
{ACAD_REACTORS
330
29
102
}
330
29
100
AcDbVisualStyle
  2
2dWireframe
 70
     4
177
     3
291
     0
 70
    58
 90
        0
176
     1
 90
        2
176
     1
 90
        0
176
     1
 90
        0
176
     1
 40
0.6
176
     1
 40
30.0
176
     1
 62
     7
420
 16777215
176
     1
 90
        1
176
     1
 90
        4
176
     1
 62
     7
176
     1
 62
   257
176
     1
 90
        1
176
     1
 90
        1
176
     1
 40
1.0
176
     1
 90
        0
176
     1
 62
   257
176
     1
 40
1.0
176
     1
 90
        1
176
     1
 90
        6
176
     1
 90
        2
176
     1
 62
     7
176
     1
 90
        5
176
     1
 90
        0
176
     1
 90
        0
176
     1
290
     0
176
     1
 90
        1
176
     1
 40
0.0
176
     1
 90
        0
176
     1
290
     1
176
     1
290
     1
176
     1
290
     0
176
     1
290
     0
176
     1
290
     0
176
     1
290
     0
176
     1
290
     0
176
     1
290
     0
176
     1
290
     0
176
     1
 90
       50
176
     1
 40
0.0
176
     1
 40
1.0
176
     1
 90
        0
176
     1
 62
    18
420
        0
176
     1
 90
       50
176
     1
 90
        3
176
     1
 62
     5
420
      255
176
     1
290
     0
176
     1
 90
       50
176
     1
 90
       50
176
     1
 90
       50
176
     1
290
     0
176
     1
 90
       50
176
     1
 62
   256
176
     0
 40
1.0
176
     0
 90
        2
176
     1
  1
strokes_ogs.tif
176
     1
290
     0
176
     1
 40
1.0
176
     1
 40
1.0
176
     1
  0
VISUALSTYLE
  5
2E
102
{ACAD_REACTORS
330
29
102
}
330
29
100
AcDbVisualStyle
  2
Basic
 70
     7
177
     3
291
     1
 70
    58
 90
        1
176
     1
 90
        0
176
     1
 90
        1
176
     1
 90
        0
176
     1
 40
0.6
176
     1
 40
30.0
176
     1
 62
     7
420
 16777215
176
     1
 90
        0
176
     1
 90
        4
176
     1
 62
     7
176
     1
 62
   257
176
     1
 90
        1
176
     1
 90
        1
176
     1
 40
1.0
176
     1
 90
        8
176
     1
 62
     7
176
     1
 40
1.0
176
     1
 90
        1
176
     1
 90
        6
176
     1
 90
        2
176
     1
 62
     7
176
     1
 90
        5
176
     1
 90
        0
176
     1
 90
        0
176
     1
290
     0
176
     1
 90
        1
176
     1
 40
0.0
176
     1
 90
        0
176
     1
290
     0
176
     1
290
     1
176
     1
290
     1
176
     1
290
     0
176
     1
290
     0
176
     1
290
     0
176
     1
290
     0
176
     1
290
     0
176
     1
290
     0
176
     1
 90
       50
176
     1
 40
0.0
176
     1
 40
1.0
176
     1
 90
        0
176
     1
 62
    18
420
        0
176
     1
 90
       50
176
     1
 90
        3
176
     1
 62
     5
420
      255
176
     1
290
     0
176
     1
 90
       50
176
     1
 90
       50
176
     1
 90
       50
176
     1
290
     0
176
     1
 90
       50
176
     1
 62
   256
176
     0
 40
1.0
176
     0
 90
        2
176
     1
  1
strokes_ogs.tif
176
     1
290
     0
176
     1
 40
1.0
176
     1
 40
1.0
176
     1
  0
VISUALSTYLE
  5
35
102
{ACAD_REACTORS
330
29
102
}
330
29
100
AcDbVisualStyle
  2
Brighten
 70
    12
177
     3
291
     1
 70
    58
 90
        2
176
     1
 90
        2
176
     1
 90
        0
176
     1
 90
        0
176
     1
 40
0.6
176
     1
 40
30.0
176
     1
 62
     7
420
 16777215
176
     1
 90
        1
176
     1
 90
        4
176
     1
 62
     7
176
     1
 62
   257
176
     1
 90
        1
176
     1
 90
        1
176
     1
 40
1.0
176
     1
 90
        8
176
     1
 62
     7
176
     1
 40
1.0
176
     1
 90
        1
176
     1
 90
        6
176
     1
 90
        2
176
     1
 62
     7
176
     1
 90
        5
176
     1
 90
        0
176
     1
 90
        0
176
     1
290
     0
176
     1
 90
        1
176
     1
 40
50.0
176
     1
 90
        0
176
     1
290
     0
176
     1
290
     1
176
     1
290
     1
176
     1
290
     0
176
     1
290
     0
176
     1
290
     0
176
     1
290
     0
176
     1
290
     0
176
     1
290
     0
176
     1
 90
       50
176
     1
 40
0.0
176
     1
 40
1.0
176
     1
 90
        0
176
     1
 62
    18
420
        0
176
     1
 90
       50
176
     1
 90
        3
176
     1
 62
     5
420
      255
176
     1
290
     0
176
     1
 90
       50
176
     1
 90
       50
176
     1
 90
       50
176
     1
290
     0
176
     1
 90
       50
176
     1
 62
   256
176
     0
 40
1.0
176
     0
 90
        2
176
     1
  1
strokes_ogs.tif
176
     1
290
     0
176
     1
 40
1.0
176
     1
 40
1.0
176
     1
  0
VISUALSTYLE
  5
39
102
{ACAD_REACTORS
330
29
102
}
330
29
100
AcDbVisualStyle
  2
ColorChange
 70
    16
177
     3
291
     1
 70
    58
 90
        2
176
     1
 90
        2
176
     1
 90
        3
176
     1
 90
        0
176
     1
 40
0.6
176
     1
 40
30.0
176
     1
 62
     8
420
  8421504
176
     1
 90
        1
176
     1
 90
        4
176
     1
 62
     7
176
     1
 62
   257
176
     1
 90
        1
176
     1
 90
        1
176
     1
 40
1.0
176
     1
 90
        8
176
     1
 62
     8
420
  8421504
176
     1
 40
1.0
176
     1
 90
        1
176
     1
 90
        6
176
     1
 90
        2
176
     1
 62
     7
176
     1
 90
        5
176
     1
 90
        0
176
     1
 90
        0
176
     1
290
     0
176
     1
 90
        1
176
     1
 40
0.0
176
     1
 90
        0
176
     1
290
     0
176
     1
290
     1
176
     1
290
     1
176
     1
290
     0
176
     1
290
     0
176
     1
290
     0
176
     1
290
     0
176
     1
290
     0
176
     1
290
     0
176
     1
 90
       50
176
     1
 40
0.0
176
     1
 40
1.0
176
     1
 90
        0
176
     1
 62
    18
420
        0
176
     1
 90
       50
176
     1
 90
        3
176
     1
 62
     5
420
      255
176
     1
290
     0
176
     1
 90
       50
176
     1
 90
       50
176
     1
 90
       50
176
     1
290
     0
176
     1
 90
       50
176
     1
 62
   256
176
     0
 40
1.0
176
     0
 90
        2
176
     1
  1
strokes_ogs.tif
176
     1
290
     0
176
     1
 40
1.0
176
     1
 40
1.0
176
     1
  0
VISUALSTYLE
  5
32
102
{ACAD_REACTORS
330
29
102
}
330
29
100
AcDbVisualStyle
  2
Conceptual
 70
     9
177
     3
291
     0
 70
    58
 90
        3
176
     1
 90
        2
176
     1
 90
        0
176
     1
 90
        0
176
     1
 40
0.6
176
     1
 40
30.0
176
     1
 62
     7
420
 16777215
176
     1
 90
        2
176
     1
 90
        2
176
     1
 62
     7
176
     1
 62
   257
176
     1
 90
        1
176
     1
 90
        1
176
     1
 40
179.0
176
     1
 90
        8
176
     1
 62
     7
176
     1
 40
1.0
176
     1
 90
        1
176
     1
 90
        6
176
     1
 90
        2
176
     1
 62
     7
176
     1
 90
        3
176
     1
 90
        0
176
     1
 90
        0
176
     1
290
     0
176
     1
 90
        1
176
     1
 40
0.0
176
     1
 90
        0
176
     1
290
     0
176
     1
290
     1
176
     1
290
     1
176
     1
290
     0
176
     1
290
     0
176
     1
290
     0
176
     1
290
     0
176
     1
290
     0
176
     1
290
     0
176
     1
 90
       50
176
     1
 40
0.0
176
     1
 40
1.0
176
     1
 90
        0
176
     1
 62
    18
420
        0
176
     1
 90
       50
176
     1
 90
        3
176
     1
 62
     5
420
      255
176
     1
290
     0
176
     1
 90
       50
176
     1
 90
       50
176
     1
 90
       50
176
     1
290
     0
176
     1
 90
       50
176
     1
 62
   256
176
     0
 40
1.0
176
     0
 90
        2
176
     1
  1
strokes_ogs.tif
176
     1
290
     0
176
     1
 40
1.0
176
     1
 40
1.0
176
     1
  0
VISUALSTYLE
  5
34
102
{ACAD_REACTORS
330
29
102
}
330
29
100
AcDbVisualStyle
  2
Dim
 70
    11
177
     3
291
     1
 70
    58
 90
        2
176
     1
 90
        2
176
     1
 90
        0
176
     1
 90
        0
176
     1
 40
0.6
176
     1
 40
30.0
176
     1
 62
     7
420
 16777215
176
     1
 90
        1
176
     1
 90
        4
176
     1
 62
     7
176
     1
 62
   257
176
     1
 90
        1
176
     1
 90
        1
176
     1
 40
1.0
176
     1
 90
        8
176
     1
 62
     7
176
     1
 40
1.0
176
     1
 90
        1
176
     1
 90
        6
176
     1
 90
        2
176
     1
 62
     7
176
     1
 90
        5
176
     1
 90
        0
176
     1
 90
        0
176
     1
290
     0
176
     1
 90
        1
176
     1
 40
-50.0
176
     1
 90
        0
176
     1
290
     0
176
     1
290
     1
176
     1
290
     1
176
     1
290
     0
176
     1
290
     0
176
     1
290
     0
176
     1
290
     0
176
     1
290
     0
176
     1
290
     0
176
     1
 90
       50
176
     1
 40
0.0
176
     1
 40
1.0
176
     1
 90
        0
176
     1
 62
    18
420
        0
176
     1
 90
       50
176
     1
 90
        3
176
     1
 62
     5
420
      255
176
     1
290
     0
176
     1
 90
       50
176
     1
 90
       50
176
     1
 90
       50
176
     1
290
     0
176
     1
 90
       50
176
     1
 62
   256
176
     0
 40
1.0
176
     0
 90
        2
176
     1
  1
strokes_ogs.tif
176
     1
290
     0
176
     1
 40
1.0
176
     1
 40
1.0
176
     1
  0
VISUALSTYLE
  5
41
102
{ACAD_REACTORS
330
29
102
}
330
29
100
AcDbVisualStyle
  2
EdgeColorOff
 70
    22
177
     3
291
     1
 70
    58
 90
        2
176
     0
 90
        2
176
     0
 90
        0
176
     0
 90
        0
176
     0
 40
0.6
176
     0
 40
30.0
176
     0
 62
     7
420
 16777215
176
     0
 90
        1
176
     0
 90
        4
176
     0
 62
     7
176
     0
 62
   257
176
     0
 90
        1
176
     0
 90
        1
176
     0
 40
1.0
176
     0
 90
        8
176
     2
 62
     7
176
     0
 40
1.0
176
     0
 90
        1
176
     0
 90
        6
176
     0
 90
        2
176
     0
 62
     7
176
     0
 90
        5
176
     0
 90
        0
176
     0
 90
        0
176
     0
290
     0
176
     0
 90
        1
176
     0
 40
0.0
176
     0
 90
        0
176
     0
290
     0
176
     0
290
     1
176
     0
290
     1
176
     0
290
     0
176
     0
290
     0
176
     0
290
     0
176
     0
290
     0
176
     0
290
     0
176
     0
290
     0
176
     0
 90
       50
176
     0
 40
0.0
176
     0
 40
1.0
176
     0
 90
        0
176
     0
 62
    18
420
        0
176
     0
 90
       50
176
     0
 90
        3
176
     0
 62
     5
420
      255
176
     0
290
     0
176
     0
 90
       50
176
     0
 90
       50
176
     0
 90
       50
176
     0
290
     0
176
     0
 90
       50
176
     0
 62
   256
176
     0
 40
1.0
176
     0
 90
        2
176
     0
  1
strokes_ogs.tif
176
     0
290
     0
176
     0
 40
1.0
176
     0
 40
1.0
176
     0
  0
VISUALSTYLE
  5
38
102
{ACAD_REACTORS
330
29
102
}
330
29
100
AcDbVisualStyle
  2
Facepattern
 70
    15
177
     3
291
     1
 70
    58
 90
        2
176
     1
 90
        2
176
     1
 90
        0
176
     1
 90
        0
176
     1
 40
0.6
176
     1
 40
30.0
176
     1
 62
     7
420
 16777215
176
     1
 90
        1
176
     1
 90
        4
176
     1
 62
     7
176
     1
 62
   257
176
     1
 90
        1
176
     1
 90
        1
176
     1
 40
1.0
176
     1
 90
        8
176
     1
 62
     7
176
     1
 40
1.0
176
     1
 90
        1
176
     1
 90
        6
176
     1
 90
        2
176
     1
 62
     7
176
     1
 90
        5
176
     1
 90
        0
176
     1
 90
        0
176
     1
290
     0
176
     1
 90
        1
176
     1
 40
0.0
176
     1
 90
        0
176
     1
290
     0
176
     1
290
     1
176
     1
290
     1
176
     1
290
     0
176
     1
290
     0
176
     1
290
     0
176
     1
290
     0
176
     1
290
     0
176
     1
290
     0
176
     1
 90
       50
176
     1
 40
0.0
176
     1
 40
1.0
176
     1
 90
        0
176
     1
 62
    18
420
        0
176
     1
 90
       50
176
     1
 90
        3
176
     1
 62
     5
420
      255
176
     1
290
     0
176
     1
 90
       50
176
     1
 90
       50
176
     1
 90
       50
176
     1
290
     0
176
     1
 90
       50
176
     1
 62
   256
176
     0
 40
1.0
176
     0
 90
        2
176
     1
  1
strokes_ogs.tif
176
     1
290
     0
176
     1
 40
1.0
176
     1
 40
1.0
176
     1
  0
VISUALSTYLE
  5
2A
102
{ACAD_REACTORS
330
29
102
}
330
29
100
AcDbVisualStyle
  2
Flat
 70
     0
177
     3
291
     1
 70
    58
 90
        2
176
     1
 90
        1
176
     1
 90
        1
176
     1
 90
        2
176
     1
 40
0.6
176
     1
 40
30.0
176
     1
 62
     7
420
 16777215
176
     1
 90
        0
176
     1
 90
        0
176
     1
 62
     7
176
     1
 62
   257
176
     1
 90
        1
176
     1
 90
        1
176
     1
 40
1.0
176
     1
 90
        8
176
     1
 62
     7
176
     1
 40
1.0
176
     1
 90
        1
176
     1
 90
        6
176
     1
 90
        2
176
     1
 62
     7
176
     1
 90
        5
176
     1
 90
        0
176
     1
 90
        0
176
     1
290
     0
176
     1
 90
       13
176
     1
 40
0.0
176
     1
 90
        0
176
     1
290
     0
176
     1
290
     1
176
     1
290
     1
176
     1
290
     0
176
     1
290
     0
176
     1
290
     0
176
     1
290
     0
176
     1
290
     0
176
     1
290
     0
176
     1
 90
       50
176
     1
 40
0.0
176
     1
 40
1.0
176
     1
 90
        0
176
     1
 62
    18
420
        0
176
     1
 90
       50
176
     1
 90
        3
176
     1
 62
     5
420
      255
176
     1
290
     0
176
     1
 90
       50
176
     1
 90
       50
176
     1
 90
       50
176
     1
290
     0
176
     1
 90
       50
176
     1
 62
   256
176
     0
 40
1.0
176
     0
 90
        2
176
     1
  1
strokes_ogs.tif
176
     1
290
     0
176
     1
 40
1.0
176
     1
 40
1.0
176
     1
  0
VISUALSTYLE
  5
2B
102
{ACAD_REACTORS
330
29
102
}
330
29
100
AcDbVisualStyle
  2
FlatWithEdges
 70
     1
177
     3
291
     1
 70
    58
 90
        2
176
     1
 90
        1
176
     1
 90
        1
176
     1
 90
        2
176
     1
 40
0.6
176
     1
 40
30.0
176
     1
 62
     7
420
 16777215
176
     1
 90
        1
176
     1
 90
        0
176
     1
 62
     7
176
     1
 62
   257
176
     1
 90
        1
176
     1
 90
        1
176
     1
 40
1.0
176
     1
 90
        0
176
     1
 62
   257
176
     1
 40
1.0
176
     1
 90
        1
176
     1
 90
        6
176
     1
 90
        2
176
     1
 62
     7
176
     1
 90
        5
176
     1
 90
        0
176
     1
 90
        0
176
     1
290
     0
176
     1
 90
       13
176
     1
 40
0.0
176
     1
 90
        0
176
     1
290
     0
176
     1
290
     1
176
     1
290
     1
176
     1
290
     0
176
     1
290
     0
176
     1
290
     0
176
     1
290
     0
176
     1
290
     0
176
     1
290
     0
176
     1
 90
       50
176
     1
 40
0.0
176
     1
 40
1.0
176
     1
 90
        0
176
     1
 62
    18
420
        0
176
     1
 90
       50
176
     1
 90
        3
176
     1
 62
     5
420
      255
176
     1
290
     0
176
     1
 90
       50
176
     1
 90
       50
176
     1
 90
       50
176
     1
290
     0
176
     1
 90
       50
176
     1
 62
   256
176
     0
 40
1.0
176
     0
 90
        2
176
     1
  1
strokes_ogs.tif
176
     1
290
     0
176
     1
 40
1.0
176
     1
 40
1.0
176
     1
  0
VISUALSTYLE
  5
2C
102
{ACAD_REACTORS
330
29
102
}
330
29
100
AcDbVisualStyle
  2
Gouraud
 70
     2
177
     3
291
     1
 70
    58
 90
        2
176
     1
 90
        2
176
     1
 90
        1
176
     1
 90
        2
176
     1
 40
0.6
176
     1
 40
30.0
176
     1
 62
     7
420
 16777215
176
     1
 90
        0
176
     1
 90
        0
176
     1
 62
     7
176
     1
 62
   257
176
     1
 90
        1
176
     1
 90
        1
176
     1
 40
1.0
176
     1
 90
        0
176
     1
 62
     7
176
     1
 40
1.0
176
     1
 90
        1
176
     1
 90
        6
176
     1
 90
        2
176
     1
 62
     7
176
     1
 90
        5
176
     1
 90
        0
176
     1
 90
        0
176
     1
290
     0
176
     1
 90
       13
176
     1
 40
0.0
176
     1
 90
        0
176
     1
290
     0
176
     1
290
     1
176
     1
290
     1
176
     1
290
     0
176
     1
290
     0
176
     1
290
     0
176
     1
290
     0
176
     1
290
     0
176
     1
290
     0
176
     1
 90
       50
176
     1
 40
0.0
176
     1
 40
1.0
176
     1
 90
        0
176
     1
 62
    18
420
        0
176
     1
 90
       50
176
     1
 90
        3
176
     1
 62
     5
420
      255
176
     1
290
     0
176
     1
 90
       50
176
     1
 90
       50
176
     1
 90
       50
176
     1
290
     0
176
     1
 90
       50
176
     1
 62
   256
176
     0
 40
1.0
176
     0
 90
        2
176
     1
  1
strokes_ogs.tif
176
     1
290
     0
176
     1
 40
1.0
176
     1
 40
1.0
176
     1
  0
VISUALSTYLE
  5
2D
102
{ACAD_REACTORS
330
29
102
}
330
29
100
AcDbVisualStyle
  2
GouraudWithEdges
 70
     3
177
     3
291
     1
 70
    58
 90
        2
176
     1
 90
        2
176
     1
 90
        1
176
     1
 90
        2
176
     1
 40
0.6
176
     1
 40
30.0
176
     1
 62
     7
420
 16777215
176
     1
 90
        1
176
     1
 90
        0
176
     1
 62
     7
176
     1
 62
   257
176
     1
 90
        1
176
     1
 90
        1
176
     1
 40
1.0
176
     1
 90
        0
176
     1
 62
   257
176
     1
 40
1.0
176
     1
 90
        1
176
     1
 90
        6
176
     1
 90
        2
176
     1
 62
     7
176
     1
 90
        5
176
     1
 90
        0
176
     1
 90
        0
176
     1
290
     0
176
     1
 90
       13
176
     1
 40
0.0
176
     1
 90
        0
176
     1
290
     0
176
     1
290
     1
176
     1
290
     1
176
     1
290
     0
176
     1
290
     0
176
     1
290
     0
176
     1
290
     0
176
     1
290
     0
176
     1
290
     0
176
     1
 90
       50
176
     1
 40
0.0
176
     1
 40
1.0
176
     1
 90
        0
176
     1
 62
    18
420
        0
176
     1
 90
       50
176
     1
 90
        3
176
     1
 62
     5
420
      255
176
     1
290
     0
176
     1
 90
       50
176
     1
 90
       50
176
     1
 90
       50
176
     1
290
     0
176
     1
 90
       50
176
     1
 62
   256
176
     0
 40
1.0
176
     0
 90
        2
176
     1
  1
strokes_ogs.tif
176
     1
290
     0
176
     1
 40
1.0
176
     1
 40
1.0
176
     1
  0
VISUALSTYLE
  5
31
102
{ACAD_REACTORS
330
29
102
}
330
29
100
AcDbVisualStyle
  2
Hidden
 70
     6
177
     3
291
     0
 70
    58
 90
        1
176
     1
 90
        2
176
     1
 90
        2
176
     1
 90
        0
176
     1
 40
0.6
176
     1
 40
30.0
176
     1
 62
     7
420
 16777215
176
     1
 90
        2
176
     1
 90
        2
176
     1
 62
     7
176
     1
 62
   257
176
     1
 90
        2
176
     1
 90
        1
176
     1
 40
40.0
176
     1
 90
        0
176
     1
 62
   257
176
     1
 40
1.0
176
     1
 90
        1
176
     1
 90
        6
176
     1
 90
        2
176
     1
 62
     7
176
     1
 90
        3
176
     1
 90
        0
176
     1
 90
        0
176
     1
290
     0
176
     1
 90
        1
176
     1
 40
0.0
176
     1
 90
        0
176
     1
290
     0
176
     1
290
     1
176
     1
290
     1
176
     1
290
     0
176
     1
290
     0
176
     1
290
     0
176
     1
290
     0
176
     1
290
     0
176
     1
290
     0
176
     1
 90
       50
176
     1
 40
0.0
176
     1
 40
1.0
176
     1
 90
        0
176
     1
 62
    18
420
        0
176
     1
 90
       50
176
     1
 90
        3
176
     1
 62
     5
420
      255
176
     1
290
     0
176
     1
 90
       50
176
     1
 90
       50
176
     1
 90
       50
176
     1
290
     0
176
     1
 90
       50
176
     1
 62
   256
176
     0
 40
1.0
176
     0
 90
        2
176
     1
  1
strokes_ogs.tif
176
     1
290
     0
176
     1
 40
1.0
176
     1
 40
1.0
176
     1
  0
VISUALSTYLE
  5
3F
102
{ACAD_REACTORS
330
29
102
}
330
29
100
AcDbVisualStyle
  2
JitterOff
 70
    20
177
     3
291
     1
 70
    58
 90
        2
176
     0
 90
        2
176
     0
 90
        0
176
     0
 90
        0
176
     0
 40
0.6
176
     0
 40
30.0
176
     0
 62
     7
420
 16777215
176
     0
 90
        1
176
     0
 90
        4
176
     0
 62
     7
176
     0
 62
   257
176
     0
 90
        1
176
     0
 90
        1
176
     0
 40
1.0
176
     0
 90
       10
176
     2
 62
     7
176
     0
 40
1.0
176
     0
 90
        1
176
     0
 90
        6
176
     0
 90
        2
176
     0
 62
     7
176
     0
 90
        5
176
     0
 90
        0
176
     0
 90
        0
176
     0
290
     0
176
     0
 90
        1
176
     0
 40
0.0
176
     0
 90
        0
176
     0
290
     0
176
     0
290
     1
176
     0
290
     1
176
     0
290
     0
176
     0
290
     0
176
     0
290
     0
176
     0
290
     0
176
     0
290
     0
176
     0
290
     0
176
     0
 90
       50
176
     0
 40
0.0
176
     0
 40
1.0
176
     0
 90
        0
176
     0
 62
    18
420
        0
176
     0
 90
       50
176
     0
 90
        3
176
     0
 62
     5
420
      255
176
     0
290
     0
176
     0
 90
       50
176
     0
 90
       50
176
     0
 90
       50
176
     0
290
     0
176
     0
 90
       50
176
     0
 62
   256
176
     0
 40
1.0
176
     0
 90
        2
176
     0
  1
strokes_ogs.tif
176
     0
290
     0
176
     0
 40
1.0
176
     0
 40
1.0
176
     0
  0
VISUALSTYLE
  5
37
102
{ACAD_REACTORS
330
29
102
}
330
29
100
AcDbVisualStyle
  2
Linepattern
 70
    14
177
     3
291
     1
 70
    58
 90
        2
176
     1
 90
        2
176
     1
 90
        0
176
     1
 90
        0
176
     1
 40
0.6
176
     1
 40
30.0
176
     1
 62
     7
420
 16777215
176
     1
 90
        1
176
     1
 90
        4
176
     1
 62
     7
176
     1
 62
   257
176
     1
 90
        7
176
     1
 90
        7
176
     1
 40
1.0
176
     1
 90
        8
176
     1
 62
     7
176
     1
 40
1.0
176
     1
 90
        1
176
     1
 90
        6
176
     1
 90
        2
176
     1
 62
     7
176
     1
 90
        5
176
     1
 90
        0
176
     1
 90
        0
176
     1
290
     0
176
     1
 90
        1
176
     1
 40
0.0
176
     1
 90
        0
176
     1
290
     0
176
     1
290
     1
176
     1
290
     1
176
     1
290
     0
176
     1
290
     0
176
     1
290
     0
176
     1
290
     0
176
     1
290
     0
176
     1
290
     0
176
     1
 90
       50
176
     1
 40
0.0
176
     1
 40
1.0
176
     1
 90
        0
176
     1
 62
    18
420
        0
176
     1
 90
       50
176
     1
 90
        3
176
     1
 62
     5
420
      255
176
     1
290
     0
176
     1
 90
       50
176
     1
 90
       50
176
     1
 90
       50
176
     1
290
     0
176
     1
 90
       50
176
     1
 62
   256
176
     0
 40
1.0
176
     0
 90
        2
176
     1
  1
strokes_ogs.tif
176
     1
290
     0
176
     1
 40
1.0
176
     1
 40
1.0
176
     1
  0
VISUALSTYLE
  5
40
102
{ACAD_REACTORS
330
29
102
}
330
29
100
AcDbVisualStyle
  2
OverhangOff
 70
    21
177
     3
291
     1
 70
    58
 90
        2
176
     0
 90
        2
176
     0
 90
        0
176
     0
 90
        0
176
     0
 40
0.6
176
     0
 40
30.0
176
     0
 62
     7
420
 16777215
176
     0
 90
        1
176
     0
 90
        4
176
     0
 62
     7
176
     0
 62
   257
176
     0
 90
        1
176
     0
 90
        1
176
     0
 40
1.0
176
     0
 90
        9
176
     2
 62
     7
176
     0
 40
1.0
176
     0
 90
        1
176
     0
 90
        6
176
     0
 90
        2
176
     0
 62
     7
176
     0
 90
        5
176
     0
 90
        0
176
     0
 90
        0
176
     0
290
     0
176
     0
 90
        1
176
     0
 40
0.0
176
     0
 90
        0
176
     0
290
     0
176
     0
290
     1
176
     0
290
     1
176
     0
290
     0
176
     0
290
     0
176
     0
290
     0
176
     0
290
     0
176
     0
290
     0
176
     0
290
     0
176
     0
 90
       50
176
     0
 40
0.0
176
     0
 40
1.0
176
     0
 90
        0
176
     0
 62
    18
420
        0
176
     0
 90
       50
176
     0
 90
        3
176
     0
 62
     5
420
      255
176
     0
290
     0
176
     0
 90
       50
176
     0
 90
       50
176
     0
 90
       50
176
     0
290
     0
176
     0
 90
       50
176
     0
 62
   256
176
     0
 40
1.0
176
     0
 90
        2
176
     0
  1
strokes_ogs.tif
176
     0
290
     0
176
     0
 40
1.0
176
     0
 40
1.0
176
     0
  0
VISUALSTYLE
  5
33
102
{ACAD_REACTORS
330
29
102
}
330
29
100
AcDbVisualStyle
  2
Realistic
 70
     8
177
     3
291
     0
 70
    58
 90
        2
176
     1
 90
        3
176
     1
 90
        0
176
     1
 90
        2
176
     1
 40
0.6
176
     1
 40
30.0
176
     1
 62
     7
420
 16777215
176
     1
 90
        0
176
     1
 90
        0
176
     1
 62
     7
176
     1
 62
   257
176
     1
 90
        1
176
     1
 90
        1
176
     1
 40
1.0
176
     1
 90
        8
176
     1
 62
   257
176
     1
 40
1.0
176
     1
 90
        1
176
     1
 90
        6
176
     1
 90
        2
176
     1
 62
     7
176
     1
 90
        3
176
     1
 90
        0
176
     1
 90
        0
176
     1
290
     0
176
     1
 90
       13
176
     1
 40
0.0
176
     1
 90
        0
176
     1
290
     0
176
     1
290
     1
176
     1
290
     1
176
     1
290
     0
176
     1
290
     0
176
     1
290
     0
176
     1
290
     0
176
     1
290
     0
176
     1
290
     0
176
     1
 90
       50
176
     1
 40
0.0
176
     1
 40
1.0
176
     1
 90
        0
176
     1
 62
    18
420
        0
176
     1
 90
       50
176
     1
 90
        3
176
     1
 62
     5
420
      255
176
     1
290
     0
176
     1
 90
       50
176
     1
 90
       50
176
     1
 90
       50
176
     1
290
     0
176
     1
 90
       50
176
     1
 62
   256
176
     0
 40
1.0
176
     0
 90
        2
176
     1
  1
strokes_ogs.tif
176
     1
290
     0
176
     1
 40
1.0
176
     1
 40
1.0
176
     1
  0
VISUALSTYLE
  5
3E
102
{ACAD_REACTORS
330
29
102
}
330
29
100
AcDbVisualStyle
  2
Shaded
 70
    27
177
     3
291
     0
 70
    58
 90
        2
176
     1
 90
        2
176
     1
 90
        1
176
     1
 90
        2
176
     1
 40
0.6
176
     1
 40
30.0
176
     1
 62
     7
420
 16777215
176
     1
 90
        0
176
     1
 90
        4
176
     1
 62
     7
176
     1
 62
   257
176
     1
 90
        1
176
     1
 90
        1
176
     1
 40
1.0
176
     1
 90
        8
176
     1
 62
   257
176
     1
 40
1.0
176
     1
 90
        1
176
     1
 90
        6
176
     1
 90
        2
176
     1
 62
     8
420
  7895160
176
     1
 90
        3
176
     1
 90
        0
176
     1
 90
        0
176
     1
290
     0
176
     1
 90
        5
176
     1
 40
0.0
176
     1
 90
        0
176
     1
290
     0
176
     1
290
     1
176
     1
290
     1
176
     1
290
     0
176
     1
290
     0
176
     1
290
     0
176
     1
290
     0
176
     1
290
     0
176
     1
290
     0
176
     1
 90
       50
176
     1
 40
0.0
176
     1
 40
1.0
176
     1
 90
        0
176
     1
 62
    18
420
        0
176
     1
 90
       50
176
     1
 90
        3
176
     1
 62
     5
420
      255
176
     1
290
     0
176
     1
 90
       50
176
     1
 90
       50
176
     1
 90
       50
176
     1
290
     0
176
     1
 90
       50
176
     1
 62
   256
176
     0
 40
1.0
176
     0
 90
        2
176
     1
  1
strokes_ogs.tif
176
     1
290
     0
176
     1
 40
1.0
176
     1
 40
1.0
176
     1
  0
VISUALSTYLE
  5
3D
102
{ACAD_REACTORS
330
29
102
}
330
29
100
AcDbVisualStyle
  2
Shaded with edges
 70
    26
177
     3
291
     0
 70
    58
 90
        2
176
     1
 90
        2
176
     1
 90
        1
176
     1
 90
        2
176
     1
 40
0.6
176
     1
 40
30.0
176
     1
 62
     7
420
 16777215
176
     1
 90
        1
176
     1
 90
        2
176
     1
 62
     7
176
     1
 62
   257
176
     1
 90
        2
176
     1
 90
        1
176
     1
 40
1.0
176
     1
 90
        8
176
     1
 62
   257
176
     1
 40
1.0
176
     1
 90
        1
176
     1
 90
        6
176
     1
 90
        2
176
     1
 62
     7
176
     1
 90
        3
176
     1
 90
        0
176
     1
 90
        0
176
     1
290
     0
176
     1
 90
        5
176
     1
 40
0.0
176
     1
 90
        0
176
     1
290
     0
176
     1
290
     1
176
     1
290
     1
176
     1
290
     0
176
     1
290
     0
176
     1
290
     0
176
     1
290
     0
176
     1
290
     0
176
     1
290
     0
176
     1
 90
       50
176
     1
 40
0.0
176
     1
 40
1.0
176
     1
 90
        0
176
     1
 62
    18
420
        0
176
     1
 90
       50
176
     1
 90
        3
176
     1
 62
     5
420
      255
176
     1
290
     0
176
     1
 90
       50
176
     1
 90
       50
176
     1
 90
       50
176
     1
290
     0
176
     1
 90
       50
176
     1
 62
   256
176
     0
 40
1.0
176
     0
 90
        2
176
     1
  1
strokes_ogs.tif
176
     1
290
     0
176
     1
 40
1.0
176
     1
 40
1.0
176
     1
  0
VISUALSTYLE
  5
3A
102
{ACAD_REACTORS
330
29
102
}
330
29
100
AcDbVisualStyle
  2
Shades of Gray
 70
    23
177
     3
291
     0
 70
    58
 90
        2
176
     1
 90
        2
176
     1
 90
        3
176
     1
 90
        0
176
     1
 40
0.6
176
     1
 40
30.0
176
     1
 62
     7
420
 16777215
176
     1
 90
        2
176
     1
 90
        2
176
     1
 62
     7
176
     1
 62
     7
176
     1
 90
        1
176
     1
 90
        1
176
     1
 40
40.0
176
     1
 90
        8
176
     1
 62
     7
176
     1
 40
1.0
176
     1
 90
        1
176
     1
 90
        6
176
     1
 90
        2
176
     1
 62
     7
176
     1
 90
        3
176
     1
 90
        0
176
     1
 90
        0
176
     1
290
     0
176
     1
 90
        1
176
     1
 40
0.0
176
     1
 90
        0
176
     1
290
     0
176
     1
290
     1
176
     1
290
     1
176
     1
290
     0
176
     1
290
     0
176
     1
290
     0
176
     1
290
     0
176
     1
290
     0
176
     1
290
     0
176
     1
 90
       50
176
     1
 40
0.0
176
     1
 40
1.0
176
     1
 90
        0
176
     1
 62
    18
420
        0
176
     1
 90
       50
176
     1
 90
        3
176
     1
 62
     5
420
      255
176
     1
290
     0
176
     1
 90
       50
176
     1
 90
       50
176
     1
 90
       50
176
     1
290
     0
176
     1
 90
       50
176
     1
 62
   256
176
     0
 40
1.0
176
     0
 90
        2
176
     1
  1
strokes_ogs.tif
176
     1
290
     0
176
     1
 40
1.0
176
     1
 40
1.0
176
     1
  0
VISUALSTYLE
  5
3B
102
{ACAD_REACTORS
330
29
102
}
330
29
100
AcDbVisualStyle
  2
Sketchy
 70
    24
177
     3
291
     0
 70
    58
 90
        1
176
     1
 90
        2
176
     1
 90
        2
176
     1
 90
        0
176
     1
 40
0.6
176
     1
 40
30.0
176
     1
 62
     7
420
 16777215
176
     1
 90
        2
176
     1
 90
        2
176
     1
 62
     7
176
     1
 62
     7
176
     1
 90
        1
176
     1
 90
        1
176
     1
 40
40.0
176
     1
 90
       11
176
     1
 62
     7
176
     1
 40
1.0
176
     1
 90
        1
176
     1
 90
        6
176
     1
 90
        2
176
     1
 62
     7
176
     1
 90
        6
176
     1
 90
        0
176
     1
 90
        0
176
     1
290
     0
176
     1
 90
        1
176
     1
 40
0.0
176
     1
 90
        0
176
     1
290
     0
176
     1
290
     1
176
     1
290
     1
176
     1
290
     0
176
     1
290
     0
176
     1
290
     0
176
     1
290
     0
176
     1
290
     0
176
     1
290
     0
176
     1
 90
       50
176
     1
 40
0.0
176
     1
 40
1.0
176
     1
 90
        0
176
     1
 62
    18
420
        0
176
     1
 90
       50
176
     1
 90
        3
176
     1
 62
     5
420
      255
176
     1
290
     0
176
     1
 90
       50
176
     1
 90
       50
176
     1
 90
       50
176
     1
290
     0
176
     1
 90
       50
176
     1
 62
   256
176
     0
 40
1.0
176
     0
 90
        2
176
     1
  1
strokes_ogs.tif
176
     1
290
     0
176
     1
 40
1.0
176
     1
 40
1.0
176
     1
  0
VISUALSTYLE
  5
36
102
{ACAD_REACTORS
330
29
102
}
330
29
100
AcDbVisualStyle
  2
Thicken
 70
    13
177
     3
291
     1
 70
    58
 90
        2
176
     1
 90
        2
176
     1
 90
        0
176
     1
 90
        0
176
     1
 40
0.6
176
     1
 40
30.0
176
     1
 62
     7
420
 16777215
176
     1
 90
        1
176
     1
 90
        4
176
     1
 62
     7
176
     1
 62
   257
176
     1
 90
        1
176
     1
 90
        1
176
     1
 40
1.0
176
     1
 90
       12
176
     1
 62
     7
176
     1
 40
1.0
176
     1
 90
        1
176
     1
 90
        6
176
     1
 90
        2
176
     1
 62
     7
176
     1
 90
        5
176
     1
 90
        0
176
     1
 90
        0
176
     1
290
     0
176
     1
 90
        1
176
     1
 40
0.0
176
     1
 90
        0
176
     1
290
     0
176
     1
290
     1
176
     1
290
     1
176
     1
290
     0
176
     1
290
     0
176
     1
290
     0
176
     1
290
     0
176
     1
290
     0
176
     1
290
     0
176
     1
 90
       50
176
     1
 40
0.0
176
     1
 40
1.0
176
     1
 90
        0
176
     1
 62
    18
420
        0
176
     1
 90
       50
176
     1
 90
        3
176
     1
 62
     5
420
      255
176
     1
290
     0
176
     1
 90
       50
176
     1
 90
       50
176
     1
 90
       50
176
     1
290
     0
176
     1
 90
       50
176
     1
 62
   256
176
     0
 40
1.0
176
     0
 90
        2
176
     1
  1
strokes_ogs.tif
176
     1
290
     0
176
     1
 40
1.0
176
     1
 40
1.0
176
     1
  0
VISUALSTYLE
  5
30
102
{ACAD_REACTORS
330
29
102
}
330
29
100
AcDbVisualStyle
  2
Wireframe
 70
     5
177
     3
291
     0
 70
    58
 90
        0
176
     1
 90
        2
176
     1
 90
        0
176
     1
 90
        0
176
     1
 40
0.6
176
     1
 40
30.0
176
     1
 62
     7
420
 16777215
176
     1
 90
        1
176
     1
 90
        4
176
     1
 62
     7
176
     1
 62
   257
176
     1
 90
        1
176
     1
 90
        1
176
     1
 40
1.0
176
     1
 90
        0
176
     1
 62
   257
176
     1
 40
1.0
176
     1
 90
        1
176
     1
 90
        6
176
     1
 90
        2
176
     1
 62
     7
176
     1
 90
        3
176
     1
 90
        0
176
     1
 90
        0
176
     1
290
     0
176
     1
 90
        1
176
     1
 40
0.0
176
     1
 90
        0
176
     1
290
     0
176
     1
290
     1
176
     1
290
     1
176
     1
290
     0
176
     1
290
     0
176
     1
290
     0
176
     1
290
     0
176
     1
290
     0
176
     1
290
     0
176
     1
 90
       50
176
     1
 40
0.0
176
     1
 40
1.0
176
     1
 90
        0
176
     1
 62
    18
420
        0
176
     1
 90
       50
176
     1
 90
        3
176
     1
 62
     5
420
      255
176
     1
290
     0
176
     1
 90
       50
176
     1
 90
       50
176
     1
 90
       50
176
     1
290
     0
176
     1
 90
       50
176
     1
 62
   256
176
     0
 40
1.0
176
     0
 90
        2
176
     1
  1
strokes_ogs.tif
176
     1
290
     0
176
     1
 40
1.0
176
     1
 40
1.0
176
     1
  0
VISUALSTYLE
  5
3C
102
{ACAD_REACTORS
330
29
102
}
330
29
100
AcDbVisualStyle
  2
X-Ray
 70
    25
177
     3
291
     0
 70
    58
 90
        2
176
     1
 90
        2
176
     1
 90
        1
176
     1
 90
        1
176
     1
 40
0.5
176
     1
 40
30.0
176
     1
 62
     7
420
 16777215
176
     1
 90
        1
176
     1
 90
        0
176
     1
 62
     7
176
     1
 62
   257
176
     1
 90
        1
176
     1
 90
        1
176
     1
 40
1.0
176
     1
 90
        8
176
     1
 62
     7
176
     1
 40
1.0
176
     1
 90
        1
176
     1
 90
        6
176
     1
 90
        2
176
     1
 62
     7
176
     1
 90
        3
176
     1
 90
        0
176
     1
 90
        0
176
     1
290
     0
176
     1
 90
       13
176
     1
 40
0.0
176
     1
 90
        0
176
     1
290
     0
176
     1
290
     1
176
     1
290
     1
176
     1
290
     0
176
     1
290
     0
176
     1
290
     0
176
     1
290
     0
176
     1
290
     0
176
     1
290
     0
176
     1
 90
       50
176
     1
 40
0.0
176
     1
 40
1.0
176
     1
 90
        0
176
     1
 62
    18
420
        0
176
     1
 90
       50
176
     1
 90
        3
176
     1
 62
     5
420
      255
176
     1
290
     0
176
     1
 90
       50
176
     1
 90
       50
176
     1
 90
       50
176
     1
290
     0
176
     1
 90
       50
176
     1
 62
   256
176
     0
 40
1.0
176
     0
 90
        2
176
     1
  1
strokes_ogs.tif
176
     1
290
     0
176
     1
 40
1.0
176
     1
 40
1.0
176
     1
  0
DICTIONARYVAR
  5
D6
102
{ACAD_REACTORS
330
D1
102
}
330
D1
100
DictionaryVariables
280
     0
  1
1:1
  0
DICTIONARYVAR
  5
D3
102
{ACAD_REACTORS
330
D1
102
}
330
D1
100
DictionaryVariables
280
     0
  1
STANDARD
  0
DICTIONARYVAR
  5
D2
102
{ACAD_REACTORS
330
D1
102
}
330
D1
100
DictionaryVariables
280
     0
  1
STANDARD
  0
DICTIONARYVAR
  5
D4
102
{ACAD_REACTORS
330
D1
102
}
330
D1
100
DictionaryVariables
280
     0
  1
Imperial24
  0
DICTIONARYVAR
  5
D5
102
{ACAD_REACTORS
330
D1
102
}
330
D1
100
DictionaryVariables
280
     0
  1
Imperial24
  0
DICTIONARY
  5
1A
330
19
100
AcDbDictionary
280
     1
281
     1
  3
BUMPTILE
360
1C
  3
DIFFUSETILE
360
1B
  3
OPACITYTILE
360
1F
  3
REFLECTIONTILE
360
1E
  3
REFRACTIONTILE
360
20
  3
SPECULARTILE
360
1D
  0
DICTIONARY
  5
12
330
11
100
AcDbDictionary
280
     1
281
     1
  3
BUMPTILE
360
14
  3
DIFFUSETILE
360
13
  3
OPACITYTILE
360
17
  3
REFLECTIONTILE
360
16
  3
REFRACTIONTILE
360
18
  3
SPECULARTILE
360
15
  0
DICTIONARY
  5
22
330
21
100
AcDbDictionary
280
     1
281
     1
  3
BUMPTILE
360
24
  3
DIFFUSETILE
360
23
  3
OPACITYTILE
360
27
  3
REFLECTIONTILE
360
26
  3
REFRACTIONTILE
360
28
  3
SPECULARTILE
360
25
  0
DICTIONARY
  5
D7
330
65
100
AcDbDictionary
280
     1
281
     1
  3
ACAD_ROUNDTRIP_2008_TABLESTYLE_CELLSTYLEMAP
360
D8
  0
XRECORD
  5
1C
102
{ACAD_REACTORS
330
1A
102
}
330
1A
100
AcDbXrecord
280
     1
270
     1
271
     1
  0
XRECORD
  5
1B
102
{ACAD_REACTORS
330
1A
102
}
330
1A
100
AcDbXrecord
280
     1
270
     1
271
     1
  0
XRECORD
  5
1F
102
{ACAD_REACTORS
330
1A
102
}
330
1A
100
AcDbXrecord
280
     1
270
     1
271
     1
  0
XRECORD
  5
1E
102
{ACAD_REACTORS
330
1A
102
}
330
1A
100
AcDbXrecord
280
     1
270
     1
271
     1
  0
XRECORD
  5
20
102
{ACAD_REACTORS
330
1A
102
}
330
1A
100
AcDbXrecord
280
     1
270
     1
271
     1
  0
XRECORD
  5
1D
102
{ACAD_REACTORS
330
1A
102
}
330
1A
100
AcDbXrecord
280
     1
270
     1
271
     1
  0
XRECORD
  5
14
102
{ACAD_REACTORS
330
12
102
}
330
12
100
AcDbXrecord
280
     1
270
     1
271
     1
  0
XRECORD
  5
13
102
{ACAD_REACTORS
330
12
102
}
330
12
100
AcDbXrecord
280
     1
270
     1
271
     1
  0
XRECORD
  5
17
102
{ACAD_REACTORS
330
12
102
}
330
12
100
AcDbXrecord
280
     1
270
     1
271
     1
  0
XRECORD
  5
16
102
{ACAD_REACTORS
330
12
102
}
330
12
100
AcDbXrecord
280
     1
270
     1
271
     1
  0
XRECORD
  5
18
102
{ACAD_REACTORS
330
12
102
}
330
12
100
AcDbXrecord
280
     1
270
     1
271
     1
  0
XRECORD
  5
15
102
{ACAD_REACTORS
330
12
102
}
330
12
100
AcDbXrecord
280
     1
270
     1
271
     1
  0
XRECORD
  5
24
102
{ACAD_REACTORS
330
22
102
}
330
22
100
AcDbXrecord
280
     1
270
     1
271
     1
  0
XRECORD
  5
23
102
{ACAD_REACTORS
330
22
102
}
330
22
100
AcDbXrecord
280
     1
270
     1
271
     1
  0
XRECORD
  5
27
102
{ACAD_REACTORS
330
22
102
}
330
22
100
AcDbXrecord
280
     1
270
     1
271
     1
  0
XRECORD
  5
26
102
{ACAD_REACTORS
330
22
102
}
330
22
100
AcDbXrecord
280
     1
270
     1
271
     1
  0
XRECORD
  5
28
102
{ACAD_REACTORS
330
22
102
}
330
22
100
AcDbXrecord
280
     1
270
     1
271
     1
  0
XRECORD
  5
25
102
{ACAD_REACTORS
330
22
102
}
330
22
100
AcDbXrecord
280
     1
270
     1
271
     1
  0
CELLSTYLEMAP
  5
D8
102
{ACAD_REACTORS
330
D7
102
}
330
D7
100
AcDbCellStyleMap
 90
        3
300
CELLSTYLE
  1
TABLEFORMAT_BEGIN
 90
        5
170
     1
 91
        0
 92
    32768
 62
   257
 93
        1
300
CONTENTFORMAT
  1
CONTENTFORMAT_BEGIN
 90
        0
 91
        0
 92
      512
 93
        0
300

 40
0.0
140
1.0
 94
        5
 62
     0
340
55
144
0.25
309
CONTENTFORMAT_END
171
     0
 94
        0
309
TABLEFORMAT_END
  1
CELLSTYLE_BEGIN
 90
        1
 91
        1
300
_TITLE
309
CELLSTYLE_END
300
CELLSTYLE
  1
TABLEFORMAT_BEGIN
 90
        5
170
     1
 91
        0
 92
        0
 62
   257
 93
        1
300
CONTENTFORMAT
  1
CONTENTFORMAT_BEGIN
 90
        0
 91
        0
 92
      512
 93
        0
300

 40
0.0
140
1.0
 94
        5
 62
     0
340
55
144
0.18
309
CONTENTFORMAT_END
171
     0
 94
        0
309
TABLEFORMAT_END
  1
CELLSTYLE_BEGIN
 90
        2
 91
        1
300
_HEADER
309
CELLSTYLE_END
300
CELLSTYLE
  1
TABLEFORMAT_BEGIN
 90
        5
170
     1
 91
        0
 92
        0
 62
   257
 93
        1
300
CONTENTFORMAT
  1
CONTENTFORMAT_BEGIN
 90
        0
 91
        0
 92
      512
 93
        0
300

 40
0.0
140
1.0
 94
        2
 62
     0
340
55
144
0.18
309
CONTENTFORMAT_END
171
     0
 94
        0
309
TABLEFORMAT_END
  1
CELLSTYLE_BEGIN
 90
        3
 91
        2
300
_DATA
309
CELLSTYLE_END
  0
ENDSEC
  0
EOF
