  0
SECTION
  2
HEADER
  9
$ACADVER
  1
AC1009
  9
$INSBASE
 10
0
 20
0
 30
0
  9
$EXTMIN
 10
0
 20
0
  9
$EXTMAX
 10
420
 20
297
  9
$LIMMIN
 10
0
 20
0
  9
$LIMMAX
 10
420
 20
297
  9
$LTSCALE
 40
1
  0
ENDSEC
  0
SECTION
  2
TABLES
  0
TABLE
  2
LTYPE
 70
     9
  0
LTYPE
  2
CONTINUOUS
 70
    64
  3
実線
 72
    65
 73
     0
 40
0.0
  0
LTYPE
  2
DASHED1
 70
    64
  3
--  --  --  --  --  --  --  --  
 72
    65
 73
     2
 40
2.5
 49
1.25
 49
-1.25
  0
LTYPE
  2
DASHED2
 70
    64
  3
----    ----    ----    ----    
 72
    65
 73
     2
 40
5.0
 49
2.5
 49
-2.5
  0
LTYPE
  2
DASHED3
 70
    64
  3
------  ------  ------  ------  
 72
    65
 73
     2
 40
5.0
 49
3.75
 49
-1.25
  0
LTYPE
  2
CENTER1
 70
    64
  3
----- - ----- - ----- - ----- - 
 72
    65
 73
     4
 40
10.0
 49
6.25
 49
-1.25
 49
1.25
 49
-1.25
  0
LTYPE
  2
CENTER2
 70
    64
  3
----------  --  ----------  --  
 72
    65
 73
     4
 40
20.0
 49
12.5
 49
-2.5
 49
2.5
 49
-2.5
  0
LTYPE
  2
PHANTOM1
 70
    64
  3
--- - - --- - - --- - - --- - - 
 72
    65
 73
     6
 40
10.0
 49
3.25
 49
-1.25
 49
1.25
 49
-1.25
 49
1.25
 49
-1.25
  0
LTYPE
  2
PHANTOM2
 70
    64
  3
--------  -  -  --------  -  -  
 72
    65
 73
     6
 40
20.0
 49
10.0
 49
-2.5
 49
1.25
 49
-2.5
 49
1.25
 49
-2.5
  0
LTYPE
  2
DOT
 70
    64
  3
-   -   -   -   -   -   -   -   
 72
    65
 73
     2
 40
2.5
 49
0.625
 49
-1.875
  0
LTYPE
  2
DUMMY
 70
    64
  3
ダミー
 72
    65
 73
     0
 40
0.0
  0
LTYPE
  2
RAND1
 70
    64
  3
ランダム線1
 72
    65
 73
     4
 40
10.0
 49
1.0
 49
-2.0
 49
3.0
 49
-4.0
  0
LTYPE
  2
RAND2
 70
    64
  3
ランダム線2
 72
    65
 73
     4
 40
14.0
 49
2.0
 49
-3.0
 49
4.0
 49
-5.0
  0
LTYPE
  2
RAND3
 70
    64
  3
ランダム線3
 72
    65
 73
     4
 40
18.0
 49
3.0
 49
-4.0
 49
5.0
 49
-6.0
  0
LTYPE
  2
RAND4
 70
    64
  3
ランダム線4
 72
    65
 73
     4
 40
22.0
 49
4.0
 49
-5.0
 49
6.0
 49
-7.0
  0
LTYPE
  2
RAND5
 70
    64
  3
ランダム線5
 72
    65
 73
     4
 40
26.0
 49
5.0
 49
-6.0
 49
7.0
 49
-8.0
  0
LTYPE
  2
LONG1
 70
    64
  3
----------  --  ----------  --  
 72
    65
 73
     4
 40
40.0
 49
32.5
 49
-2.5
 49
2.5
 49
-2.5
  0
LTYPE
  2
LONG2
 70
    64
  3
--------  -  -  --------  -  -  
 72
    65
 73
     6
 40
40.0
 49
30.0
 49
-2.5
 49
1.25
 49
-2.5
 49
1.25
 49
-2.5
  0
LTYPE
  2
LONG3
 70
    64
  3
+++++++++++++++..+++++++++++++++
 72
    65
 73
     2
 40
40.0
 49
37.5
 49
-2.5
  0
LTYPE
  2
LONG4
 70
    64
  3
+++++++++++++++..+++++++++++++++
 72
    65
 73
     2
 40
80.0
 49
75.0
 49
-5.0
  0
LTYPE
  2
LONG5
 70
    64
  3
----------  --  ----------  --  
 72
    65
 73
     4
 40
60.0
 49
37.5
 49
-7.5
 49
7.5
 49
-7.5
  0
LTYPE
  2
dashed
 70
   64
  3
-------   -------------   ------
 72
   65
 73
    2
 40
7.5
 49
6
 49
-1.5
  0
LTYPE
  2
dashed_spaced
 70
   64
  3
----        --------        ----
 72
   65
 73
    2
 40
12
 49
6
 49
-6
  0
LTYPE
  2
long_dashed_dotted
 70
   64
  3
------------- --- --------------
 72
   65
 73
    4
 40
15.25
 49
12
 49
-1.5
 49
0.25
 49
-1.5
  0
LTYPE
  2
long_dashed_double-dotted
 70
   64
  3
----------- --- --- ------------
 72
   65
 73
    6
 40
17
 49
12
 49
-1.5
 49
0.25
 49
-1.5
 49
0.25
 49
-1.5
  0
LTYPE
  2
long_dashed_triplicate-dotted
 70
   64
  3
--------- --- --- --- ----------
 72
   65
 73
    8
 40
18.75
 49
12
 49
-1.5
 49
0.25
 49
-1.5
 49
0.25
 49
-1.5
 49
0.25
 49
-1.5
  0
LTYPE
  2
dotted
 70
   64
  3
   -       -       -       -    
 72
   65
 73
    2
 40
1.75
 49
0.25
 49
-1.5
  0
LTYPE
  2
chain
 70
   64
  3
-------------- -- --------------
 72
   65
 73
    4
 40
18.5
 49
12
 49
-1.5
 49
3.5
 49
-1.5
  0
LTYPE
  2
chain_double_dash
 70
   64
  3
------------ -- -- -------------
 72
   65
 73
    6
 40
23.5
 49
12
 49
-1.5
 49
3.5
 49
-1.5
 49
3.5
 49
-1.5
  0
LTYPE
  2
dashed_dotted
 70
   64
  3
-----------     -     ----------
 72
   65
 73
    4
 40
9.25
 49
6
 49
-1.5
 49
0.25
 49
-1.5
  0
LTYPE
  2
double-dashed_dotted
 70
   64
  3
------   -----------   -   -----
 72
   65
 73
    6
 40
16.75
 49
6
 49
-1.5
 49
6
 49
-1.5
 49
0.25
 49
-1.5
  0
LTYPE
  2
dashed_double-dotted
 70
   64
  3
---------    -    -    ---------
 72
   65
 73
    6
 40
11
 49
6
 49
-1.5
 49
0.25
 49
-1.5
 49
0.25
 49
-1.5
  0
LTYPE
  2
double-dashed_double-dotted
 70
   64
  3
-----   ---------   -   -   ----
 72
   65
 73
    8
 40
18.5
 49
6
 49
-1.5
 49
6
 49
-1.5
 49
0.25
 49
-1.5
 49
0.25
 49
-1.5
  0
LTYPE
  2
dashed_triplicate-dotted
 70
   64
  3
-------    -    -    -    ------
 72
   65
 73
    8
 40
12.75
 49
6
 49
-1.5
 49
0.25
 49
-1.5
 49
0.25
 49
-1.5
 49
0.25
 49
-1.5
  0
LTYPE
  2
double-dashed_triplicate-dotted
 70
   64
  3
-----  ---------  -  -  -  -----
 72
   65
 73
   10
 40
20.25
 49
6
 49
-1.5
 49
6
 49
-1.5
 49
0.25
 49
-1.5
 49
0.25
 49
-1.5
 49
0.25
 49
-1.5
  0
LTYPE
  2
undefined
 70
   64
  3
--------------------------------
 72
   65
 73
    0
 40
0
  0
LTYPE
  2
_
 70
   64
  3
                                
 72
   65
 73
    0
 40
0
  0
LTYPE
  2
__18
 70
   64
  3
                                
 72
   65
 73
    0
 40
0
  0
LTYPE
  2
__19
 70
   64
  3
                                
 72
   65
 73
    0
 40
0
  0
LTYPE
  2
__20
 70
   64
  3
                                
 72
   65
 73
    0
 40
0
  0
LTYPE
  2
__21
 70
   64
  3
                                
 72
   65
 73
    0
 40
0
  0
LTYPE
  2
__22
 70
   64
  3
                                
 72
   65
 73
    0
 40
0
  0
LTYPE
  2
__23
 70
   64
  3
                                
 72
   65
 73
    0
 40
0
  0
LTYPE
  2
__24
 70
   64
  3
                                
 72
   65
 73
    0
 40
0
  0
LTYPE
  2
__25
 70
   64
  3
                                
 72
   65
 73
    0
 40
0
  0
LTYPE
  2
__26
 70
   64
  3
                                
 72
   65
 73
    0
 40
0
  0
LTYPE
  2
__27
 70
   64
  3
                                
 72
   65
 73
    0
 40
0
  0
LTYPE
  2
__28
 70
   64
  3
                                
 72
   65
 73
    0
 40
0
  0
LTYPE
  2
__29
 70
   64
  3
                                
 72
   65
 73
    0
 40
0
  0
LTYPE
  2
__30
 70
   64
  3
                                
 72
   65
 73
    0
 40
0
  0
LTYPE
  2
__31
 70
   64
  3
                                
 72
   65
 73
    0
 40
0
  0
LTYPE
  2
__32
 70
   64
  3
                                
 72
   65
 73
    0
 40
0
  0
ENDTAB
  0
TABLE
  2
STYLE
  5
3
100
AcDbSymbolTable
 70
     1
  0
STYLE
  5
10
100
AcDbSymbolTableRecord
100
AcDbTextStyleTableRecord
  2
STANDARD
 70
     0
 40
0.0
 41
1.0
 50
0.0
 71
     0
 42
0.2
  3
txt
  4
bigfont.shx
  0
STYLE
  5
26
100
AcDbSymbolTableRecord
100
AcDbTextStyleTableRecord
  2
TATEGAKI
 70
    68
 40
0.0
 41
1.0
 50
0.0
 71
     0
 42
1.0
  3
txt
  4
bigfont.shx
  0
ENDTAB
  0
TABLE
  2
LAYER
 70
    2
  0
LAYER
  2
_0-0_
 70
   64
 62
    7
  6
CONTINUOUS
  0
LAYER
  2
ADD_LINE
 70
   64
 62
    7
  6
CONTINUOUS
  0
ENDTAB
  0
ENDSEC
  0
SECTION
  2
BLOCKS
  0
BLOCK
  2
-000-1
 70
   64
 10
0
 20
0
 30
0
  0
LINE
  8
_0-0_
  6
CONTINUOUS
 62
    7
 10
-14.004491263662285
 20
10.903113584393079
 11
0.6314127010176982
 21
16.738948709550286
  0
LINE
  8
_0-0_
  6
CONTINUOUS
 62
    7
 10
0.6314127010176982
 20
16.738948709550286
 11
1.8356326474787101
 21
17.016845620272058
  0
LINE
  8
_0-0_
  6
CONTINUOUS
 62
    7
 10
1.8356326474787101
 20
17.016845620272058
 11
3.3177495046614931
 21
16.785264861337247
  0
LINE
  8
_0-0_
  6
CONTINUOUS
 62
    7
 10
3.3177495046614931
 20
16.785264861337247
 11
14.109412871023629
 21
13.21892117374118
  0
LINE
  8
_0-0_
  6
CONTINUOUS
 62
    7
 10
14.109412871023629
 20
13.21892117374118
 11
14.109412871023629
 21
13.867347298758645
  0
LINE
  8
_0-0_
  6
CONTINUOUS
 62
    7
 10
14.109412871023629
 20
13.867347298758645
 11
14.016780567449707
 21
14.145244209480417
  0
LINE
  8
_0-0_
  6
CONTINUOUS
 62
    7
 10
14.479942085319326
 20
-9.7538901125919573
 11
14.526258237106287
 21
-8.7349347732787948
  0
LINE
  8
_0-0_
  6
CONTINUOUS
 62
    7
 10
14.526258237106287
 20
-8.7349347732787948
 11
4.4756532993355416
 21
-8.7349347732787948
  0
LINE
  8
_0-0_
  6
CONTINUOUS
 62
    7
 10
4.4756532993355416
 20
-8.7349347732787948
 11
2.7619556832179493
 21
-8.7812509250657556
  0
LINE
  8
_0-0_
  6
CONTINUOUS
 62
    7
 10
2.7619556832179493
 20
-8.7812509250657556
 11
1.2798388260351672
 21
-8.6423024697048696
  0
LINE
  8
_0-0_
  6
CONTINUOUS
 62
    7
 10
1.2798388260351672
 20
-8.6423024697048696
 11
-13.958175111875317
 21
-8.9201993804266415
  0
LINE
  8
_0-0_
  6
CONTINUOUS
 62
    7
 10
-13.958175111875317
 20
-8.9201993804266415
 11
-14.004491263662285
 21
10.903113584393079
  0
LINE
  8
_0-0_
  6
CONTINUOUS
 62
    7
 10
2.3451103171352914
 20
15.90525797738497
 11
2.5303749242831381
 21
-7.6696632821786688
  0
LINE
  8
_0-0_
  6
CONTINUOUS
 62
    7
 10
-2.5644017722826753
 20
15.442096459515351
 11
-2.2401887097739461
 21
15.766309522024088
  0
LINE
  8
_0-0_
  6
CONTINUOUS
 62
    7
 10
-2.2401887097739461
 20
15.766309522024088
 11
10.682017638788441
 21
20.814770066802936
  0
LINE
  8
_0-0_
  6
CONTINUOUS
 62
    7
 10
10.682017638788441
 20
20.814770066802936
 11
12.117818344184265
 21
21.046350825737747
  0
LINE
  8
_0-0_
  6
CONTINUOUS
 62
    7
 10
12.117818344184265
 20
21.046350825737747
 11
13.136773683497431
 21
21.046350825737747
  0
LINE
  8
_0-0_
  6
CONTINUOUS
 62
    7
 10
13.136773683497431
 20
21.046350825737747
 11
13.553619049580089
 21
20.953718522163825
  0
LINE
  8
_0-0_
  6
CONTINUOUS
 62
    7
 10
13.553619049580089
 20
20.953718522163825
 11
26.568457701716397
 21
15.442096459515351
  0
LINE
  8
_0-0_
  6
CONTINUOUS
 62
    7
 10
26.568457701716397
 20
15.442096459515351
 11
26.753722308864248
 21
15.164199548793579
  0
LINE
  8
_0-0_
  6
CONTINUOUS
 62
    7
 10
26.753722308864248
 20
15.164199548793579
 11
27.07793537137298
 21
-28.78982849703333
  0
LINE
  8
_0-0_
  6
CONTINUOUS
 62
    7
 10
27.07793537137298
 20
-28.78982849703333
 11
13.368354442432238
 21
-33.74565673823826
  0
LINE
  8
_0-0_
  6
CONTINUOUS
 62
    7
 10
13.368354442432238
 20
-33.74565673823826
 11
12.580979862053887
 21
-33.884605193599143
  0
LINE
  8
_0-0_
  6
CONTINUOUS
 62
    7
 10
12.580979862053887
 20
-33.884605193599143
 11
11.839921433462495
 21
-33.791972890025221
  0
LINE
  8
_0-0_
  6
CONTINUOUS
 62
    7
 10
11.839921433462495
 20
-33.791972890025221
 11
11.145179156658065
 21
-33.653024434664339
  0
LINE
  8
_0-0_
  6
CONTINUOUS
 62
    7
 10
11.145179156658065
 20
-33.653024434664339
 11
-2.2401887097739461
 21
-29.345622318476874
  0
LINE
  8
_0-0_
  6
CONTINUOUS
 62
    7
 10
-2.2401887097739461
 20
-29.345622318476874
 11
-2.4254533169217929
 21
-28.836144648820291
  0
LINE
  8
_0-0_
  6
CONTINUOUS
 62
    7
 10
-2.4254533169217929
 20
-28.836144648820291
 11
-2.3791371651348285
 21
-8.6423024697048731
  0
LINE
  8
_0-0_
  6
CONTINUOUS
 62
    7
 10
12.951509076349581
 20
-9.6149416572310749
 11
12.951509076349581
 21
-32.819333702499023
  0
LINE
  8
_0-0_
  6
CONTINUOUS
 62
    7
 10
14.757838996041098
 20
13.635766539823834
 11
21.38104870157666
 21
11.50522355762358
  0
LINE
  8
_0-0_
  6
CONTINUOUS
 62
    7
 10
21.566313308724506
 20
10.810481280819154
 11
21.705261764085392
 21
-8.3180894071961387
  0
LINE
  8
_0-0_
  6
CONTINUOUS
 62
    7
 10
21.195784094428813
 20
-8.7349347732787965
 11
14.850471299615023
 21
-8.8275670768527199
  0
LINE
  8
_0-0_
  6
CONTINUOUS
 62
    7
 10
12.627296013840848
 20
20.629505459655093
 11
12.812560620988698
 21
14.237876513054339
  0
LINE
  8
_0-0_
  6
CONTINUOUS
 62
    7
 10
-12.981405821642003
 20
2.0882943780591674
 11
-12.884545079582221
 21
2.669458830417863
  0
LINE
  8
_0-0_
  6
CONTINUOUS
 62
    7
 10
-12.884545079582221
 20
2.669458830417863
 11
-12.613335001814828
 21
3.037529650245034
  0
LINE
  8
_0-0_
  6
CONTINUOUS
 62
    7
 10
-12.613335001814828
 20
3.037529650245034
 11
-12.342124924047436
 21
3.1343903923048195
  0
LINE
  8
_0-0_
  6
CONTINUOUS
 62
    7
 10
-12.342124924047436
 20
3.1343903923048195
 11
-11.954681955808308
 21
2.940668908185252
  0
LINE
  8
_0-0_
  6
CONTINUOUS
 62
    7
 10
-11.954681955808308
 20
2.940668908185252
 11
-11.702844026452876
 21
2.5532259399461239
  0
LINE
  8
_0-0_
  6
CONTINUOUS
 62
    7
 10
-11.702844026452876
 20
2.5532259399461239
 11
-11.528494690745266
 21
1.9333171907635176
  0
LINE
  8
_0-0_
  6
CONTINUOUS
 62
    7
 10
-11.528494690745266
 20
1.9333171907635176
 11
-11.56723898756918
 21
1.1778034026972142
  0
LINE
  8
_0-0_
  6
CONTINUOUS
 62
    7
 10
-11.56723898756918
 20
1.1778034026972142
 11
-11.683471878040919
 21
0.6934996923983005
  0
LINE
  8
_0-0_
  6
CONTINUOUS
 62
    7
 10
-11.683471878040919
 20
0.6934996923983005
 11
-11.915937658984394
 21
0.2866845757472154
  0
LINE
  8
_0-0_
  6
CONTINUOUS
 62
    7
 10
-11.915937658984394
 20
0.2866845757472154
 11
-12.187147736751786
 21
-0.0232697988440895
  0
LINE
  8
_0-0_
  6
CONTINUOUS
 62
    7
 10
-12.187147736751786
 20
-0.0232697988440895
 11
-12.438985666107218
 21
-0.0620140956680019
  0
LINE
  8
_0-0_
  6
CONTINUOUS
 62
    7
 10
-12.438985666107218
 20
-0.0620140956680019
 11
-12.71019574387461
 21
0.0929630916276495
  0
LINE
  8
_0-0_
  6
CONTINUOUS
 62
    7
 10
-12.71019574387461
 20
0.0929630916276495
 11
-12.865172931170264
 21
0.3254288725711278
  0
LINE
  8
_0-0_
  6
CONTINUOUS
 62
    7
 10
-12.865172931170264
 20
0.3254288725711278
 11
-12.981405821642003
 21
0.8678490281059092
  0
LINE
  8
_0-0_
  6
CONTINUOUS
 62
    7
 10
-12.981405821642003
 20
0.8678490281059092
 11
-13.039522266877871
 21
1.4877577772885173
  0
LINE
  8
_0-0_
  6
CONTINUOUS
 62
    7
 10
-13.039522266877871
 20
1.4877577772885173
 11
-13.078266563701785
 21
1.9139450423515605
  0
LINE
  8
_0-0_
  6
CONTINUOUS
 62
    7
 10
-13.078266563701785
 20
1.9139450423515605
 11
-12.981405821642003
 21
2.0882943780591674
  0
LINE
  8
_0-0_
  6
CONTINUOUS
 62
    7
 10
-11.799704768512658
 20
2.6307145335939488
 11
-12.148403439927872
 21
2.5919702367700381
  0
LINE
  8
_0-0_
  6
CONTINUOUS
 62
    7
 10
-12.148403439927872
 20
2.5919702367700381
 11
-12.303380627223525
 21
2.3595044558265599
  0
LINE
  8
_0-0_
  6
CONTINUOUS
 62
    7
 10
-12.303380627223525
 20
2.3595044558265599
 11
-12.438985666107218
 21
1.9333171907635176
  0
LINE
  8
_0-0_
  6
CONTINUOUS
 62
    7
 10
-12.438985666107218
 20
1.9333171907635176
 11
-12.438985666107218
 21
1.565246370936344
  0
LINE
  8
_0-0_
  6
CONTINUOUS
 62
    7
 10
-12.438985666107218
 20
1.565246370936344
 11
-12.38086922087135
 21
1.0421983638135179
  0
LINE
  8
_0-0_
  6
CONTINUOUS
 62
    7
 10
-12.38086922087135
 20
1.0421983638135179
 11
-12.187147736751786
 21
0.6160110987504756
  0
LINE
  8
_0-0_
  6
CONTINUOUS
 62
    7
 10
-12.187147736751786
 20
0.6160110987504756
 11
-12.032170549456136
 21
0.3060567241591707
  0
LINE
  8
_0-0_
  6
CONTINUOUS
 62
    7
 10
-12.032170549456136
 20
0.3060567241591707
 11
-12.012798401044179
 21
0.2091959820993887
  0
LINE
  8
_0-0_
  6
CONTINUOUS
 62
    7
 10
-2.4923560639881579
 20
4.1407735023059544
 11
-2.3664370993104384
 21
4.896287290372257
  0
LINE
  8
_0-0_
  6
CONTINUOUS
 62
    7
 10
-2.3664370993104384
 20
4.896287290372257
 11
-2.0138639982128304
 21
5.374779356147581
  0
LINE
  8
_0-0_
  6
CONTINUOUS
 62
    7
 10
-2.0138639982128304
 20
5.374779356147581
 11
-1.6612908971152187
 21
5.5006983208253004
  0
LINE
  8
_0-0_
  6
CONTINUOUS
 62
    7
 10
-1.6612908971152187
 20
5.5006983208253004
 11
-1.1576150384043515
 21
5.248860391469865
  0
LINE
  8
_0-0_
  6
CONTINUOUS
 62
    7
 10
-1.1576150384043515
 20
5.248860391469865
 11
-0.8302257302422901
 21
4.7451845327589979
  0
LINE
  8
_0-0_
  6
CONTINUOUS
 62
    7
 10
-0.8302257302422901
 20
4.7451845327589979
 11
-0.603571593822398
 21
3.939303158821609
  0
LINE
  8
_0-0_
  6
CONTINUOUS
 62
    7
 10
-0.603571593822398
 20
3.939303158821609
 11
-0.6539391796934879
 21
2.9571352343354143
  0
LINE
  8
_0-0_
  6
CONTINUOUS
 62
    7
 10
-0.6539391796934879
 20
2.9571352343354143
 11
-0.805041937306747
 21
2.3275404109468241
  0
LINE
  8
_0-0_
  6
CONTINUOUS
 62
    7
 10
-0.805041937306747
 20
2.3275404109468241
 11
-1.1072474525332652
 21
1.7986807593004173
  0
LINE
  8
_0-0_
  6
CONTINUOUS
 62
    7
 10
-1.1072474525332652
 20
1.7986807593004173
 11
-1.4598205536308733
 21
1.3957400723317201
  0
LINE
  8
_0-0_
  6
CONTINUOUS
 62
    7
 10
-1.4598205536308733
 20
1.3957400723317201
 11
-1.7872098617929346
 21
1.3453724864606338
  0
LINE
  8
_0-0_
  6
CONTINUOUS
 62
    7
 10
-1.7872098617929346
 20
1.3453724864606338
 11
-2.1397829628905463
 21
1.546842829944981
  0
LINE
  8
_0-0_
  6
CONTINUOUS
 62
    7
 10
-2.1397829628905463
 20
1.546842829944981
 11
-2.3412533063748953
 21
1.8490483451715036
  0
LINE
  8
_0-0_
  6
CONTINUOUS
 62
    7
 10
-2.3412533063748953
 20
1.8490483451715036
 11
-2.4923560639881579
 21
2.5541945473667198
  0
LINE
  8
_0-0_
  6
CONTINUOUS
 62
    7
 10
-2.4923560639881579
 20
2.5541945473667198
 11
-2.5679074427947839
 21
3.3600759213041087
  0
LINE
  8
_0-0_
  6
CONTINUOUS
 62
    7
 10
-2.5679074427947839
 20
3.3600759213041087
 11
-2.6182750286658738
 21
3.9141193658860622
  0
LINE
  8
_0-0_
  6
CONTINUOUS
 62
    7
 10
-2.6182750286658738
 20
3.9141193658860622
 11
-2.4923560639881579
 21
4.1407735023059544
  0
LINE
  8
_0-0_
  6
CONTINUOUS
 62
    7
 10
-0.9561446949200096
 20
4.8459197045011706
 11
-1.4094529677597869
 21
4.7955521186300878
  0
LINE
  8
_0-0_
  6
CONTINUOUS
 62
    7
 10
-1.4094529677597869
 20
4.7955521186300878
 11
-1.6109233112441359
 21
4.4933466034035661
  0
LINE
  8
_0-0_
  6
CONTINUOUS
 62
    7
 10
-1.6109233112441359
 20
4.4933466034035661
 11
-1.7872098617929346
 21
3.939303158821609
  0
LINE
  8
_0-0_
  6
CONTINUOUS
 62
    7
 10
-1.7872098617929346
 20
3.939303158821609
 11
-1.7872098617929346
 21
3.4608110930462814
  0
LINE
  8
_0-0_
  6
CONTINUOUS
 62
    7
 10
-1.7872098617929346
 20
3.4608110930462814
 11
-1.7116584829863086
 21
2.7808486837866084
  0
LINE
  8
_0-0_
  6
CONTINUOUS
 62
    7
 10
-1.7116584829863086
 20
2.7808486837866084
 11
-1.4598205536308733
 21
2.2268052392046549
  0
LINE
  8
_0-0_
  6
CONTINUOUS
 62
    7
 10
-1.4598205536308733
 20
2.2268052392046549
 11
-1.2583502101465314
 21
1.8238645522359569
  0
LINE
  8
_0-0_
  6
CONTINUOUS
 62
    7
 10
-1.2583502101465314
 20
1.8238645522359569
 11
-1.2331664172109846
 21
1.697945587558241
  0
LINE
  8
_0-0_
  6
CONTINUOUS
 62
    7
 10
4.0404608987976536
 20
-15.592255040131171
 11
4.0404608987976536
 21
-15.592255040131171
  0
LINE
  8
_0-0_
  6
CONTINUOUS
 62
    7
 10
4.0404608987976536
 20
-15.592255040131171
 11
3.9432179193041725
 21
-15.602889613022624
  0
LINE
  8
_0-0_
  6
CONTINUOUS
 62
    7
 10
3.9432179193041725
 20
-15.602889613022624
 11
3.848929618535279
 21
-15.634470205581035
  0
LINE
  8
_0-0_
  6
CONTINUOUS
 62
    7
 10
3.848929618535279
 20
-15.634470205581035
 11
3.7604608987976538
 21
-15.686037257482063
  0
LINE
  8
_0-0_
  6
CONTINUOUS
 62
    7
 10
3.7604608987976538
 20
-15.686037257482063
 11
3.6804998373731914
 21
-15.756023929947887
  0
LINE
  8
_0-0_
  6
CONTINUOUS
 62
    7
 10
3.6804998373731914
 20
-15.756023929947887
 11
3.611476010651026
 21
-15.842303713350592
  0
LINE
  8
_0-0_
  6
CONTINUOUS
 62
    7
 10
3.611476010651026
 20
-15.842303713350592
 11
3.5554866726783678
 21
-15.942255040131171
  0
LINE
  8
_0-0_
  6
CONTINUOUS
 62
    7
 10
3.5554866726783678
 20
-15.942255040131171
 11
3.5142330311575449
 21
-16.0528409398032
  0
LINE
  8
_0-0_
  6
CONTINUOUS
 62
    7
 10
3.5142330311575449
 20
-16.0528409398032
 11
3.4889685571108169
 21
-16.170701315764319
  0
LINE
  8
_0-0_
  6
CONTINUOUS
 62
    7
 10
3.4889685571108169
 20
-16.170701315764319
 11
3.4804608987976535
 21
-16.29225504013117
  0
LINE
  8
_0-0_
  6
CONTINUOUS
 62
    7
 10
3.4804608987976535
 20
-16.29225504013117
 11
3.4889685571108169
 21
-16.413808764498022
  0
LINE
  8
_0-0_
  6
CONTINUOUS
 62
    7
 10
3.4889685571108169
 20
-16.413808764498022
 11
3.5142330311575449
 21
-16.531669140459137
  0
LINE
  8
_0-0_
  6
CONTINUOUS
 62
    7
 10
3.5142330311575449
 20
-16.531669140459137
 11
3.5554866726783678
 21
-16.642255040131172
  0
LINE
  8
_0-0_
  6
CONTINUOUS
 62
    7
 10
3.5554866726783678
 20
-16.642255040131172
 11
3.6114760106510255
 21
-16.742206366911748
  0
LINE
  8
_0-0_
  6
CONTINUOUS
 62
    7
 10
3.6114760106510255
 20
-16.742206366911748
 11
3.6804998373731914
 21
-16.828486150314454
  0
LINE
  8
_0-0_
  6
CONTINUOUS
 62
    7
 10
3.6804998373731914
 20
-16.828486150314454
 11
3.7604608987976529
 21
-16.898472822780278
  0
LINE
  8
_0-0_
  6
CONTINUOUS
 62
    7
 10
3.7604608987976529
 20
-16.898472822780278
 11
3.8489296185352786
 21
-16.950039874681305
  0
LINE
  8
_0-0_
  6
CONTINUOUS
 62
    7
 10
3.8489296185352786
 20
-16.950039874681305
 11
3.9432179193041716
 21
-16.981620467239715
  0
LINE
  8
_0-0_
  6
CONTINUOUS
 62
    7
 10
3.9432179193041716
 20
-16.981620467239715
 11
4.0404608987976527
 21
-16.99225504013117
  0
LINE
  8
_0-0_
  6
CONTINUOUS
 62
    7
 10
4.0404608987976527
 20
-16.99225504013117
 11
4.1377038782911333
 21
-16.981620467239715
  0
LINE
  8
_0-0_
  6
CONTINUOUS
 62
    7
 10
4.1377038782911333
 20
-16.981620467239715
 11
4.2319921790600272
 21
-16.950039874681305
  0
LINE
  8
_0-0_
  6
CONTINUOUS
 62
    7
 10
4.2319921790600272
 20
-16.950039874681305
 11
4.3204608987976529
 21
-16.898472822780278
  0
LINE
  8
_0-0_
  6
CONTINUOUS
 62
    7
 10
4.3204608987976529
 20
-16.898472822780278
 11
4.4004219602221148
 21
-16.828486150314458
  0
LINE
  8
_0-0_
  6
CONTINUOUS
 62
    7
 10
4.4004219602221148
 20
-16.828486150314458
 11
4.4694457869442807
 21
-16.742206366911748
  0
LINE
  8
_0-0_
  6
CONTINUOUS
 62
    7
 10
4.4694457869442807
 20
-16.742206366911748
 11
4.5254351249169389
 21
-16.642255040131172
  0
LINE
  8
_0-0_
  6
CONTINUOUS
 62
    7
 10
4.5254351249169389
 20
-16.642255040131172
 11
4.5666887664377622
 21
-16.53166914045914
  0
LINE
  8
_0-0_
  6
CONTINUOUS
 62
    7
 10
4.5666887664377622
 20
-16.53166914045914
 11
4.5919532404844894
 21
-16.413808764498022
  0
LINE
  8
_0-0_
  6
CONTINUOUS
 62
    7
 10
4.5919532404844894
 20
-16.413808764498022
 11
4.6004608987976532
 21
-16.292255040131174
  0
LINE
  8
_0-0_
  6
CONTINUOUS
 62
    7
 10
4.6004608987976532
 20
-16.292255040131174
 11
4.5919532404844903
 21
-16.170701315764322
  0
LINE
  8
_0-0_
  6
CONTINUOUS
 62
    7
 10
4.5919532404844903
 20
-16.170701315764322
 11
4.5666887664377631
 21
-16.052840939803204
  0
LINE
  8
_0-0_
  6
CONTINUOUS
 62
    7
 10
4.5666887664377631
 20
-16.052840939803204
 11
4.5254351249169407
 21
-15.942255040131172
  0
LINE
  8
_0-0_
  6
CONTINUOUS
 62
    7
 10
4.5254351249169407
 20
-15.942255040131172
 11
4.4694457869442825
 21
-15.842303713350594
  0
LINE
  8
_0-0_
  6
CONTINUOUS
 62
    7
 10
4.4694457869442825
 20
-15.842303713350594
 11
4.4004219602221175
 21
-15.756023929947887
  0
LINE
  8
_0-0_
  6
CONTINUOUS
 62
    7
 10
4.4004219602221175
 20
-15.756023929947887
 11
4.3204608987976556
 21
-15.686037257482065
  0
LINE
  8
_0-0_
  6
CONTINUOUS
 62
    7
 10
4.3204608987976556
 20
-15.686037257482065
 11
4.2319921790600308
 21
-15.634470205581035
  0
LINE
  8
_0-0_
  6
CONTINUOUS
 62
    7
 10
4.2319921790600308
 20
-15.634470205581035
 11
4.1377038782911368
 21
-15.602889613022626
  0
LINE
  8
_0-0_
  6
CONTINUOUS
 62
    7
 10
4.1377038782911368
 20
-15.602889613022626
 11
4.0404608987976562
 21
-15.592255040131171
  0
LINE
  8
_0-0_
  6
CONTINUOUS
 62
    7
 10
4.0404608987976562
 20
-15.592255040131171
 11
4.0404608987976536
 21
-15.592255040131171
  0
LINE
  8
_0-0_
  6
CONTINUOUS
 62
    7
 10
4.0021279002415104
 20
-25.654667161118763
 11
4.0021279002415104
 21
-25.654667161118763
  0
LINE
  8
_0-0_
  6
CONTINUOUS
 62
    7
 10
4.0021279002415104
 20
-25.654667161118763
 11
3.9048849207480294
 21
-25.665301734010217
  0
LINE
  8
_0-0_
  6
CONTINUOUS
 62
    7
 10
3.9048849207480294
 20
-25.665301734010217
 11
3.8105966199791359
 21
-25.696882326568627
  0
LINE
  8
_0-0_
  6
CONTINUOUS
 62
    7
 10
3.8105966199791359
 20
-25.696882326568627
 11
3.7221279002415106
 21
-25.748449378469655
  0
LINE
  8
_0-0_
  6
CONTINUOUS
 62
    7
 10
3.7221279002415106
 20
-25.748449378469655
 11
3.6421668388170483
 21
-25.818436050935478
  0
LINE
  8
_0-0_
  6
CONTINUOUS
 62
    7
 10
3.6421668388170483
 20
-25.818436050935478
 11
3.5731430120948828
 21
-25.904715834338184
  0
LINE
  8
_0-0_
  6
CONTINUOUS
 62
    7
 10
3.5731430120948828
 20
-25.904715834338184
 11
3.5171536741222247
 21
-26.004667161118761
  0
LINE
  8
_0-0_
  6
CONTINUOUS
 62
    7
 10
3.5171536741222247
 20
-26.004667161118761
 11
3.4759000326014018
 21
-26.115253060790792
  0
LINE
  8
_0-0_
  6
CONTINUOUS
 62
    7
 10
3.4759000326014018
 20
-26.115253060790792
 11
3.4506355585546737
 21
-26.233113436751911
  0
LINE
  8
_0-0_
  6
CONTINUOUS
 62
    7
 10
3.4506355585546737
 20
-26.233113436751911
 11
3.4421279002415104
 21
-26.354667161118762
  0
LINE
  8
_0-0_
  6
CONTINUOUS
 62
    7
 10
3.4421279002415104
 20
-26.354667161118762
 11
3.4506355585546737
 21
-26.476220885485613
  0
LINE
  8
_0-0_
  6
CONTINUOUS
 62
    7
 10
3.4506355585546737
 20
-26.476220885485613
 11
3.4759000326014018
 21
-26.594081261446728
  0
LINE
  8
_0-0_
  6
CONTINUOUS
 62
    7
 10
3.4759000326014018
 20
-26.594081261446728
 11
3.5171536741222247
 21
-26.704667161118763
  0
LINE
  8
_0-0_
  6
CONTINUOUS
 62
    7
 10
3.5171536741222247
 20
-26.704667161118763
 11
3.5731430120948824
 21
-26.80461848789934
  0
LINE
  8
_0-0_
  6
CONTINUOUS
 62
    7
 10
3.5731430120948824
 20
-26.80461848789934
 11
3.6421668388170483
 21
-26.890898271302046
  0
LINE
  8
_0-0_
  6
CONTINUOUS
 62
    7
 10
3.6421668388170483
 20
-26.890898271302046
 11
3.7221279002415097
 21
-26.960884943767869
  0
LINE
  8
_0-0_
  6
CONTINUOUS
 62
    7
 10
3.7221279002415097
 20
-26.960884943767869
 11
3.8105966199791355
 21
-27.012451995668897
  0
LINE
  8
_0-0_
  6
CONTINUOUS
 62
    7
 10
3.8105966199791355
 20
-27.012451995668897
 11
3.9048849207480285
 21
-27.044032588227306
  0
LINE
  8
_0-0_
  6
CONTINUOUS
 62
    7
 10
3.9048849207480285
 20
-27.044032588227306
 11
4.0021279002415096
 21
-27.054667161118761
  0
LINE
  8
_0-0_
  6
CONTINUOUS
 62
    7
 10
4.0021279002415096
 20
-27.054667161118761
 11
4.0993708797349901
 21
-27.044032588227306
  0
LINE
  8
_0-0_
  6
CONTINUOUS
 62
    7
 10
4.0993708797349901
 20
-27.044032588227306
 11
4.1936591805038841
 21
-27.012451995668897
  0
LINE
  8
_0-0_
  6
CONTINUOUS
 62
    7
 10
4.1936591805038841
 20
-27.012451995668897
 11
4.2821279002415098
 21
-26.960884943767869
  0
LINE
  8
_0-0_
  6
CONTINUOUS
 62
    7
 10
4.2821279002415098
 20
-26.960884943767869
 11
4.3620889616659717
 21
-26.890898271302049
  0
LINE
  8
_0-0_
  6
CONTINUOUS
 62
    7
 10
4.3620889616659717
 20
-26.890898271302049
 11
4.4311127883881376
 21
-26.80461848789934
  0
LINE
  8
_0-0_
  6
CONTINUOUS
 62
    7
 10
4.4311127883881376
 20
-26.80461848789934
 11
4.4871021263607958
 21
-26.704667161118763
  0
LINE
  8
_0-0_
  6
CONTINUOUS
 62
    7
 10
4.4871021263607958
 20
-26.704667161118763
 11
4.5283557678816191
 21
-26.594081261446732
  0
LINE
  8
_0-0_
  6
CONTINUOUS
 62
    7
 10
4.5283557678816191
 20
-26.594081261446732
 11
4.5536202419283462
 21
-26.476220885485613
  0
LINE
  8
_0-0_
  6
CONTINUOUS
 62
    7
 10
4.5536202419283462
 20
-26.476220885485613
 11
4.56212790024151
 21
-26.354667161118766
  0
LINE
  8
_0-0_
  6
CONTINUOUS
 62
    7
 10
4.56212790024151
 20
-26.354667161118766
 11
4.5536202419283471
 21
-26.233113436751914
  0
LINE
  8
_0-0_
  6
CONTINUOUS
 62
    7
 10
4.5536202419283471
 20
-26.233113436751914
 11
4.52835576788162
 21
-26.115253060790796
  0
LINE
  8
_0-0_
  6
CONTINUOUS
 62
    7
 10
4.52835576788162
 20
-26.115253060790796
 11
4.4871021263607975
 21
-26.004667161118764
  0
LINE
  8
_0-0_
  6
CONTINUOUS
 62
    7
 10
4.4871021263607975
 20
-26.004667161118764
 11
4.4311127883881394
 21
-25.904715834338187
  0
LINE
  8
_0-0_
  6
CONTINUOUS
 62
    7
 10
4.4311127883881394
 20
-25.904715834338187
 11
4.3620889616659744
 21
-25.818436050935478
  0
LINE
  8
_0-0_
  6
CONTINUOUS
 62
    7
 10
4.3620889616659744
 20
-25.818436050935478
 11
4.2821279002415125
 21
-25.748449378469655
  0
LINE
  8
_0-0_
  6
CONTINUOUS
 62
    7
 10
4.2821279002415125
 20
-25.748449378469655
 11
4.1936591805038876
 21
-25.696882326568627
  0
LINE
  8
_0-0_
  6
CONTINUOUS
 62
    7
 10
4.1936591805038876
 20
-25.696882326568627
 11
4.0993708797349937
 21
-25.665301734010217
  0
LINE
  8
_0-0_
  6
CONTINUOUS
 62
    7
 10
4.0993708797349937
 20
-25.665301734010217
 11
4.0021279002415131
 21
-25.654667161118763
  0
LINE
  8
_0-0_
  6
CONTINUOUS
 62
    7
 10
4.0021279002415131
 20
-25.654667161118763
 11
4.0021279002415104
 21
-25.654667161118763
  0
LINE
  8
_0-0_
  6
CONTINUOUS
 62
    7
 10
21.443642243286664
 20
-15.385591051682026
 11
21.443642243286664
 21
-15.385591051682026
  0
LINE
  8
_0-0_
  6
CONTINUOUS
 62
    7
 10
21.443642243286664
 20
-15.385591051682026
 11
21.360291118006536
 21
-15.3947063998747
  0
LINE
  8
_0-0_
  6
CONTINUOUS
 62
    7
 10
21.360291118006536
 20
-15.3947063998747
 11
21.279472574490342
 21
-15.42177547921048
  0
LINE
  8
_0-0_
  6
CONTINUOUS
 62
    7
 10
21.279472574490342
 20
-15.42177547921048
 11
21.203642243286666
 21
-15.465975809411361
  0
LINE
  8
_0-0_
  6
CONTINUOUS
 62
    7
 10
21.203642243286666
 20
-15.465975809411361
 11
21.135104190637126
 21
-15.525964385810639
  0
LINE
  8
_0-0_
  6
CONTINUOUS
 62
    7
 10
21.135104190637126
 20
-15.525964385810639
 11
21.075940910589555
 21
-15.599918485870102
  0
LINE
  8
_0-0_
  6
CONTINUOUS
 62
    7
 10
21.075940910589555
 20
-15.599918485870102
 11
21.027950049470135
 21
-15.685591051682024
  0
LINE
  8
_0-0_
  6
CONTINUOUS
 62
    7
 10
21.027950049470135
 20
-15.685591051682024
 11
20.992589785309427
 21
-15.780378965686625
  0
LINE
  8
_0-0_
  6
CONTINUOUS
 62
    7
 10
20.992589785309427
 20
-15.780378965686625
 11
20.970934521840803
 21
-15.881402145081866
  0
LINE
  8
_0-0_
  6
CONTINUOUS
 62
    7
 10
20.970934521840803
 20
-15.881402145081866
 11
20.963642243286664
 21
-15.985591051682025
  0
LINE
  8
_0-0_
  6
CONTINUOUS
 62
    7
 10
20.963642243286664
 20
-15.985591051682025
 11
20.970934521840803
 21
-16.089779958282183
  0
LINE
  8
_0-0_
  6
CONTINUOUS
 62
    7
 10
20.970934521840803
 20
-16.089779958282183
 11
20.992589785309427
 21
-16.190803137677428
  0
LINE
  8
_0-0_
  6
CONTINUOUS
 62
    7
 10
20.992589785309427
 20
-16.190803137677428
 11
21.027950049470135
 21
-16.285591051682026
  0
LINE
  8
_0-0_
  6
CONTINUOUS
 62
    7
 10
21.027950049470135
 20
-16.285591051682026
 11
21.075940910589555
 21
-16.371263617493948
  0
LINE
  8
_0-0_
  6
CONTINUOUS
 62
    7
 10
21.075940910589555
 20
-16.371263617493948
 11
21.135104190637126
 21
-16.445217717553412
  0
LINE
  8
_0-0_
  6
CONTINUOUS
 62
    7
 10
21.135104190637126
 20
-16.445217717553412
 11
21.203642243286662
 21
-16.505206293952689
  0
LINE
  8
_0-0_
  6
CONTINUOUS
 62
    7
 10
21.203642243286662
 20
-16.505206293952689
 11
21.279472574490342
 21
-16.549406624153569
  0
LINE
  8
_0-0_
  6
CONTINUOUS
 62
    7
 10
21.279472574490342
 20
-16.549406624153569
 11
21.360291118006536
 21
-16.576475703489351
  0
LINE
  8
_0-0_
  6
CONTINUOUS
 62
    7
 10
21.360291118006536
 20
-16.576475703489351
 11
21.443642243286664
 21
-16.585591051682027
  0
LINE
  8
_0-0_
  6
CONTINUOUS
 62
    7
 10
21.443642243286664
 20
-16.585591051682027
 11
21.526993368566789
 21
-16.576475703489351
  0
LINE
  8
_0-0_
  6
CONTINUOUS
 62
    7
 10
21.526993368566789
 20
-16.576475703489351
 11
21.607811912082983
 21
-16.549406624153569
  0
LINE
  8
_0-0_
  6
CONTINUOUS
 62
    7
 10
21.607811912082983
 20
-16.549406624153569
 11
21.683642243286663
 21
-16.505206293952689
  0
LINE
  8
_0-0_
  6
CONTINUOUS
 62
    7
 10
21.683642243286663
 20
-16.505206293952689
 11
21.752180295936203
 21
-16.445217717553412
  0
LINE
  8
_0-0_
  6
CONTINUOUS
 62
    7
 10
21.752180295936203
 20
-16.445217717553412
 11
21.811343575983773
 21
-16.371263617493948
  0
LINE
  8
_0-0_
  6
CONTINUOUS
 62
    7
 10
21.811343575983773
 20
-16.371263617493948
 11
21.859334437103193
 21
-16.285591051682026
  0
LINE
  8
_0-0_
  6
CONTINUOUS
 62
    7
 10
21.859334437103193
 20
-16.285591051682026
 11
21.894694701263901
 21
-16.190803137677428
  0
LINE
  8
_0-0_
  6
CONTINUOUS
 62
    7
 10
21.894694701263901
 20
-16.190803137677428
 11
21.916349964732525
 21
-16.089779958282186
  0
LINE
  8
_0-0_
  6
CONTINUOUS
 62
    7
 10
21.916349964732525
 20
-16.089779958282186
 11
21.923642243286665
 21
-15.985591051682027
  0
LINE
  8
_0-0_
  6
CONTINUOUS
 62
    7
 10
21.923642243286665
 20
-15.985591051682027
 11
21.916349964732525
 21
-15.88140214508187
  0
LINE
  8
_0-0_
  6
CONTINUOUS
 62
    7
 10
21.916349964732525
 20
-15.88140214508187
 11
21.894694701263901
 21
-15.780378965686626
  0
LINE
  8
_0-0_
  6
CONTINUOUS
 62
    7
 10
21.894694701263901
 20
-15.780378965686626
 11
21.859334437103197
 21
-15.685591051682026
  0
LINE
  8
_0-0_
  6
CONTINUOUS
 62
    7
 10
21.859334437103197
 20
-15.685591051682026
 11
21.811343575983773
 21
-15.599918485870104
  0
LINE
  8
_0-0_
  6
CONTINUOUS
 62
    7
 10
21.811343575983773
 20
-15.599918485870104
 11
21.752180295936206
 21
-15.52596438581064
  0
LINE
  8
_0-0_
  6
CONTINUOUS
 62
    7
 10
21.752180295936206
 20
-15.52596438581064
 11
21.683642243286666
 21
-15.465975809411363
  0
LINE
  8
_0-0_
  6
CONTINUOUS
 62
    7
 10
21.683642243286666
 20
-15.465975809411363
 11
21.607811912082987
 21
-15.421775479210481
  0
LINE
  8
_0-0_
  6
CONTINUOUS
 62
    7
 10
21.607811912082987
 20
-15.421775479210481
 11
21.526993368566792
 21
-15.394706399874702
  0
LINE
  8
_0-0_
  6
CONTINUOUS
 62
    7
 10
21.526993368566792
 20
-15.394706399874702
 11
21.443642243286668
 21
-15.385591051682026
  0
LINE
  8
_0-0_
  6
CONTINUOUS
 62
    7
 10
21.443642243286668
 20
-15.385591051682026
 11
21.443642243286664
 21
-15.385591051682026
  0
LINE
  8
_0-0_
  6
CONTINUOUS
 62
    7
 10
21.424475744008593
 20
-25.275504679166971
 11
21.424475744008593
 21
-25.275504679166971
  0
LINE
  8
_0-0_
  6
CONTINUOUS
 62
    7
 10
21.424475744008593
 20
-25.275504679166971
 11
21.341124618728465
 21
-25.284620027359647
  0
LINE
  8
_0-0_
  6
CONTINUOUS
 62
    7
 10
21.341124618728465
 20
-25.284620027359647
 11
21.26030607521227
 21
-25.311689106695429
  0
LINE
  8
_0-0_
  6
CONTINUOUS
 62
    7
 10
21.26030607521227
 20
-25.311689106695429
 11
21.184475744008594
 21
-25.355889436896309
  0
LINE
  8
_0-0_
  6
CONTINUOUS
 62
    7
 10
21.184475744008594
 20
-25.355889436896309
 11
21.115937691359054
 21
-25.415878013295586
  0
LINE
  8
_0-0_
  6
CONTINUOUS
 62
    7
 10
21.115937691359054
 20
-25.415878013295586
 11
21.056774411311483
 21
-25.48983211335505
  0
LINE
  8
_0-0_
  6
CONTINUOUS
 62
    7
 10
21.056774411311483
 20
-25.48983211335505
 11
21.008783550192064
 21
-25.575504679166972
  0
LINE
  8
_0-0_
  6
CONTINUOUS
 62
    7
 10
21.008783550192064
 20
-25.575504679166972
 11
20.973423286031355
 21
-25.67029259317157
  0
LINE
  8
_0-0_
  6
CONTINUOUS
 62
    7
 10
20.973423286031355
 20
-25.67029259317157
 11
20.951768022562732
 21
-25.771315772566815
  0
LINE
  8
_0-0_
  6
CONTINUOUS
 62
    7
 10
20.951768022562732
 20
-25.771315772566815
 11
20.944475744008592
 21
-25.875504679166973
  0
LINE
  8
_0-0_
  6
CONTINUOUS
 62
    7
 10
20.944475744008592
 20
-25.875504679166973
 11
20.951768022562732
 21
-25.97969358576713
  0
LINE
  8
_0-0_
  6
CONTINUOUS
 62
    7
 10
20.951768022562732
 20
-25.97969358576713
 11
20.973423286031355
 21
-26.080716765162375
  0
LINE
  8
_0-0_
  6
CONTINUOUS
 62
    7
 10
20.973423286031355
 20
-26.080716765162375
 11
21.008783550192064
 21
-26.175504679166973
  0
LINE
  8
_0-0_
  6
CONTINUOUS
 62
    7
 10
21.008783550192064
 20
-26.175504679166973
 11
21.056774411311483
 21
-26.261177244978896
  0
LINE
  8
_0-0_
  6
CONTINUOUS
 62
    7
 10
21.056774411311483
 20
-26.261177244978896
 11
21.115937691359054
 21
-26.335131345038359
  0
LINE
  8
_0-0_
  6
CONTINUOUS
 62
    7
 10
21.115937691359054
 20
-26.335131345038359
 11
21.184475744008591
 21
-26.395119921437637
  0
LINE
  8
_0-0_
  6
CONTINUOUS
 62
    7
 10
21.184475744008591
 20
-26.395119921437637
 11
21.26030607521227
 21
-26.439320251638517
  0
LINE
  8
_0-0_
  6
CONTINUOUS
 62
    7
 10
21.26030607521227
 20
-26.439320251638517
 11
21.341124618728465
 21
-26.466389330974298
  0
LINE
  8
_0-0_
  6
CONTINUOUS
 62
    7
 10
21.341124618728465
 20
-26.466389330974298
 11
21.424475744008593
 21
-26.475504679166974
  0
LINE
  8
_0-0_
  6
CONTINUOUS
 62
    7
 10
21.424475744008593
 20
-26.475504679166974
 11
21.507826869288717
 21
-26.466389330974298
  0
LINE
  8
_0-0_
  6
CONTINUOUS
 62
    7
 10
21.507826869288717
 20
-26.466389330974298
 11
21.588645412804912
 21
-26.439320251638517
  0
LINE
  8
_0-0_
  6
CONTINUOUS
 62
    7
 10
21.588645412804912
 20
-26.439320251638517
 11
21.664475744008591
 21
-26.395119921437637
  0
LINE
  8
_0-0_
  6
CONTINUOUS
 62
    7
 10
21.664475744008591
 20
-26.395119921437637
 11
21.733013796658131
 21
-26.335131345038359
  0
LINE
  8
_0-0_
  6
CONTINUOUS
 62
    7
 10
21.733013796658131
 20
-26.335131345038359
 11
21.792177076705702
 21
-26.261177244978896
  0
LINE
  8
_0-0_
  6
CONTINUOUS
 62
    7
 10
21.792177076705702
 20
-26.261177244978896
 11
21.840167937825122
 21
-26.175504679166973
  0
LINE
  8
_0-0_
  6
CONTINUOUS
 62
    7
 10
21.840167937825122
 20
-26.175504679166973
 11
21.87552820198583
 21
-26.080716765162375
  0
LINE
  8
_0-0_
  6
CONTINUOUS
 62
    7
 10
21.87552820198583
 20
-26.080716765162375
 11
21.897183465454454
 21
-25.979693585767134
  0
LINE
  8
_0-0_
  6
CONTINUOUS
 62
    7
 10
21.897183465454454
 20
-25.979693585767134
 11
21.904475744008593
 21
-25.875504679166973
  0
LINE
  8
_0-0_
  6
CONTINUOUS
 62
    7
 10
21.904475744008593
 20
-25.875504679166973
 11
21.897183465454454
 21
-25.771315772566815
  0
LINE
  8
_0-0_
  6
CONTINUOUS
 62
    7
 10
21.897183465454454
 20
-25.771315772566815
 11
21.87552820198583
 21
-25.670292593171574
  0
LINE
  8
_0-0_
  6
CONTINUOUS
 62
    7
 10
21.87552820198583
 20
-25.670292593171574
 11
21.840167937825125
 21
-25.575504679166976
  0
LINE
  8
_0-0_
  6
CONTINUOUS
 62
    7
 10
21.840167937825125
 20
-25.575504679166976
 11
21.792177076705702
 21
-25.48983211335505
  0
LINE
  8
_0-0_
  6
CONTINUOUS
 62
    7
 10
21.792177076705702
 20
-25.48983211335505
 11
21.733013796658135
 21
-25.415878013295586
  0
LINE
  8
_0-0_
  6
CONTINUOUS
 62
    7
 10
21.733013796658135
 20
-25.415878013295586
 11
21.664475744008595
 21
-25.355889436896312
  0
LINE
  8
_0-0_
  6
CONTINUOUS
 62
    7
 10
21.664475744008595
 20
-25.355889436896312
 11
21.588645412804915
 21
-25.311689106695429
  0
LINE
  8
_0-0_
  6
CONTINUOUS
 62
    7
 10
21.588645412804915
 20
-25.311689106695429
 11
21.507826869288721
 21
-25.284620027359647
  0
LINE
  8
_0-0_
  6
CONTINUOUS
 62
    7
 10
21.507826869288721
 20
-25.284620027359647
 11
21.424475744008596
 21
-25.275504679166971
  0
LINE
  8
_0-0_
  6
CONTINUOUS
 62
    7
 10
21.424475744008596
 20
-25.275504679166971
 11
21.424475744008593
 21
-25.275504679166971
  0
ENDBLK
  0
ENDSEC
  0
SECTION
  2
ENTITIES
  0
INSERT
  2
-000-1
  8
_0-0_
 10
200.47619047619048
 20
154.92857142857142
 41
1
 42
1
 50
0
  0
ENDSEC
  0
EOF
