  0
SECTION
  2
HEADER
  9
$ACADVER
  1
AC1009
  9
$INSBASE
 10
0
 20
0
 30
0
  9
$EXTMIN
 10
0
 20
0
  9
$EXTMAX
 10
297
 20
210
  9
$LIMMIN
 10
0
 20
0
  9
$LIMMAX
 10
297
 20
210
  9
$LTSCALE
 40
1
  0
ENDSEC
  0
SECTION
  2
TABLES
  0
TABLE
  2
LTYPE
 70
     9
  0
LTYPE
  2
CONTINUOUS
 70
    64
  3
実線
 72
    65
 73
     0
 40
0.0
  0
LTYPE
  2
DASHED1
 70
    64
  3
--  --  --  --  --  --  --  --  
 72
    65
 73
     2
 40
2.5
 49
1.25
 49
-1.25
  0
LTYPE
  2
DASHED2
 70
    64
  3
----    ----    ----    ----    
 72
    65
 73
     2
 40
5.0
 49
2.5
 49
-2.5
  0
LTYPE
  2
DASHED3
 70
    64
  3
------  ------  ------  ------  
 72
    65
 73
     2
 40
5.0
 49
3.75
 49
-1.25
  0
LTYPE
  2
CENTER1
 70
    64
  3
----- - ----- - ----- - ----- - 
 72
    65
 73
     4
 40
10.0
 49
6.25
 49
-1.25
 49
1.25
 49
-1.25
  0
LTYPE
  2
CENTER2
 70
    64
  3
----------  --  ----------  --  
 72
    65
 73
     4
 40
20.0
 49
12.5
 49
-2.5
 49
2.5
 49
-2.5
  0
LTYPE
  2
PHANTOM1
 70
    64
  3
--- - - --- - - --- - - --- - - 
 72
    65
 73
     6
 40
10.0
 49
3.25
 49
-1.25
 49
1.25
 49
-1.25
 49
1.25
 49
-1.25
  0
LTYPE
  2
PHANTOM2
 70
    64
  3
--------  -  -  --------  -  -  
 72
    65
 73
     6
 40
20.0
 49
10.0
 49
-2.5
 49
1.25
 49
-2.5
 49
1.25
 49
-2.5
  0
LTYPE
  2
DOT
 70
    64
  3
-   -   -   -   -   -   -   -   
 72
    65
 73
     2
 40
2.5
 49
0.625
 49
-1.875
  0
LTYPE
  2
DUMMY
 70
    64
  3
ダミー
 72
    65
 73
     0
 40
0.0
  0
LTYPE
  2
RAND1
 70
    64
  3
ランダム線1
 72
    65
 73
     4
 40
10.0
 49
1.0
 49
-2.0
 49
3.0
 49
-4.0
  0
LTYPE
  2
RAND2
 70
    64
  3
ランダム線2
 72
    65
 73
     4
 40
14.0
 49
2.0
 49
-3.0
 49
4.0
 49
-5.0
  0
LTYPE
  2
RAND3
 70
    64
  3
ランダム線3
 72
    65
 73
     4
 40
18.0
 49
3.0
 49
-4.0
 49
5.0
 49
-6.0
  0
LTYPE
  2
RAND4
 70
    64
  3
ランダム線4
 72
    65
 73
     4
 40
22.0
 49
4.0
 49
-5.0
 49
6.0
 49
-7.0
  0
LTYPE
  2
RAND5
 70
    64
  3
ランダム線5
 72
    65
 73
     4
 40
26.0
 49
5.0
 49
-6.0
 49
7.0
 49
-8.0
  0
LTYPE
  2
LONG1
 70
    64
  3
----------  --  ----------  --  
 72
    65
 73
     4
 40
40.0
 49
32.5
 49
-2.5
 49
2.5
 49
-2.5
  0
LTYPE
  2
LONG2
 70
    64
  3
--------  -  -  --------  -  -  
 72
    65
 73
     6
 40
40.0
 49
30.0
 49
-2.5
 49
1.25
 49
-2.5
 49
1.25
 49
-2.5
  0
LTYPE
  2
LONG3
 70
    64
  3
+++++++++++++++..+++++++++++++++
 72
    65
 73
     2
 40
40.0
 49
37.5
 49
-2.5
  0
LTYPE
  2
LONG4
 70
    64
  3
+++++++++++++++..+++++++++++++++
 72
    65
 73
     2
 40
80.0
 49
75.0
 49
-5.0
  0
LTYPE
  2
LONG5
 70
    64
  3
----------  --  ----------  --  
 72
    65
 73
     4
 40
60.0
 49
37.5
 49
-7.5
 49
7.5
 49
-7.5
  0
LTYPE
  2
dashed
 70
   64
  3
-------   -------------   ------
 72
   65
 73
    2
 40
7.5
 49
6
 49
-1.5
  0
LTYPE
  2
dashed_spaced
 70
   64
  3
----        --------        ----
 72
   65
 73
    2
 40
12
 49
6
 49
-6
  0
LTYPE
  2
long_dashed_dotted
 70
   64
  3
------------- --- --------------
 72
   65
 73
    4
 40
15.25
 49
12
 49
-1.5
 49
0.25
 49
-1.5
  0
LTYPE
  2
long_dashed_double-dotted
 70
   64
  3
----------- --- --- ------------
 72
   65
 73
    6
 40
17
 49
12
 49
-1.5
 49
0.25
 49
-1.5
 49
0.25
 49
-1.5
  0
LTYPE
  2
long_dashed_triplicate-dotted
 70
   64
  3
--------- --- --- --- ----------
 72
   65
 73
    8
 40
18.75
 49
12
 49
-1.5
 49
0.25
 49
-1.5
 49
0.25
 49
-1.5
 49
0.25
 49
-1.5
  0
LTYPE
  2
dotted
 70
   64
  3
   -       -       -       -    
 72
   65
 73
    2
 40
1.75
 49
0.25
 49
-1.5
  0
LTYPE
  2
chain
 70
   64
  3
-------------- -- --------------
 72
   65
 73
    4
 40
18.5
 49
12
 49
-1.5
 49
3.5
 49
-1.5
  0
LTYPE
  2
chain_double_dash
 70
   64
  3
------------ -- -- -------------
 72
   65
 73
    6
 40
23.5
 49
12
 49
-1.5
 49
3.5
 49
-1.5
 49
3.5
 49
-1.5
  0
LTYPE
  2
dashed_dotted
 70
   64
  3
-----------     -     ----------
 72
   65
 73
    4
 40
9.25
 49
6
 49
-1.5
 49
0.25
 49
-1.5
  0
LTYPE
  2
double-dashed_dotted
 70
   64
  3
------   -----------   -   -----
 72
   65
 73
    6
 40
16.75
 49
6
 49
-1.5
 49
6
 49
-1.5
 49
0.25
 49
-1.5
  0
LTYPE
  2
dashed_double-dotted
 70
   64
  3
---------    -    -    ---------
 72
   65
 73
    6
 40
11
 49
6
 49
-1.5
 49
0.25
 49
-1.5
 49
0.25
 49
-1.5
  0
LTYPE
  2
double-dashed_double-dotted
 70
   64
  3
-----   ---------   -   -   ----
 72
   65
 73
    8
 40
18.5
 49
6
 49
-1.5
 49
6
 49
-1.5
 49
0.25
 49
-1.5
 49
0.25
 49
-1.5
  0
LTYPE
  2
dashed_triplicate-dotted
 70
   64
  3
-------    -    -    -    ------
 72
   65
 73
    8
 40
12.75
 49
6
 49
-1.5
 49
0.25
 49
-1.5
 49
0.25
 49
-1.5
 49
0.25
 49
-1.5
  0
LTYPE
  2
double-dashed_triplicate-dotted
 70
   64
  3
-----  ---------  -  -  -  -----
 72
   65
 73
   10
 40
20.25
 49
6
 49
-1.5
 49
6
 49
-1.5
 49
0.25
 49
-1.5
 49
0.25
 49
-1.5
 49
0.25
 49
-1.5
  0
LTYPE
  2
undefined
 70
   64
  3
--------------------------------
 72
   65
 73
    0
 40
0
  0
LTYPE
  2
_
 70
   64
  3
                                
 72
   65
 73
    0
 40
0
  0
LTYPE
  2
__18
 70
   64
  3
                                
 72
   65
 73
    0
 40
0
  0
LTYPE
  2
__19
 70
   64
  3
                                
 72
   65
 73
    0
 40
0
  0
LTYPE
  2
__20
 70
   64
  3
                                
 72
   65
 73
    0
 40
0
  0
LTYPE
  2
__21
 70
   64
  3
                                
 72
   65
 73
    0
 40
0
  0
LTYPE
  2
__22
 70
   64
  3
                                
 72
   65
 73
    0
 40
0
  0
LTYPE
  2
__23
 70
   64
  3
                                
 72
   65
 73
    0
 40
0
  0
LTYPE
  2
__24
 70
   64
  3
                                
 72
   65
 73
    0
 40
0
  0
LTYPE
  2
__25
 70
   64
  3
                                
 72
   65
 73
    0
 40
0
  0
LTYPE
  2
__26
 70
   64
  3
                                
 72
   65
 73
    0
 40
0
  0
LTYPE
  2
__27
 70
   64
  3
                                
 72
   65
 73
    0
 40
0
  0
LTYPE
  2
__28
 70
   64
  3
                                
 72
   65
 73
    0
 40
0
  0
LTYPE
  2
__29
 70
   64
  3
                                
 72
   65
 73
    0
 40
0
  0
LTYPE
  2
__30
 70
   64
  3
                                
 72
   65
 73
    0
 40
0
  0
LTYPE
  2
__31
 70
   64
  3
                                
 72
   65
 73
    0
 40
0
  0
LTYPE
  2
__32
 70
   64
  3
                                
 72
   65
 73
    0
 40
0
  0
ENDTAB
  0
TABLE
  2
STYLE
  5
3
100
AcDbSymbolTable
 70
     1
  0
STYLE
  5
10
100
AcDbSymbolTableRecord
100
AcDbTextStyleTableRecord
  2
STANDARD
 70
     0
 40
0.0
 41
1.0
 50
0.0
 71
     0
 42
0.2
  3
txt
  4
bigfont.shx
  0
STYLE
  5
26
100
AcDbSymbolTableRecord
100
AcDbTextStyleTableRecord
  2
TATEGAKI
 70
    68
 40
0.0
 41
1.0
 50
0.0
 71
     0
 42
1.0
  3
txt
  4
bigfont.shx
  0
ENDTAB
  0
TABLE
  2
LAYER
 70
    2
  0
LAYER
  2
_0-0_
 70
   64
 62
    7
  6
CONTINUOUS
  0
LAYER
  2
ADD_LINE
 70
   64
 62
    7
  6
CONTINUOUS
  0
ENDTAB
  0
ENDSEC
  0
SECTION
  2
BLOCKS
  0
BLOCK
  2
-001-4
 70
   64
 10
0
 20
0
 30
0
  0
LINE
  8
_0-0_
  6
CONTINUOUS
 62
    7
 10
-19.923138959261991
 20
21.612651653922612
 11
14.655605369618897
 21
22.507480527498089
  0
LINE
  8
_0-0_
  6
CONTINUOUS
 62
    7
 10
14.655605369618897
 20
22.507480527498089
 11
21.55857096577256
 21
22.315731483160491
  0
LINE
  8
_0-0_
  6
CONTINUOUS
 62
    7
 10
21.55857096577256
 20
22.315731483160491
 11
22.77298157991072
 21
20.973488172797275
  0
LINE
  8
_0-0_
  6
CONTINUOUS
 62
    7
 10
22.77298157991072
 20
20.973488172797275
 11
22.197734446897911
 21
-8.3001992627432912
  0
LINE
  8
_0-0_
  6
CONTINUOUS
 62
    7
 10
22.77298157991072
 20
20.973488172797275
 11
16.061765028094641
 21
21.101320869022345
  0
LINE
  8
_0-0_
  6
CONTINUOUS
 62
    7
 10
16.061765028094641
 20
21.101320869022345
 11
14.655605369618897
 21
22.507480527498089
  0
LINE
  8
_0-0_
  6
CONTINUOUS
 62
    7
 10
14.655605369618897
 20
22.507480527498089
 11
12.865947622467942
 21
20.589990084122078
  0
LINE
  8
_0-0_
  6
CONTINUOUS
 62
    7
 10
12.865947622467942
 20
20.589990084122078
 11
16.061765028094641
 21
21.101320869022345
  0
LINE
  8
_0-0_
  6
CONTINUOUS
 62
    7
 10
16.061765028094641
 20
21.101320869022345
 11
14.847354413956495
 21
-22.425712195613301
  0
LINE
  8
_0-0_
  6
CONTINUOUS
 62
    7
 10
14.847354413956495
 20
-22.425712195613301
 11
20.727658440309625
 21
-21.658716018262893
  0
LINE
  8
_0-0_
  6
CONTINUOUS
 62
    7
 10
12.865947622467942
 20
20.589990084122078
 11
12.226784141342605
 21
-22.233963151275702
  0
LINE
  8
_0-0_
  6
CONTINUOUS
 62
    7
 10
12.226784141342605
 20
-22.233963151275702
 11
14.847354413956495
 21
-22.425712195613301
  0
LINE
  8
_0-0_
  6
CONTINUOUS
 62
    7
 10
-21.584964010187875
 20
-17.312404346610577
 11
-21.329298617737734
 21
19.822993906771657
  0
LINE
  8
_0-0_
  6
CONTINUOUS
 62
    7
 10
-21.329298617737734
 20
19.822993906771657
 11
-19.923138959261991
 21
21.612651653922612
  0
LINE
  8
_0-0_
  6
CONTINUOUS
 62
    7
 10
-21.329298617737734
 20
19.822993906771657
 11
12.865947622467942
 21
20.589990084122078
  0
LINE
  8
_0-0_
  6
CONTINUOUS
 62
    7
 10
-21.265382269625206
 20
18.416834248295913
 11
12.674198578130344
 21
18.800332336971124
  0
LINE
  8
_0-0_
  6
CONTINUOUS
 62
    7
 10
12.674198578130344
 20
18.800332336971124
 11
15.870015983757042
 21
18.672499640746054
  0
LINE
  8
_0-0_
  6
CONTINUOUS
 62
    7
 10
15.870015983757042
 20
18.672499640746054
 11
22.709065231798178
 21
18.416834248295913
  0
LINE
  8
_0-0_
  6
CONTINUOUS
 62
    7
 10
-20.93840884254611
 20
19.839371565131557
 11
-19.78182730527169
 21
18.43495112701261
  0
LINE
  8
_0-0_
  6
CONTINUOUS
 62
    7
 10
-19.78182730527169
 20
18.43495112701261
 11
-19.947053239168028
 21
-4.0633135385398731
  0
LINE
  8
_0-0_
  6
CONTINUOUS
 62
    7
 10
-19.947053239168028
 20
-4.0633135385398731
 11
-21.103634776442462
 21
-6.5141648913356818
  0
LINE
  8
_0-0_
  6
CONTINUOUS
 62
    7
 10
-21.103634776442462
 20
-6.5141648913356818
 11
-21.461624299884534
 21
-3.8980876046435355
  0
LINE
  8
_0-0_
  6
CONTINUOUS
 62
    7
 10
-19.947053239168028
 20
-4.0633135385398731
 11
11.427574230398378
 21
-6.8296493709197961
  0
LINE
  8
_0-0_
  6
CONTINUOUS
 62
    7
 10
11.08700768229285
 20
-6.8432720328440126
 11
12.040594016988322
 21
-9.7312763607788781
  0
LINE
  8
_0-0_
  6
CONTINUOUS
 62
    7
 10
12.040594016988322
 20
-9.7312763607788781
 11
12.422028550866514
 21
-6.8841400186166766
  0
LINE
  8
_0-0_
  6
CONTINUOUS
 62
    7
 10
11.427574230398378
 20
-6.8296493709197961
 11
12.462896536639178
 21
-6.8841400186166766
  0
LINE
  8
_0-0_
  6
CONTINUOUS
 62
    7
 10
12.462896536639178
 20
-6.8841400186166766
 11
15.255542231104485
 21
-6.8841400186166766
  0
LINE
  8
_0-0_
  6
CONTINUOUS
 62
    7
 10
15.255542231104485
 20
-6.8841400186166766
 11
17.394300153207197
 21
-6.7887813851471321
  0
LINE
  8
_0-0_
  6
CONTINUOUS
 62
    7
 10
11.332215596928833
 20
-6.8024040470713487
 11
11.972480707367211
 21
18.590237779676684
  0
LINE
  8
_0-0_
  6
CONTINUOUS
 62
    7
 10
11.972480707367211
 20
18.590237779676684
 11
12.839137841606899
 21
18.793734766432067
  0
LINE
  8
_0-0_
  6
CONTINUOUS
 62
    7
 10
12.040594016988322
 20
-9.7312763607788781
 11
-21.103634776442462
 21
-6.5141648913356818
  0
LINE
  8
_0-0_
  6
CONTINUOUS
 62
    7
 10
-21.584964010187875
 20
-17.312404346610577
 11
-20.001173334763493
 21
-18.599351259938132
  0
LINE
  8
_0-0_
  6
CONTINUOUS
 62
    7
 10
-20.001173334763493
 20
-18.599351259938132
 11
13.844963468955655
 21
-23.672232862023009
  0
LINE
  8
_0-0_
  6
CONTINUOUS
 62
    7
 10
13.844963468955655
 20
-23.672232862023009
 11
14.847354413956495
 21
-22.425712195613301
  0
LINE
  8
_0-0_
  6
CONTINUOUS
 62
    7
 10
12.226784141342605
 20
-22.233963151275702
 11
13.844963468955655
 21
-23.672232862023009
  0
LINE
  8
_0-0_
  6
CONTINUOUS
 62
    7
 10
13.844963468955655
 20
-23.672232862023009
 11
20.533412460239532
 21
-22.573647037367685
  0
LINE
  8
_0-0_
  6
CONTINUOUS
 62
    7
 10
20.533412460239532
 20
-22.573647037367685
 11
20.856525938079344
 21
-21.959731429472065
  0
LINE
  8
_0-0_
  6
CONTINUOUS
 62
    7
 10
21.308884807055051
 20
-6.2241050586737572
 11
22.213602545006495
 21
-6.0302369719698845
  0
LINE
  8
_0-0_
  6
CONTINUOUS
 62
    7
 10
16.58401905912757
 20
-10.749134381771661
 11
23.118320282957939
 21
-27.445045776519336
  0
LINE
  8
_0-0_
  6
CONTINUOUS
 62
    7
 10
21.651961346901516
 20
-6.6844903134047371
 11
28.494969715164814
 21
-25.386998146966469
  0
LINE
  8
_0-0_
  6
CONTINUOUS
 62
    7
 10
28.494969715164814
 20
-25.386998146966469
 11
28.237713761470701
 21
-26.261668389526434
  0
LINE
  8
_0-0_
  6
CONTINUOUS
 62
    7
 10
28.237713761470701
 20
-26.261668389526434
 11
23.118320282957939
 21
-27.445045776519336
  0
LINE
  8
_0-0_
  6
CONTINUOUS
 62
    7
 10
23.118320282957939
 20
-27.445045776519336
 11
-13.257671569389089
 21
-21.78541479524894
  0
LINE
  8
_0-0_
  6
CONTINUOUS
 62
    7
 10
-13.257671569389089
 20
-21.78541479524894
 11
-13.7721834767773
 21
-21.450982055446595
  0
LINE
  8
_0-0_
  6
CONTINUOUS
 62
    7
 10
-13.7721834767773
 20
-21.450982055446595
 11
-14.878384077661977
 21
-19.341483235154897
  0
LINE
  8
_0-0_
  6
CONTINUOUS
 62
    7
 10
-7.9067477325516222
 20
-20.421958240670158
 11
-7.7781197557045658
 21
-20.576311812886622
  0
LINE
  8
_0-0_
  6
CONTINUOUS
 62
    7
 10
-7.7781197557045658
 20
-20.576311812886622
 11
-3.507670924382353
 21
-21.090823720274841
  0
LINE
  8
_0-0_
  6
CONTINUOUS
 62
    7
 10
-16.626732873164485
 20
17.86242361102515
 11
10.973593383285959
 21
18.156284578538546
  0
LINE
  8
_0-0_
  6
CONTINUOUS
 62
    7
 10
-17.463106396087227
 20
17.45553919446813
 11
10.544104276920237
 21
17.613772023129187
  0
LINE
  8
_0-0_
  6
CONTINUOUS
 62
    7
 10
-16.807570391634272
 20
16.913026639058785
 11
9.7529401336149419
 21
17.093864157528571
  0
LINE
  8
_0-0_
  6
CONTINUOUS
 62
    7
 10
11.696943457165091
 20
16.935631328867515
 11
11.719548146973807
 21
9.5891071410326276
  0
LINE
  8
_0-0_
  6
CONTINUOUS
 62
    7
 10
11.086616832329582
 20
16.39311877345817
 11
11.109221522138299
 21
9.4082696225628411
  0
LINE
  8
_0-0_
  6
CONTINUOUS
 62
    7
 10
10.385871448259167
 20
8.5492914098313832
 11
-17.078826669338937
 21
8.7979429977273327
  0
LINE
  8
_0-0_
  6
CONTINUOUS
 62
    7
 10
-17.350082947043617
 20
9.4986883817977343
 11
-17.350082947043617
 21
16.280095324414546
  0
LINE
  8
_0-0_
  6
CONTINUOUS
 62
    7
 10
-16.762361012016825
 20
16.460932842884333
 11
-16.784965701825541
 21
8.9335711365796584
  0
LINE
  8
_0-0_
  6
CONTINUOUS
 62
    7
 10
-16.604128183355769
 20
16.460932842884333
 11
10.453685517685344
 21
16.732189120589013
  0
LINE
  8
_0-0_
  6
CONTINUOUS
 62
    7
 10
9.9563823418934447
 20
7.5320803684388551
 11
-16.965803220295328
 21
8.3006398219354338
  0
LINE
  8
_0-0_
  6
CONTINUOUS
 62
    7
 10
-16.988407910104058
 20
7.7807319563348045
 11
11.041407452712136
 21
7.1251959518818495
  0
LINE
  8
_0-0_
  6
CONTINUOUS
 62
    7
 10
-18.322084608818699
 20
16.347909393840723
 11
-18.367293988436131
 21
9.0239898958145517
  0
LINE
  8
_0-0_
  6
CONTINUOUS
 62
    7
 10
-16.694546942590648
 20
6.5148693270463411
 11
10.385871448259181
 21
5.4750535958450968
  0
LINE
  8
_0-0_
  6
CONTINUOUS
 62
    7
 10
10.069405790937054
 20
5.0229597996706445
 11
-17.485711085895943
 21
6.0401708410631585
  0
LINE
  8
_0-0_
  6
CONTINUOUS
 62
    7
 10
-17.146640738765115
 20
5.497658285653813
 11
9.8207542030411048
 21
4.480447244261299
  0
LINE
  8
_0-0_
  6
CONTINUOUS
 62
    7
 10
11.177035591564476
 20
3.757097170382167
 11
11.086616832329582
 21
-3.8832879849661168
  0
LINE
  8
_0-0_
  6
CONTINUOUS
 62
    7
 10
10.431080827876627
 20
3.5988643417211108
 11
10.453685517685344
 21
-3.612031707261437
  0
LINE
  8
_0-0_
  6
CONTINUOUS
 62
    7
 10
10.837965244433633
 20
-4.7648708875063051
 11
10.318057378833004
 21
-5.0587318550197011
  0
LINE
  8
_0-0_
  6
CONTINUOUS
 62
    7
 10
10.182429239980678
 20
-4.5388239894190718
 11
10.024196411319608
 21
-5.0361271652109707
  0
LINE
  8
_0-0_
  6
CONTINUOUS
 62
    7
 10
11.064012142520852
 20
-4.10933488305335
 11
10.905779313859796
 21
-4.6518474384626955
  0
LINE
  8
_0-0_
  6
CONTINUOUS
 62
    7
 10
9.7077307539974953
 20
-4.2675677117144062
 11
-16.852779771251718
 21
-2.4817972168253135
  0
LINE
  8
_0-0_
  6
CONTINUOUS
 62
    7
 10
-16.739756322208095
 20
-2.2557503187380803
 11
9.4816838559102621
 21
-3.9963114340097263
  0
LINE
  8
_0-0_
  6
CONTINUOUS
 62
    7
 10
-16.920593840677881
 20
-1.5324002448589482
 11
-16.965803220295328
 21
4.9551457302444675
  0
LINE
  8
_0-0_
  6
CONTINUOUS
 62
    7
 10
-17.41789701646978
 20
5.1585879385229703
 11
-17.41789701646978
 21
-2.0070987308421309
  0
LINE
  8
_0-0_
  6
CONTINUOUS
 62
    7
 10
-18.502922127288471
 20
4.9325410404357513
 11
-18.480317437479755
 21
-2.0975174900770241
  0
LINE
  8
_0-0_
  6
CONTINUOUS
 62
    7
 10
-16.762361012016825
 20
-3.4311941887916646
 11
9.9789870317021609
 21
-5.4882209613854371
  0
ARC
  8
_0-0_
  6
CONTINUOUS
 62
    7
 10
-16.847648439588895
 20
-1.7677372009239463
 40
1.6656419470545942
 50
191.419438644178
 51
272.93505305753172
  0
ARC
  8
_0-0_
  6
CONTINUOUS
 62
    7
 10
-16.965803220295328
 20
-2.0426203862558481
 40
0.4534871426432702
 50
175.50741852008341
 51
284.43206293613559
  0
ARC
  8
_0-0_
  6
CONTINUOUS
 62
    7
 10
-15.861402661069391
 20
-1.6518821767051151
 40
1.0659089487372284
 50
173.56396394817989
 51
214.5085229876731
  0
ARC
  8
_0-0_
  6
CONTINUOUS
 62
    7
 10
-17.531692111551067
 20
5.0614967106096174
 40
0.9797536977931158
 50
87.310051721959269
 51
187.56324477165981
  0
ARC
  8
_0-0_
  6
CONTINUOUS
 62
    7
 10
-16.505392604285589
 20
5.2283212740649674
 40
1.5147196780442049
 50
121.85746057331768
 51
150.58028989694441
  0
ARC
  8
_0-0_
  6
CONTINUOUS
 62
    7
 10
-16.999710255008409
 20
5.5428676652712596
 40
1.0187796021413495
 50
72.570137182332004
 51
107.429862817668
  0
ARC
  8
_0-0_
  6
CONTINUOUS
 62
    7
 10
-17.142036079730019
 20
5.2159368737784462
 40
0.281759040305504
 50
90.936400385657237
 51
191.74398310616303
  0
ARC
  8
_0-0_
  6
CONTINUOUS
 62
    7
 10
-16.726715155010794
 20
4.6847588636863975
 40
0.3609323490192974
 50
88.481672197846407
 51
131.48454084595585
  0
LINE
  8
_0-0_
  6
CONTINUOUS
 62
    7
 10
-16.920593840677881
 20
-2.1427268696944708
 11
-17.169245428573831
 21
-2.3009596983555269
  0
LINE
  8
_0-0_
  6
CONTINUOUS
 62
    7
 10
-17.214454808191277
 20
5.1585879385229703
 11
9.7755448234236724
 21
3.9605393786606697
  0
ARC
  8
_0-0_
  6
CONTINUOUS
 62
    7
 10
9.6011657877563579
 20
-3.4473403957978661
 40
0.7657116308033133
 50
259.3061274343807
 51
354.43366785730689
  0
ARC
  8
_0-0_
  6
CONTINUOUS
 62
    7
 10
9.8084690455364267
 20
-4.5073739862069999
 40
0.9955587236937419
 50
279.86217265395931
 51
345.01028692310996
  0
ARC
  8
_0-0_
  6
CONTINUOUS
 62
    7
 10
9.4506024074233181
 20
3.3643406849556499
 40
2.3086440113065221
 50
23.898407726832303
 51
66.101592273167697
  0
ARC
  8
_0-0_
  6
CONTINUOUS
 62
    7
 10
10.07998478576755
 20
3.9146970677285964
 40
1.1083132220375638
 50
351.82494630856201
 51
90.546904022857234
  0
ARC
  8
_0-0_
  6
CONTINUOUS
 62
    7
 10
9.6361492362698726
 20
3.7005854458603693
 40
0.8014133879351835
 50
352.70794103541692
 51
76.682366027050804
  0
ARC
  8
_0-0_
  6
CONTINUOUS
 62
    7
 10
-17.201930588162114
 20
16.366106605520699
 40
1.1203018202725719
 50
103.48141009577893
 51
180.93070390698676
  0
ARC
  8
_0-0_
  6
CONTINUOUS
 62
    7
 10
-16.75105866711246
 20
16.737542862912122
 40
1.1317303568059434
 50
83.693065610183922
 51
142.08803770231273
  0
ARC
  8
_0-0_
  6
CONTINUOUS
 62
    7
 10
-16.475564010068652
 20
16.079478702362124
 40
0.897234863439645
 50
111.71764378651031
 51
167.07976692348038
  0
ARC
  8
_0-0_
  6
CONTINUOUS
 62
    7
 10
-16.841193090626433
 20
9.3302905511158372
 40
1.5565359108397019
 50
191.34893222835717
 51
264.57294003997049
  0
ARC
  8
_0-0_
  6
CONTINUOUS
 62
    7
 10
-16.668221605080461
 20
9.3597608006441391
 40
0.6958705069687717
 50
168.48375645438267
 51
233.83876317927417
  0
ARC
  8
_0-0_
  6
CONTINUOUS
 62
    7
 10
-16.683244597686297
 20
16.336607048936415
 40
0.147364548169836
 50
57.528807709140068
 51
122.47119229085995
  0
LINE
  8
_0-0_
  6
CONTINUOUS
 62
    7
 10
-16.965803220295328
 20
16.551351602119226
 11
-16.694546942590648
 21
16.39311877345817
  0
ARC
  8
_0-0_
  6
CONTINUOUS
 62
    7
 10
9.2674649931880566
 20
9.2476711868287822
 40
1.8487452419116852
 50
291.87855611859044
 51
4.9835016227729971
  0
ARC
  8
_0-0_
  6
CONTINUOUS
 62
    7
 10
10.95324916245815
 20
7.7332621077364365
 40
0.6144235786786569
 50
278.24934417890404
 51
351.7506558210988
  0
ARC
  8
_0-0_
  6
CONTINUOUS
 62
    7
 10
10.443744901082738
 20
16.124177433866464
 40
1.4929715485163308
 50
32.923309159172334
 51
86.145601001908474
  0
ARC
  8
_0-0_
  6
CONTINUOUS
 62
    7
 10
10.605753430943963
 20
16.253380691004125
 40
1.9381303969889521
 50
51.586868524041392
 51
79.059405135284678
  0
ARC
  8
_0-0_
  6
CONTINUOUS
 62
    7
 10
9.7866488815753314
 20
15.538502869286305
 40
1.5557265237347218
 50
33.321441677865955
 51
91.2415550657675
  0
ARC
  8
_0-0_
  6
CONTINUOUS
 62
    7
 10
-15.451289003110901
 20
15.353303042256925
 40
0.4389036847742521
 50
78.111341960371831
 51
6.0090059574946508
  0
ARC
  8
_0-0_
  6
CONTINUOUS
 62
    7
 10
-13.959379475735204
 20
15.353303042256925
 40
0.4389036847742521
 50
78.111341960371831
 51
6.0090059574946508
  0
ARC
  8
_0-0_
  6
CONTINUOUS
 62
    7
 10
-12.331841809507168
 20
15.353303042256925
 40
0.4389036847742521
 50
78.111341960371831
 51
6.0090059574946508
  0
ARC
  8
_0-0_
  6
CONTINUOUS
 62
    7
 10
-10.613885384044238
 20
15.375907732065642
 40
0.4389036847742521
 50
78.111341960371831
 51
6.0090059574946508
  0
ARC
  8
_0-0_
  6
CONTINUOUS
 62
    7
 10
-8.9411383381987548
 20
15.353303042256925
 40
0.4389036847742521
 50
78.111341960371831
 51
6.0090059574946508
  0
ARC
  8
_0-0_
  6
CONTINUOUS
 62
    7
 10
-7.2457866025445554
 20
15.353303042256925
 40
0.4389036847742521
 50
78.111341960371831
 51
6.0090059574946508
  0
ARC
  8
_0-0_
  6
CONTINUOUS
 62
    7
 10
-5.5052254872729094
 20
15.330698352448209
 40
0.4389036847742521
 50
78.111341960371831
 51
6.0090059574946508
  0
ARC
  8
_0-0_
  6
CONTINUOUS
 62
    7
 10
-3.7646643720012491
 20
15.330698352448209
 40
0.4389036847742521
 50
78.111341960371831
 51
6.0090059574946508
  0
ARC
  8
_0-0_
  6
CONTINUOUS
 62
    7
 10
-1.9562891873034403
 20
15.353303042256925
 40
0.4389036847742521
 50
78.111341960371831
 51
6.0090059574946508
  0
ARC
  8
_0-0_
  6
CONTINUOUS
 62
    7
 10
-0.1253093127968867
 20
15.330698352448209
 40
0.4389036847742521
 50
78.111341960371831
 51
6.0090059574946508
  0
ARC
  8
_0-0_
  6
CONTINUOUS
 62
    7
 10
1.6378564922834755
 20
15.398512421874372
 40
0.4389036847742521
 50
78.111341960371831
 51
6.0090059574946508
  0
ARC
  8
_0-0_
  6
CONTINUOUS
 62
    7
 10
3.4688363667900148
 20
15.398512421874372
 40
0.4389036847742521
 50
78.111341960371831
 51
6.0090059574946508
  0
ARC
  8
_0-0_
  6
CONTINUOUS
 62
    7
 10
5.3676303107227312
 20
15.375907732065642
 40
0.4389036847742521
 50
78.111341960371831
 51
6.0090059574946508
  0
ARC
  8
_0-0_
  6
CONTINUOUS
 62
    7
 10
7.2664242546554334
 20
15.398512421874372
 40
0.4389036847742521
 50
78.111341960371831
 51
6.0090059574946508
  0
ARC
  8
_0-0_
  6
CONTINUOUS
 62
    7
 10
9.2782416476317593
 20
15.421117111683088
 40
0.4389036847742521
 50
78.111341960371831
 51
6.0090059574946508
  0
ARC
  8
_0-0_
  6
CONTINUOUS
 62
    7
 10
-15.654731211389404
 20
14.019626343542285
 40
0.4389036847742521
 50
78.111341960371831
 51
6.0090059574946508
  0
ARC
  8
_0-0_
  6
CONTINUOUS
 62
    7
 10
-14.027193545161367
 20
13.951812274116122
 40
0.4389036847742521
 50
78.111341960371831
 51
6.0090059574946508
  0
ARC
  8
_0-0_
  6
CONTINUOUS
 62
    7
 10
-12.422260568742061
 20
13.974416963924838
 40
0.4389036847742521
 50
78.111341960371831
 51
6.0090059574946508
  0
ARC
  8
_0-0_
  6
CONTINUOUS
 62
    7
 10
-10.613885384044238
 20
13.906602894498675
 40
0.4389036847742521
 50
78.111341960371831
 51
6.0090059574946508
  0
ARC
  8
_0-0_
  6
CONTINUOUS
 62
    7
 10
-8.9411383381987548
 20
13.861393514881229
 40
0.4389036847742521
 50
78.111341960371831
 51
6.0090059574946508
  0
ARC
  8
_0-0_
  6
CONTINUOUS
 62
    7
 10
-7.2457866025445554
 20
13.906602894498675
 40
0.4389036847742521
 50
78.111341960371831
 51
6.0090059574946508
  0
ARC
  8
_0-0_
  6
CONTINUOUS
 62
    7
 10
-0.2383327618405104
 20
13.929207584307392
 40
0.4389036847742521
 50
78.111341960371831
 51
6.0090059574946508
  0
ARC
  8
_0-0_
  6
CONTINUOUS
 62
    7
 10
1.5700424228573127
 20
13.906602894498675
 40
0.4389036847742521
 50
78.111341960371831
 51
6.0090059574946508
  0
ARC
  8
_0-0_
  6
CONTINUOUS
 62
    7
 10
3.4462316769812986
 20
13.906602894498675
 40
0.4389036847742521
 50
78.111341960371831
 51
6.0090059574946508
  0
ARC
  8
_0-0_
  6
CONTINUOUS
 62
    7
 10
5.4354443801488941
 20
13.883998204689945
 40
0.4389036847742521
 50
78.111341960371831
 51
6.0090059574946508
  0
ARC
  8
_0-0_
  6
CONTINUOUS
 62
    7
 10
7.2438195648467172
 20
13.929207584307392
 40
0.4389036847742521
 50
78.111341960371831
 51
6.0090059574946508
  0
ARC
  8
_0-0_
  6
CONTINUOUS
 62
    7
 10
9.2330322680143126
 20
13.883998204689945
 40
0.4389036847742521
 50
78.111341960371831
 51
6.0090059574946508
  0
ARC
  8
_0-0_
  6
CONTINUOUS
 62
    7
 10
-16.310267215842373
 20
12.685949644827645
 40
0.4389036847742521
 50
78.111341960371831
 51
6.0090059574946508
  0
ARC
  8
_0-0_
  6
CONTINUOUS
 62
    7
 10
-14.63752016999689
 20
12.685949644827645
 40
0.4389036847742521
 50
78.111341960371831
 51
6.0090059574946508
  0
ARC
  8
_0-0_
  6
CONTINUOUS
 62
    7
 10
-13.236029401856072
 20
12.618135575401482
 40
0.4389036847742521
 50
78.111341960371831
 51
6.0090059574946508
  0
ARC
  8
_0-0_
  6
CONTINUOUS
 62
    7
 10
-8.6698820604940892
 20
12.640740265210198
 40
0.4389036847742521
 50
78.111341960371831
 51
6.0090059574946508
  0
ARC
  8
_0-0_
  6
CONTINUOUS
 62
    7
 10
1.1857626961090233
 20
12.459902746740411
 40
0.4389036847742521
 50
78.111341960371831
 51
6.0090059574946508
  0
ARC
  8
_0-0_
  6
CONTINUOUS
 62
    7
 10
4.4182333387563801
 20
12.618135575401482
 40
0.4389036847742521
 50
78.111341960371831
 51
6.0090059574946508
  0
ARC
  8
_0-0_
  6
CONTINUOUS
 62
    7
 10
6.7465163890548183
 20
12.572926195784035
 40
0.4389036847742521
 50
78.111341960371831
 51
6.0090059574946508
  0
ARC
  8
_0-0_
  6
CONTINUOUS
 62
    7
 10
8.3288446756654082
 20
12.437298056931695
 40
0.4389036847742521
 50
78.111341960371831
 51
6.0090059574946508
  0
ARC
  8
_0-0_
  6
CONTINUOUS
 62
    7
 10
9.9563823418934447
 20
12.459902746740411
 40
0.4389036847742521
 50
78.111341960371831
 51
6.0090059574946508
  0
ARC
  8
_0-0_
  6
CONTINUOUS
 62
    7
 10
-15.519103072537078
 20
11.261854186878111
 40
0.4389036847742521
 50
78.111341960371831
 51
6.0090059574946508
  0
ARC
  8
_0-0_
  6
CONTINUOUS
 62
    7
 10
-14.162821684013707
 20
11.216644807260664
 40
0.4389036847742521
 50
78.111341960371831
 51
6.0090059574946508
  0
ARC
  8
_0-0_
  6
CONTINUOUS
 62
    7
 10
-12.444865258550777
 20
11.329668256304274
 40
0.4389036847742521
 50
78.111341960371831
 51
6.0090059574946508
  0
ARC
  8
_0-0_
  6
CONTINUOUS
 62
    7
 10
-15.586917141963241
 20
9.973386867780917
 40
0.4389036847742521
 50
78.111341960371831
 51
6.0090059574946508
  0
ARC
  8
_0-0_
  6
CONTINUOUS
 62
    7
 10
-14.049798234970098
 20
9.8603634187373075
 40
0.4389036847742521
 50
78.111341960371831
 51
6.0090059574946508
  0
ARC
  8
_0-0_
  6
CONTINUOUS
 62
    7
 10
-12.512679327976954
 20
9.9507821779721866
 40
0.4389036847742521
 50
78.111341960371831
 51
6.0090059574946508
  0
ARC
  8
_0-0_
  6
CONTINUOUS
 62
    7
 10
-10.410443175765735
 20
11.103621358217055
 40
0.4389036847742521
 50
78.111341960371831
 51
6.0090059574946508
  0
ARC
  8
_0-0_
  6
CONTINUOUS
 62
    7
 10
-9.0089524076249319
 20
11.126226048025771
 40
0.4389036847742521
 50
78.111341960371831
 51
6.0090059574946508
  0
ARC
  8
_0-0_
  6
CONTINUOUS
 62
    7
 10
-7.2457866025445554
 20
11.126226048025771
 40
0.4389036847742521
 50
78.111341960371831
 51
6.0090059574946508
  0
ARC
  8
_0-0_
  6
CONTINUOUS
 62
    7
 10
-5.5956442465077885
 20
11.103621358217055
 40
0.4389036847742521
 50
78.111341960371831
 51
6.0090059574946508
  0
ARC
  8
_0-0_
  6
CONTINUOUS
 62
    7
 10
-10.500861935000628
 20
9.7925493493111304
 40
0.4389036847742521
 50
78.111341960371831
 51
6.0090059574946508
  0
ARC
  8
_0-0_
  6
CONTINUOUS
 62
    7
 10
-8.8959289585813082
 20
9.7699446595024142
 40
0.4389036847742521
 50
78.111341960371831
 51
6.0090059574946508
  0
ARC
  8
_0-0_
  6
CONTINUOUS
 62
    7
 10
-7.2909959821620021
 20
9.6795259002675209
 40
0.4389036847742521
 50
78.111341960371831
 51
6.0090059574946508
  0
ARC
  8
_0-0_
  6
CONTINUOUS
 62
    7
 10
-5.6860630057426818
 20
9.7247352798849676
 40
0.4389036847742521
 50
78.111341960371831
 51
6.0090059574946508
  0
ARC
  8
_0-0_
  6
CONTINUOUS
 62
    7
 10
-3.7646643720012491
 20
9.6795259002675209
 40
0.4389036847742521
 50
78.111341960371831
 51
6.0090059574946508
  0
ARC
  8
_0-0_
  6
CONTINUOUS
 62
    7
 10
-1.865870428068547
 20
11.013202598982161
 40
0.4389036847742521
 50
78.111341960371831
 51
6.0090059574946508
  0
ARC
  8
_0-0_
  6
CONTINUOUS
 62
    7
 10
-2.0014985669208869
 20
9.6343165206500743
 40
0.4389036847742521
 50
78.111341960371831
 51
6.0090059574946508
  0
ARC
  8
_0-0_
  6
CONTINUOUS
 62
    7
 10
-0.1931233822230638
 20
11.126226048025771
 40
0.4389036847742521
 50
78.111341960371831
 51
6.0090059574946508
  0
ARC
  8
_0-0_
  6
CONTINUOUS
 62
    7
 10
-0.2609374516492266
 20
9.6795259002675209
 40
0.4389036847742521
 50
78.111341960371831
 51
6.0090059574946508
  0
ARC
  8
_0-0_
  6
CONTINUOUS
 62
    7
 10
1.6604611820922059
 20
10.945388529555999
 40
0.4389036847742521
 50
78.111341960371831
 51
6.0090059574946508
  0
ARC
  8
_0-0_
  6
CONTINUOUS
 62
    7
 10
3.3558129177464053
 20
10.945388529555999
 40
0.4389036847742521
 50
78.111341960371831
 51
6.0090059574946508
  0
ARC
  8
_0-0_
  6
CONTINUOUS
 62
    7
 10
5.3450256209140008
 20
10.967993219364715
 40
0.4389036847742521
 50
78.111341960371831
 51
6.0090059574946508
  0
ARC
  8
_0-0_
  6
CONTINUOUS
 62
    7
 10
7.1081914259943773
 20
10.922783839747268
 40
0.4389036847742521
 50
78.111341960371831
 51
6.0090059574946508
  0
ARC
  8
_0-0_
  6
CONTINUOUS
 62
    7
 10
9.3008463374404897
 20
10.877574460129821
 40
0.4389036847742521
 50
78.111341960371831
 51
6.0090059574946508
  0
ARC
  8
_0-0_
  6
CONTINUOUS
 62
    7
 10
9.2104275782055964
 20
9.3404555531366782
 40
0.4389036847742521
 50
78.111341960371831
 51
6.0090059574946508
  0
ARC
  8
_0-0_
  6
CONTINUOUS
 62
    7
 10
7.1081914259943773
 20
9.4760836919890181
 40
0.4389036847742521
 50
78.111341960371831
 51
6.0090059574946508
  0
ARC
  8
_0-0_
  6
CONTINUOUS
 62
    7
 10
5.2546068616791217
 20
9.4308743123715715
 40
0.4389036847742521
 50
78.111341960371831
 51
6.0090059574946508
  0
ARC
  8
_0-0_
  6
CONTINUOUS
 62
    7
 10
3.4462316769812986
 20
9.4986883817977343
 40
0.4389036847742521
 50
78.111341960371831
 51
6.0090059574946508
  0
ARC
  8
_0-0_
  6
CONTINUOUS
 62
    7
 10
1.5700424228573127
 20
9.6117118308413581
 40
0.4389036847742521
 50
78.111341960371831
 51
6.0090059574946508
  0
ARC
  8
_0-0_
  6
CONTINUOUS
 62
    7
 10
-15.557238875751793
 20
3.9269398907476898
 40
0.4389036847742521
 50
78.111341960371831
 51
6.0090059574946508
  0
ARC
  8
_0-0_
  6
CONTINUOUS
 62
    7
 10
-13.986828027645799
 20
3.9478787020557746
 40
0.4389036847742521
 50
78.111341960371831
 51
6.0090059574946508
  0
ARC
  8
_0-0_
  6
CONTINUOUS
 62
    7
 10
-12.416417179539806
 20
3.8013070228992234
 40
0.4389036847742521
 50
78.111341960371831
 51
6.0090059574946508
  0
ARC
  8
_0-0_
  6
CONTINUOUS
 62
    7
 10
-10.573801784428781
 20
3.8013070228992234
 40
0.4389036847742521
 50
78.111341960371831
 51
6.0090059574946508
  0
ARC
  8
_0-0_
  6
CONTINUOUS
 62
    7
 10
-9.0033909363227878
 20
3.654735343742658
 40
0.4389036847742521
 50
78.111341960371831
 51
6.0090059574946508
  0
ARC
  8
_0-0_
  6
CONTINUOUS
 62
    7
 10
-7.286408409060229
 20
3.6337965324345731
 40
0.4389036847742521
 50
78.111341960371831
 51
6.0090059574946508
  0
ARC
  8
_0-0_
  6
CONTINUOUS
 62
    7
 10
-5.6531811270299954
 20
3.5291024758941774
 40
0.4389036847742521
 50
78.111341960371831
 51
6.0090059574946508
  0
ARC
  8
_0-0_
  6
CONTINUOUS
 62
    7
 10
-3.8943209771512812
 20
3.4034696080456968
 40
0.4389036847742521
 50
78.111341960371831
 51
6.0090059574946508
  0
ARC
  8
_0-0_
  6
CONTINUOUS
 62
    7
 10
-2.1563996385806519
 20
3.3197143628133716
 40
0.4389036847742521
 50
78.111341960371831
 51
6.0090059574946508
  0
ARC
  8
_0-0_
  6
CONTINUOUS
 62
    7
 10
-0.4184783000100225
 20
3.4034696080456968
 40
0.4389036847742521
 50
78.111341960371831
 51
6.0090059574946508
  0
ARC
  8
_0-0_
  6
CONTINUOUS
 62
    7
 10
1.5288311516414126
 20
3.298775551505301
 40
0.4389036847742521
 50
78.111341960371831
 51
6.0090059574946508
  0
ARC
  8
_0-0_
  6
CONTINUOUS
 62
    7
 10
3.3086301128281974
 20
3.1940814949649052
 40
0.4389036847742521
 50
78.111341960371831
 51
6.0090059574946508
  0
ARC
  8
_0-0_
  6
CONTINUOUS
 62
    7
 10
5.0465514513988268
 20
3.0893874384244953
 40
0.4389036847742521
 50
78.111341960371831
 51
6.0090059574946508
  0
ARC
  8
_0-0_
  6
CONTINUOUS
 62
    7
 10
6.8682280352017813
 20
3.026571004500255
 40
0.4389036847742521
 50
78.111341960371831
 51
6.0090059574946508
  0
ARC
  8
_0-0_
  6
CONTINUOUS
 62
    7
 10
9.0249255999340079
 20
2.942815759267944
 40
0.4389036847742521
 50
78.111341960371831
 51
6.0090059574946508
  0
ARC
  8
_0-0_
  6
CONTINUOUS
 62
    7
 10
9.0039867886259231
 20
1.435221345086191
 40
0.4389036847742521
 50
78.111341960371831
 51
6.0090059574946508
  0
ARC
  8
_0-0_
  6
CONTINUOUS
 62
    7
 10
7.0985549595906576
 20
1.3933437224700214
 40
0.4389036847742521
 50
78.111341960371831
 51
6.0090059574946508
  0
ARC
  8
_0-0_
  6
CONTINUOUS
 62
    7
 10
5.1303066966311519
 20
1.5817930242427423
 40
0.4389036847742521
 50
78.111341960371831
 51
6.0090059574946508
  0
ARC
  8
_0-0_
  6
CONTINUOUS
 62
    7
 10
3.0992419997473917
 20
1.7283647033993077
 40
0.4389036847742521
 50
78.111341960371831
 51
6.0090059574946508
  0
ARC
  8
_0-0_
  6
CONTINUOUS
 62
    7
 10
1.4241370951010026
 20
1.7283647033993077
 40
0.4389036847742521
 50
78.111341960371831
 51
6.0090059574946508
  0
ARC
  8
_0-0_
  6
CONTINUOUS
 62
    7
 10
-0.2719066208534712
 20
1.8330587599397035
 40
0.4389036847742521
 50
78.111341960371831
 51
6.0090059574946508
  0
ARC
  8
_0-0_
  6
CONTINUOUS
 62
    7
 10
-7.4120412769087096
 20
2.2937126087174704
 40
0.4389036847742521
 50
78.111341960371831
 51
6.0090059574946508
  0
ARC
  8
_0-0_
  6
CONTINUOUS
 62
    7
 10
-9.0033909363227878
 20
2.2937126087174704
 40
0.4389036847742521
 50
78.111341960371831
 51
6.0090059574946508
  0
ARC
  8
_0-0_
  6
CONTINUOUS
 62
    7
 10
-10.552862973120696
 20
2.4402842878740216
 40
0.4389036847742521
 50
78.111341960371831
 51
6.0090059574946508
  0
ARC
  8
_0-0_
  6
CONTINUOUS
 62
    7
 10
-12.353600745615566
 20
2.5449783444144174
 40
0.4389036847742521
 50
78.111341960371831
 51
6.0090059574946508
  0
ARC
  8
_0-0_
  6
CONTINUOUS
 62
    7
 10
-14.04964446157004
 20
2.6287335896467425
 40
0.4389036847742521
 50
78.111341960371831
 51
6.0090059574946508
  0
ARC
  8
_0-0_
  6
CONTINUOUS
 62
    7
 10
-15.578177687059878
 20
2.670611212262898
 40
0.4389036847742521
 50
78.111341960371831
 51
6.0090059574946508
  0
ARC
  8
_0-0_
  6
CONTINUOUS
 62
    7
 10
-16.394791328074987
 20
1.3305272885457811
 40
0.4389036847742521
 50
78.111341960371831
 51
6.0090059574946508
  0
ARC
  8
_0-0_
  6
CONTINUOUS
 62
    7
 10
-14.824380479968994
 20
1.2467720433134701
 40
0.4389036847742521
 50
78.111341960371831
 51
6.0090059574946508
  0
ARC
  8
_0-0_
  6
CONTINUOUS
 62
    7
 10
-13.19115319793876
 20
1.1839556093892298
 40
0.4389036847742521
 50
78.111341960371831
 51
6.0090059574946508
  0
ARC
  8
_0-0_
  6
CONTINUOUS
 62
    7
 10
-8.626492332777346
 20
0.8489346284599435
 40
0.4389036847742521
 50
78.111341960371831
 51
6.0090059574946508
  0
ARC
  8
_0-0_
  6
CONTINUOUS
 62
    7
 10
1.047238491555575
 20
0.3882807796821907
 40
0.4389036847742521
 50
78.111341960371831
 51
6.0090059574946508
  0
ARC
  8
_0-0_
  6
CONTINUOUS
 62
    7
 10
6.3656965638078589
 20
0.0951374213690741
 40
0.4389036847742521
 50
78.111341960371831
 51
6.0090059574946508
  0
ARC
  8
_0-0_
  6
CONTINUOUS
 62
    7
 10
7.7476581101411313
 20
0.1160762326771589
 40
0.4389036847742521
 50
78.111341960371831
 51
6.0090059574946508
  0
ARC
  8
_0-0_
  6
CONTINUOUS
 62
    7
 10
9.7159063731006512
 20
-0.1980059369440425
 40
0.4389036847742521
 50
78.111341960371831
 51
6.0090059574946508
  0
ARC
  8
_0-0_
  6
CONTINUOUS
 62
    7
 10
8.8783539207774567
 20
-1.5380898606611595
 40
0.4389036847742521
 50
78.111341960371831
 51
6.0090059574946508
  0
ARC
  8
_0-0_
  6
CONTINUOUS
 62
    7
 10
6.9519832804340922
 20
-1.4333958041207637
 40
0.4389036847742521
 50
78.111341960371831
 51
6.0090059574946508
  0
ARC
  8
_0-0_
  6
CONTINUOUS
 62
    7
 10
5.0674902627069116
 20
-1.2658853136561135
 40
0.4389036847742521
 50
78.111341960371831
 51
6.0090059574946508
  0
ARC
  8
_0-0_
  6
CONTINUOUS
 62
    7
 10
3.2458136789039571
 20
-1.1402524458076329
 40
0.4389036847742521
 50
78.111341960371831
 51
6.0090059574946508
  0
ARC
  8
_0-0_
  6
CONTINUOUS
 62
    7
 10
1.6335252081818084
 20
-1.0146195779591665
 40
0.4389036847742521
 50
78.111341960371831
 51
6.0090059574946508
  0
ARC
  8
_0-0_
  6
CONTINUOUS
 62
    7
 10
-0.2928454321615419
 20
-0.8889867101106858
 40
0.4389036847742521
 50
78.111341960371831
 51
6.0090059574946508
  0
ARC
  8
_0-0_
  6
CONTINUOUS
 62
    7
 10
-2.2610936951210618
 20
-0.7214762196460355
 40
0.4389036847742521
 50
78.111341960371831
 51
6.0090059574946508
  0
ARC
  8
_0-0_
  6
CONTINUOUS
 62
    7
 10
-5.8206916174946457
 20
-0.6167821631056398
 40
0.4389036847742521
 50
78.111341960371831
 51
6.0090059574946508
  0
ARC
  8
_0-0_
  6
CONTINUOUS
 62
    7
 10
-7.4329800882167945
 20
-0.4911492952571592
 40
0.4389036847742521
 50
78.111341960371831
 51
6.0090059574946508
  0
ARC
  8
_0-0_
  6
CONTINUOUS
 62
    7
 10
-9.0033909363227878
 20
-0.4492716726410037
 40
0.4389036847742521
 50
78.111341960371831
 51
6.0090059574946508
  0
ARC
  8
_0-0_
  6
CONTINUOUS
 62
    7
 10
-10.594740595736852
 20
-0.2817611821763677
 40
0.4389036847742521
 50
78.111341960371831
 51
6.0090059574946508
  0
ARC
  8
_0-0_
  6
CONTINUOUS
 62
    7
 10
-12.458294802155962
 20
-0.1770671256359577
 40
0.4389036847742521
 50
78.111341960371831
 51
6.0090059574946508
  0
ARC
  8
_0-0_
  6
CONTINUOUS
 62
    7
 10
-13.903072782413474
 20
-0.1561283143278871
 40
0.4389036847742521
 50
78.111341960371831
 51
6.0090059574946508
  0
ARC
  8
_0-0_
  6
CONTINUOUS
 62
    7
 10
-15.640994120984118
 20
-0.0723730690955619
 40
0.4389036847742521
 50
78.111341960371831
 51
6.0090059574946508
  0
ARC
  8
_0-0_
  6
CONTINUOUS
 62
    7
 10
-15.620055309676033
 20
-1.4543346154288344
 40
0.4389036847742521
 50
78.111341960371831
 51
6.0090059574946508
  0
ARC
  8
_0-0_
  6
CONTINUOUS
 62
    7
 10
-14.238093763342761
 20
-1.2868241249641983
 40
0.4389036847742521
 50
78.111341960371831
 51
6.0090059574946508
  0
ARC
  8
_0-0_
  6
CONTINUOUS
 62
    7
 10
-12.395478368231721
 20
-1.7056003511257956
 40
0.4389036847742521
 50
78.111341960371831
 51
6.0090059574946508
  0
ARC
  8
_0-0_
  6
CONTINUOUS
 62
    7
 10
-10.490046539196456
 20
-1.6637227285096401
 40
0.4389036847742521
 50
78.111341960371831
 51
6.0090059574946508
  0
ARC
  8
_0-0_
  6
CONTINUOUS
 62
    7
 10
-8.9824521250147029
 20
-1.8312332189742762
 40
0.4389036847742521
 50
78.111341960371831
 51
6.0090059574946508
  0
ARC
  8
_0-0_
  6
CONTINUOUS
 62
    7
 10
-7.2445307864440736
 20
-1.9568660868227568
 40
0.4389036847742521
 50
78.111341960371831
 51
6.0090059574946508
  0
ARC
  8
_0-0_
  6
CONTINUOUS
 62
    7
 10
-5.5484870704895997
 20
-1.9568660868227568
 40
0.4389036847742521
 50
78.111341960371831
 51
6.0090059574946508
  0
ARC
  8
_0-0_
  6
CONTINUOUS
 62
    7
 10
-3.7686881093028148
 20
-2.1453153885954777
 40
0.4389036847742521
 50
78.111341960371831
 51
6.0090059574946508
  0
ARC
  8
_0-0_
  6
CONTINUOUS
 62
    7
 10
-1.9888891481160158
 20
-2.2290706338277886
 40
0.4389036847742521
 50
78.111341960371831
 51
6.0090059574946508
  0
ARC
  8
_0-0_
  6
CONTINUOUS
 62
    7
 10
-0.5231723565504182
 20
-2.2290706338277886
 40
0.4389036847742521
 50
78.111341960371831
 51
6.0090059574946508
  0
ARC
  8
_0-0_
  6
CONTINUOUS
 62
    7
 10
1.5078923403333278
 20
-2.4803363695247498
 40
0.4389036847742521
 50
78.111341960371831
 51
6.0090059574946508
  0
ARC
  8
_0-0_
  6
CONTINUOUS
 62
    7
 10
3.4552017919847628
 20
-2.6897244826055555
 40
0.4389036847742521
 50
78.111341960371831
 51
6.0090059574946508
  0
ARC
  8
_0-0_
  6
CONTINUOUS
 62
    7
 10
5.2559395644796325
 20
-2.731602105221711
 40
0.4389036847742521
 50
78.111341960371831
 51
6.0090059574946508
  0
ARC
  8
_0-0_
  6
CONTINUOUS
 62
    7
 10
6.972922091742177
 20
-2.9619290296105873
 40
0.4389036847742521
 50
78.111341960371831
 51
6.0090059574946508
  0
ARC
  8
_0-0_
  6
CONTINUOUS
 62
    7
 10
8.8783539207774567
 20
-3.003806652226757
 40
0.4389036847742521
 50
78.111341960371831
 51
6.0090059574946508
  0
ARC
  8
_0-0_
  6
CONTINUOUS
 62
    7
 10
21.242006543793508
 20
-9.9819272202446427
 40
4.7207472116183933
 50
133.47895733925404
 51
189.35308970015782
  0
ARC
  8
_0-0_
  6
CONTINUOUS
 62
    7
 10
19.884796952486781
 20
-8.5400440465858196
 40
2.7406076203891896
 50
78.086854493055625
 51
133.63187804015573
  0
ARC
  8
_0-0_
  6
CONTINUOUS
 62
    7
 10
20.378499932330286
 20
-7.2499667436145216
 40
1.3933655541617798
 50
23.943459549339348
 51
87.036485405730573
  0
ARC
  8
_0-0_
  6
CONTINUOUS
 62
    7
 10
-19.767598919278171
 20
-17.934333165679085
 40
0.5197389900843463
 50
65.9635260037183
 51
124.27110369622507
  0
ARC
  8
_0-0_
  6
CONTINUOUS
 62
    7
 10
-20.802924633085425
 20
-19.396937559354726
 40
2.3039325094000818
 50
48.535682409167869
 51
57.230596224294167
  0
ARC
  8
_0-0_
  6
CONTINUOUS
 62
    7
 10
-20.446928882205569
 20
-18.81194639016379
 40
1.6342893743232814
 50
27.616625612610584
 51
44.304408780680141
  0
ARC
  8
_0-0_
  6
CONTINUOUS
 62
    7
 10
-19.334279967801336
 20
-16.324135388797444
 40
1.7624477920019641
 50
257.80901900362056
 51
280.97196784302912
  0
ARC
  8
_0-0_
  6
CONTINUOUS
 62
    7
 10
-19.646204920105944
 20
-17.606160227451994
 40
0.4447782842073415
 50
195.24842175030605
 51
262.21437224801662
  0
ARC
  8
_0-0_
  6
CONTINUOUS
 62
    7
 10
-19.817237544146124
 20
-17.631264438268815
 40
0.2739522880199102
 50
152.5147745014454
 51
199.59485304047556
  0
ARC
  8
_0-0_
  6
CONTINUOUS
 62
    7
 10
9.509021952695548
 20
-21.914462805669082
 40
0.3111943100896401
 50
79.69917974886711
 51
156.44579412283832
  0
ARC
  8
_0-0_
  6
CONTINUOUS
 62
    7
 10
9.5496112415211627
 20
-22.345185508608921
 40
0.7370551513016218
 50
56.295303921331126
 51
88.829421008728403
  0
ARC
  8
_0-0_
  6
CONTINUOUS
 62
    7
 10
9.8143714469848788
 20
-21.917854358636092
 40
0.2352419484305581
 50
1.5922253640322084
 51
52.181643020916397
  0
ARC
  8
_0-0_
  6
CONTINUOUS
 62
    7
 10
9.7888591054198173
 20
-21.938305924467819
 40
0.2620568495034862
 50
311.83945936827763
 51
5.9111023395770044
  0
ARC
  8
_0-0_
  6
CONTINUOUS
 62
    7
 10
9.7050446960356282
 20
-21.670629522225163
 40
0.5302565581964396
 50
247.72641940958823
 51
299.19102922802483
  0
ARC
  8
_0-0_
  6
CONTINUOUS
 62
    7
 10
9.5461681379560162
 20
-21.783924545606489
 40
0.3797378728445935
 50
211.89262255834387
 51
263.6338043373982
  0
ARC
  8
_0-0_
  6
CONTINUOUS
 62
    7
 10
9.4124502261692413
 20
-21.887327754399934
 40
0.2122687861088305
 50
152.74059116504461
 51
207.2594088349571
  0
LINE
  8
_0-0_
  6
CONTINUOUS
 62
    7
 10
12.226784141342605
 20
-22.233963151275702
 11
10.050058495453271
 21
-21.917124068603719
  0
LINE
  8
_0-0_
  6
CONTINUOUS
 62
    7
 10
9.2227941929326107
 20
-21.79670941587387
 11
-19.274210324526706
 21
-17.648752236583945
  0
LINE
  8
_0-0_
  6
CONTINUOUS
 62
    7
 10
-20.072773184547842
 20
-17.532515298546841
 11
-21.584964010187875
 21
-17.312404346610577
  0
LINE
  8
_0-0_
  6
CONTINUOUS
 62
    7
 10
-13.201207916464909
 20
-21.347180372995062
 11
-8.1401520716168392
 21
-20.537411437819372
  0
ARC
  8
_0-0_
  6
CONTINUOUS
 62
    7
 10
13.085528582847459
 20
-24.592293300371445
 40
0.2097993262643906
 50
111.94340617088585
 51
276.12908076496836
  0
ARC
  8
_0-0_
  6
CONTINUOUS
 62
    7
 10
13.5503287797941
 20
-21.838492133521846
 40
2.995252764442077
 50
261.50631217507618
 51
283.07490791020138
  0
ARC
  8
_0-0_
  6
CONTINUOUS
 62
    7
 10
11.946861433701812
 20
-15.896889615928899
 40
9.1481561365921209
 50
284.43888955108076
 51
292.43100809476289
  0
ARC
  8
_0-0_
  6
CONTINUOUS
 62
    7
 10
14.252815857115294
 20
-21.984927449807245
 40
2.6477931174667781
 50
296.57919642311805
 51
316.60298011168004
  0
ARC
  8
_0-0_
  6
CONTINUOUS
 62
    7
 10
15.799842061732335
 20
-23.704750458545483
 40
0.3897606585684827
 50
345.23347798561485
 51
72.178427101191275
  0
ARC
  8
_0-0_
  6
CONTINUOUS
 62
    7
 10
13.059482060182944
 20
-22.014957324572443
 40
2.3833109800212369
 50
268.74129875874939
 51
284.79105088635595
  0
ARC
  8
_0-0_
  6
CONTINUOUS
 62
    7
 10
13.484146933569477
 20
-23.534020124683721
 40
0.8064921351735494
 50
283.17217878684721
 51
335.27916940782586
  0
ARC
  8
_0-0_
  6
CONTINUOUS
 62
    7
 10
13.889128923351635
 20
-23.748092942664123
 40
0.3500001483031809
 50
339.39030706246677
 51
20.609692937533225
  0
ARC
  8
_0-0_
  6
CONTINUOUS
 62
    7
 10
17.149865788872589
 20
-25.184222583443727
 40
0.1654758694537881
 50
150.72061242455439
 51
270.43784132042191
  0
ARC
  8
_0-0_
  6
CONTINUOUS
 62
    7
 10
15.64065693823747
 20
-38.474571909922233
 40
13.211508615009912
 50
80.934401830411332
 51
83.435011076055574
  0
ARC
  8
_0-0_
  6
CONTINUOUS
 62
    7
 10
17.627752729715596
 20
-29.608806537096321
 40
4.1817825350170565
 50
73.115393958666957
 51
88.704052199688135
  0
ARC
  8
_0-0_
  6
CONTINUOUS
 62
    7
 10
18.652100638503313
 20
-28.966786063035919
 40
3.3648738953423916
 50
70.358810071731725
 51
86.759102190732875
  0
ARC
  8
_0-0_
  6
CONTINUOUS
 62
    7
 10
18.626419819542136
 20
-29.849295527882028
 40
4.2134852793903761
 50
65.287500026165517
 51
74.066226314509322
  0
ARC
  8
_0-0_
  6
CONTINUOUS
 62
    7
 10
21.171932009244642
 20
-21.505291992337369
 40
4.5839440187463794
 50
260.15218278274688
 51
270.69997469745078
  0
ARC
  8
_0-0_
  6
CONTINUOUS
 62
    7
 10
21.114018060654516
 20
-25.933440704089826
 40
0.1927228578537687
 50
306.23344455568918
 51
28.158023313737601
  0
ARC
  8
_0-0_
  6
CONTINUOUS
 62
    7
 10
20.205669530851324
 20
-27.555625590486812
 40
2.0242209620155789
 50
57.813272041986593
 51
81.961551379863437
  0
ARC
  8
_0-0_
  6
CONTINUOUS
 62
    7
 10
11.687927990646642
 20
-79.305716483753258
 40
54.470102940696862
 50
80.701889855616798
 51
82.036506567286182
  0
ARC
  8
_0-0_
  6
CONTINUOUS
 62
    7
 10
15.991129814017711
 20
-40.679300116813138
 40
15.65796706377121
 50
78.045908998857925
 51
81.792895026057067
  0
ARC
  8
_0-0_
  6
CONTINUOUS
 62
    7
 10
17.429646662867555
 20
-28.043199036104745
 40
2.9703399130017121
 50
74.44203603810648
 51
98.208964920234465
  0
ARC
  8
_0-0_
  6
CONTINUOUS
 62
    7
 10
18.437387137979556
 20
-23.609668931914833
 40
0.7768663649343817
 50
345.50668605484998
 51
68.735920753468449
  0
ARC
  8
_0-0_
  6
CONTINUOUS
 62
    7
 10
21.650332211952673
 20
-23.678492913173208
 40
2.4640042908057533
 50
182.92185897017302
 51
193.72944169067802
  0
ARC
  8
_0-0_
  6
CONTINUOUS
 62
    7
 10
19.182102594678938
 20
-26.003522469771447
 40
1.7418287733348687
 50
71.377220221546651
 51
87.544412321198351
  0
ARC
  8
_0-0_
  6
CONTINUOUS
 62
    7
 10
18.786330998409966
 20
-26.564894136208345
 40
2.4081638055904584
 50
52.463902383972759
 51
66.713935081775901
  0
ARC
  8
_0-0_
  6
CONTINUOUS
 62
    7
 10
21.950724072146372
 20
-20.115080274496009
 40
4.8470606332106509
 50
249.50358349900245
 51
267.54536299815186
  0
ARC
  8
_0-0_
  6
CONTINUOUS
 62
    7
 10
22.079132393646532
 20
-22.518892421823367
 40
2.4618380483029885
 50
262.15559081691521
 51
271.30343333671738
  0
ENDBLK
  0
ENDSEC
  0
SECTION
  2
ENTITIES
  0
LINE
  8
_0-0_
  6
CONTINUOUS
 62
    7
 10
-1244.420826261083
 20
-1127.4836411798831
 11
1755.579173738917
 21
-1127.4836411798831
  0
LINE
  8
_0-0_
  6
CONTINUOUS
 62
    7
 10
1755.579173738917
 20
-1127.4836411798831
 11
1755.579173738917
 21
1392.5163588201169
  0
LINE
  8
_0-0_
  6
CONTINUOUS
 62
    7
 10
1755.579173738917
 20
1392.5163588201169
 11
-1244.420826261083
 21
1392.5163588201169
  0
LINE
  8
_0-0_
  6
CONTINUOUS
 62
    7
 10
-1244.420826261083
 20
1392.5163588201169
 11
-1244.420826261083
 21
-1127.4836411798831
  0
INSERT
  2
-001-4
  8
_0-0_
 10
139.57653061224488
 20
108.53571428571429
 41
1
 42
1
 50
0
  0
ENDSEC
  0
EOF
