  0
SECTION
  2
HEADER
  9
$ACADVER
  1
AC1009
  9
$INSBASE
 10
0
 20
0
 30
0
  9
$EXTMIN
 10
0
 20
0
  9
$EXTMAX
 10
297
 20
210
  9
$LIMMIN
 10
0
 20
0
  9
$LIMMAX
 10
297
 20
210
  9
$LTSCALE
 40
1
  0
ENDSEC
  0
SECTION
  2
TABLES
  0
TABLE
  2
LTYPE
 70
     9
  0
LTYPE
  2
CONTINUOUS
 70
    64
  3
実線
 72
    65
 73
     0
 40
0.0
  0
LTYPE
  2
DASHED1
 70
    64
  3
--  --  --  --  --  --  --  --  
 72
    65
 73
     2
 40
2.5
 49
1.25
 49
-1.25
  0
LTYPE
  2
DASHED2
 70
    64
  3
----    ----    ----    ----    
 72
    65
 73
     2
 40
5.0
 49
2.5
 49
-2.5
  0
LTYPE
  2
DASHED3
 70
    64
  3
------  ------  ------  ------  
 72
    65
 73
     2
 40
5.0
 49
3.75
 49
-1.25
  0
LTYPE
  2
CENTER1
 70
    64
  3
----- - ----- - ----- - ----- - 
 72
    65
 73
     4
 40
10.0
 49
6.25
 49
-1.25
 49
1.25
 49
-1.25
  0
LTYPE
  2
CENTER2
 70
    64
  3
----------  --  ----------  --  
 72
    65
 73
     4
 40
20.0
 49
12.5
 49
-2.5
 49
2.5
 49
-2.5
  0
LTYPE
  2
PHANTOM1
 70
    64
  3
--- - - --- - - --- - - --- - - 
 72
    65
 73
     6
 40
10.0
 49
3.25
 49
-1.25
 49
1.25
 49
-1.25
 49
1.25
 49
-1.25
  0
LTYPE
  2
PHANTOM2
 70
    64
  3
--------  -  -  --------  -  -  
 72
    65
 73
     6
 40
20.0
 49
10.0
 49
-2.5
 49
1.25
 49
-2.5
 49
1.25
 49
-2.5
  0
LTYPE
  2
DOT
 70
    64
  3
-   -   -   -   -   -   -   -   
 72
    65
 73
     2
 40
2.5
 49
0.625
 49
-1.875
  0
LTYPE
  2
DUMMY
 70
    64
  3
ダミー
 72
    65
 73
     0
 40
0.0
  0
LTYPE
  2
RAND1
 70
    64
  3
ランダム線1
 72
    65
 73
     4
 40
10.0
 49
1.0
 49
-2.0
 49
3.0
 49
-4.0
  0
LTYPE
  2
RAND2
 70
    64
  3
ランダム線2
 72
    65
 73
     4
 40
14.0
 49
2.0
 49
-3.0
 49
4.0
 49
-5.0
  0
LTYPE
  2
RAND3
 70
    64
  3
ランダム線3
 72
    65
 73
     4
 40
18.0
 49
3.0
 49
-4.0
 49
5.0
 49
-6.0
  0
LTYPE
  2
RAND4
 70
    64
  3
ランダム線4
 72
    65
 73
     4
 40
22.0
 49
4.0
 49
-5.0
 49
6.0
 49
-7.0
  0
LTYPE
  2
RAND5
 70
    64
  3
ランダム線5
 72
    65
 73
     4
 40
26.0
 49
5.0
 49
-6.0
 49
7.0
 49
-8.0
  0
LTYPE
  2
LONG1
 70
    64
  3
----------  --  ----------  --  
 72
    65
 73
     4
 40
40.0
 49
32.5
 49
-2.5
 49
2.5
 49
-2.5
  0
LTYPE
  2
LONG2
 70
    64
  3
--------  -  -  --------  -  -  
 72
    65
 73
     6
 40
40.0
 49
30.0
 49
-2.5
 49
1.25
 49
-2.5
 49
1.25
 49
-2.5
  0
LTYPE
  2
LONG3
 70
    64
  3
+++++++++++++++..+++++++++++++++
 72
    65
 73
     2
 40
40.0
 49
37.5
 49
-2.5
  0
LTYPE
  2
LONG4
 70
    64
  3
+++++++++++++++..+++++++++++++++
 72
    65
 73
     2
 40
80.0
 49
75.0
 49
-5.0
  0
LTYPE
  2
LONG5
 70
    64
  3
----------  --  ----------  --  
 72
    65
 73
     4
 40
60.0
 49
37.5
 49
-7.5
 49
7.5
 49
-7.5
  0
LTYPE
  2
dashed
 70
   64
  3
-------   -------------   ------
 72
   65
 73
    2
 40
7.5
 49
6
 49
-1.5
  0
LTYPE
  2
dashed_spaced
 70
   64
  3
----        --------        ----
 72
   65
 73
    2
 40
12
 49
6
 49
-6
  0
LTYPE
  2
long_dashed_dotted
 70
   64
  3
------------- --- --------------
 72
   65
 73
    4
 40
15.25
 49
12
 49
-1.5
 49
0.25
 49
-1.5
  0
LTYPE
  2
long_dashed_double-dotted
 70
   64
  3
----------- --- --- ------------
 72
   65
 73
    6
 40
17
 49
12
 49
-1.5
 49
0.25
 49
-1.5
 49
0.25
 49
-1.5
  0
LTYPE
  2
long_dashed_triplicate-dotted
 70
   64
  3
--------- --- --- --- ----------
 72
   65
 73
    8
 40
18.75
 49
12
 49
-1.5
 49
0.25
 49
-1.5
 49
0.25
 49
-1.5
 49
0.25
 49
-1.5
  0
LTYPE
  2
dotted
 70
   64
  3
   -       -       -       -    
 72
   65
 73
    2
 40
1.75
 49
0.25
 49
-1.5
  0
LTYPE
  2
chain
 70
   64
  3
-------------- -- --------------
 72
   65
 73
    4
 40
18.5
 49
12
 49
-1.5
 49
3.5
 49
-1.5
  0
LTYPE
  2
chain_double_dash
 70
   64
  3
------------ -- -- -------------
 72
   65
 73
    6
 40
23.5
 49
12
 49
-1.5
 49
3.5
 49
-1.5
 49
3.5
 49
-1.5
  0
LTYPE
  2
dashed_dotted
 70
   64
  3
-----------     -     ----------
 72
   65
 73
    4
 40
9.25
 49
6
 49
-1.5
 49
0.25
 49
-1.5
  0
LTYPE
  2
double-dashed_dotted
 70
   64
  3
------   -----------   -   -----
 72
   65
 73
    6
 40
16.75
 49
6
 49
-1.5
 49
6
 49
-1.5
 49
0.25
 49
-1.5
  0
LTYPE
  2
dashed_double-dotted
 70
   64
  3
---------    -    -    ---------
 72
   65
 73
    6
 40
11
 49
6
 49
-1.5
 49
0.25
 49
-1.5
 49
0.25
 49
-1.5
  0
LTYPE
  2
double-dashed_double-dotted
 70
   64
  3
-----   ---------   -   -   ----
 72
   65
 73
    8
 40
18.5
 49
6
 49
-1.5
 49
6
 49
-1.5
 49
0.25
 49
-1.5
 49
0.25
 49
-1.5
  0
LTYPE
  2
dashed_triplicate-dotted
 70
   64
  3
-------    -    -    -    ------
 72
   65
 73
    8
 40
12.75
 49
6
 49
-1.5
 49
0.25
 49
-1.5
 49
0.25
 49
-1.5
 49
0.25
 49
-1.5
  0
LTYPE
  2
double-dashed_triplicate-dotted
 70
   64
  3
-----  ---------  -  -  -  -----
 72
   65
 73
   10
 40
20.25
 49
6
 49
-1.5
 49
6
 49
-1.5
 49
0.25
 49
-1.5
 49
0.25
 49
-1.5
 49
0.25
 49
-1.5
  0
LTYPE
  2
undefined
 70
   64
  3
--------------------------------
 72
   65
 73
    0
 40
0
  0
LTYPE
  2
_
 70
   64
  3
                                
 72
   65
 73
    0
 40
0
  0
LTYPE
  2
__18
 70
   64
  3
                                
 72
   65
 73
    0
 40
0
  0
LTYPE
  2
__19
 70
   64
  3
                                
 72
   65
 73
    0
 40
0
  0
LTYPE
  2
__20
 70
   64
  3
                                
 72
   65
 73
    0
 40
0
  0
LTYPE
  2
__21
 70
   64
  3
                                
 72
   65
 73
    0
 40
0
  0
LTYPE
  2
__22
 70
   64
  3
                                
 72
   65
 73
    0
 40
0
  0
LTYPE
  2
__23
 70
   64
  3
                                
 72
   65
 73
    0
 40
0
  0
LTYPE
  2
__24
 70
   64
  3
                                
 72
   65
 73
    0
 40
0
  0
LTYPE
  2
__25
 70
   64
  3
                                
 72
   65
 73
    0
 40
0
  0
LTYPE
  2
__26
 70
   64
  3
                                
 72
   65
 73
    0
 40
0
  0
LTYPE
  2
__27
 70
   64
  3
                                
 72
   65
 73
    0
 40
0
  0
LTYPE
  2
__28
 70
   64
  3
                                
 72
   65
 73
    0
 40
0
  0
LTYPE
  2
__29
 70
   64
  3
                                
 72
   65
 73
    0
 40
0
  0
LTYPE
  2
__30
 70
   64
  3
                                
 72
   65
 73
    0
 40
0
  0
LTYPE
  2
__31
 70
   64
  3
                                
 72
   65
 73
    0
 40
0
  0
LTYPE
  2
__32
 70
   64
  3
                                
 72
   65
 73
    0
 40
0
  0
ENDTAB
  0
TABLE
  2
STYLE
  5
3
100
AcDbSymbolTable
 70
     1
  0
STYLE
  5
10
100
AcDbSymbolTableRecord
100
AcDbTextStyleTableRecord
  2
STANDARD
 70
     0
 40
0.0
 41
1.0
 50
0.0
 71
     0
 42
0.2
  3
txt
  4
bigfont.shx
  0
STYLE
  5
26
100
AcDbSymbolTableRecord
100
AcDbTextStyleTableRecord
  2
TATEGAKI
 70
    68
 40
0.0
 41
1.0
 50
0.0
 71
     0
 42
1.0
  3
txt
  4
bigfont.shx
  0
ENDTAB
  0
TABLE
  2
LAYER
 70
    2
  0
LAYER
  2
_0-0_
 70
   64
 62
    7
  6
CONTINUOUS
  0
LAYER
  2
ADD_LINE
 70
   64
 62
    7
  6
CONTINUOUS
  0
ENDTAB
  0
ENDSEC
  0
SECTION
  2
BLOCKS
  0
BLOCK
  2
-005-44
 70
   64
 10
0
 20
0
 30
0
  0
LINE
  8
_0-0_
  6
CONTINUOUS
 62
    7
 10
-27.18109520530956
 20
7.0734283858452187
 11
23.196845780001766
 21
-5.2627863548281155
  0
LINE
  8
_0-0_
  6
CONTINUOUS
 62
    7
 10
-25.479548344527018
 20
7.92420181623649
 11
23.500693433712939
 21
-3.9258566784989881
  0
LINE
  8
_0-0_
  6
CONTINUOUS
 62
    7
 10
-24.628774914135761
 20
0.3280104734573399
 11
18.821439566560983
 21
-10.48896599866017
  0
LINE
  8
_0-0_
  6
CONTINUOUS
 62
    7
 10
-29.325640333190719
 20
6.2013662663404432
 11
-27.824787750687477
 21
1.9223397545226817
  0
LINE
  8
_0-0_
  6
CONTINUOUS
 62
    7
 10
18.669709273242788
 20
3.7425226737287431
 11
26.780699825494352
 21
2.1778040238849457
  0
LINE
  8
_0-0_
  6
CONTINUOUS
 62
    7
 10
6.1519600744923366
 20
4.2853842461235416
 11
14.582280963446721
 21
3.9660539094207223
  0
LINE
  8
_0-0_
  6
CONTINUOUS
 62
    7
 10
25.822708815385909
 20
-7.1785748415076185
 11
24.130258030860972
 21
-11.010538881941429
  0
LINE
  8
_0-0_
  6
CONTINUOUS
 62
    7
 10
28.249619374327324
 20
0.1660229026571897
 11
26.429436455121262
 21
-6.3802489997505774
  0
LINE
  8
_0-0_
  6
CONTINUOUS
 62
    7
 10
27.515159599910845
 20
1.2836790811170573
 11
26.173972185758998
 21
0.5172862730302867
  0
LINE
  8
_0-0_
  6
CONTINUOUS
 62
    7
 10
25.34371331033168
 20
-1.0793654104838026
 11
24.705052636926041
 21
-3.3146777674035235
  0
LINE
  8
_0-0_
  6
CONTINUOUS
 62
    7
 10
7.6847456906658493
 20
6.6803617713946721
 11
16.402463882652782
 21
4.1895851451126873
  0
LINE
  8
_0-0_
  6
CONTINUOUS
 62
    7
 10
16.402463882652782
 20
4.1895851451126873
 11
18.669709273242788
 21
3.7425226737287431
  0
LINE
  8
_0-0_
  6
CONTINUOUS
 62
    7
 10
15.604138040895734
 20
3.8063887410693127
 11
17.168856690739545
 21
3.8063887410693127
  0
LINE
  8
_0-0_
  6
CONTINUOUS
 62
    7
 10
13.273026582965173
 20
5.0517770542103051
 11
32.624444987155925
 21
6.2971653673512833
  0
LINE
  8
_0-0_
  6
CONTINUOUS
 62
    7
 10
33.614369030934654
 20
5.754303794956499
 11
35.274886781789291
 21
-4.655865181555356
  0
LINE
  8
_0-0_
  6
CONTINUOUS
 62
    7
 10
34.444627906361973
 20
-5.7096552926746611
 11
26.557168589802387
 21
-6.2844498987397301
  0
LINE
  8
_0-0_
  6
CONTINUOUS
 62
    7
 10
25.27984724299111
 20
-8.5516952893297358
 11
33.167306559550724
 21
-8.0088337169349444
  0
LINE
  8
_0-0_
  6
CONTINUOUS
 62
    7
 10
33.710168131945494
 20
-5.7735213600152235
 11
33.901766333967203
 21
-6.5718472017722647
  0
ARC
  8
_0-0_
  6
CONTINUOUS
 62
    7
 10
4.3271766334863884
 20
1.0891040708718549
 40
3.2249221922293367
 50
141.33643735370626
 51
171.40480718498085
  0
ARC
  8
_0-0_
  6
CONTINUOUS
 62
    7
 10
6.8048584062224791
 20
-2.151155989627739
 40
7.250733818036835
 50
111.29074229423422
 51
133.55138723077945
  0
ARC
  8
_0-0_
  6
CONTINUOUS
 62
    7
 10
-26.786964156399904
 20
77.819177530358104
 40
79.491018236932248
 50
292.92129775858729
 51
294.07583359331625
  0
ARC
  8
_0-0_
  6
CONTINUOUS
 62
    7
 10
4.4595092899695175
 20
8.0534822192136915
 40
3.048392356753713
 50
292.80454047130667
 51
315.42440541937486
  0
ARC
  8
_0-0_
  6
CONTINUOUS
 62
    7
 10
4.1830364458228075
 20
8.9030689834438874
 40
3.8635510887818936
 50
309.31571185246833
 51
327.16368873973573
  0
ARC
  8
_0-0_
  6
CONTINUOUS
 62
    7
 10
7.6368461401604293
 20
6.9038930070866371
 40
0.2286057310493357
 50
204.77514056883092
 51
282.09475707701188
  0
ARC
  8
_0-0_
  6
CONTINUOUS
 62
    7
 10
4.7610189336864721
 20
1.7324927188635542
 40
2.2349219727054441
 50
91.999506349071694
 51
148.13765929465299
  0
ARC
  8
_0-0_
  6
CONTINUOUS
 62
    7
 10
26.583295617350373
 20
0.0324847618533112
 40
2.1543823145943501
 50
43.198153126449867
 51
84.742662490523443
  0
ARC
  8
_0-0_
  6
CONTINUOUS
 62
    7
 10
68.660873484155701
 20
3.7265561568996475
 40
40.567805656501648
 50
183.13604992354087
 51
185.03518363640845
  0
ARC
  8
_0-0_
  6
CONTINUOUS
 62
    7
 10
22.259702328481268
 20
-9.6247495608421403
 40
5.8324470857167343
 50
52.345832404904442
 51
77.715054557731378
  0
ARC
  8
_0-0_
  6
CONTINUOUS
 62
    7
 10
30.884094652124816
 20
-1.2549970956710865
 40
6.3004854617225625
 50
216.55046173880567
 51
225.82138859261249
  0
ARC
  8
_0-0_
  6
CONTINUOUS
 62
    7
 10
22.032050144233978
 20
-10.803320120566994
 40
5.6616484598035841
 50
58.094030778778823
 51
78.127508706629044
  0
ARC
  8
_0-0_
  6
CONTINUOUS
 62
    7
 10
21.833535993805285
 20
-9.0134960839466842
 40
4.3909493012777592
 50
24.701265454504291
 51
43.390609258699492
  0
ARC
  8
_0-0_
  6
CONTINUOUS
 62
    7
 10
24.83042905600847
 20
-5.7947228004028091
 40
1.7028404483509569
 50
305.64210497800843
 51
339.88822705884218
  0
ARC
  8
_0-0_
  6
CONTINUOUS
 62
    7
 10
22.944845466237766
 20
-8.9026344664676387
 40
2.418359769170098
 50
247.58456256217295
 51
299.35189595566175
  0
ARC
  8
_0-0_
  6
CONTINUOUS
 62
    7
 10
19.430366536447053
 20
-20.099827373480053
 40
9.32896404050204
 50
73.866418748744493
 51
86.628731367948163
  0
ARC
  8
_0-0_
  6
CONTINUOUS
 62
    7
 10
22.23353555910866
 20
0.3660198975228468
 40
11.378625482398659
 50
252.55027042129615
 51
258.57173089232612
  0
ARC
  8
_0-0_
  6
CONTINUOUS
 62
    7
 10
32.898199382871894
 20
-6.9651015155890974
 40
1.0778662164973454
 50
284.45778325035513
 51
21.398056273659062
  0
ARC
  8
_0-0_
  6
CONTINUOUS
 62
    7
 10
34.216292585958541
 20
-4.6757880034469963
 40
1.058781653731639
 50
282.45416607581558
 51
1.0781835692907809
  0
ARC
  8
_0-0_
  6
CONTINUOUS
 62
    7
 10
32.854705911761869
 20
5.5430443449311753
 40
0.7884913505272768
 50
15.541048591768822
 51
106.97936082485555
  0
ARC
  8
_0-0_
  6
CONTINUOUS
 62
    7
 10
30.976073223199961
 20
3.8001796927769078
 40
0.7105854230867058
 50
83.552904956832307
 51
158.37460810731463
  0
ARC
  8
_0-0_
  6
CONTINUOUS
 62
    7
 10
31.263426548909422
 20
3.4922449798987429
 40
1.0350519707634289
 50
38.46550852979194
 51
101.56827842640745
  0
ARC
  8
_0-0_
  6
CONTINUOUS
 62
    7
 10
31.694420805898858
 20
-3.1841997986169872
 40
0.9728212803435836
 50
230.40379136024907
 51
267.27368900609179
  0
ARC
  8
_0-0_
  6
CONTINUOUS
 62
    7
 10
32.664129143510223
 20
-3.6006513046036233
 40
0.4846604589143442
 50
276.81821457165285
 51
4.3804641013889309
  0
LINE
  8
_0-0_
  6
CONTINUOUS
 62
    7
 10
30.315503597187529
 20
4.0620564055504786
 11
31.074370785874294
 21
-3.9338125093929364
  0
LINE
  8
_0-0_
  6
CONTINUOUS
 62
    7
 10
31.648148416344753
 20
-4.1559199792524808
 11
32.721667853999207
 21
-4.081884155965966
  0
LINE
  8
_0-0_
  6
CONTINUOUS
 62
    7
 10
33.147373837896652
 20
-3.5636333929603694
 11
32.073854400242226
 21
4.1360922288370006
  0
ARC
  8
_0-0_
  6
CONTINUOUS
 62
    7
 10
28.936295236362156
 20
-1.4587075912905689
 40
0.3244752603944733
 50
357.63071967398696
 51
175.82830447964625
  0
ARC
  8
_0-0_
  6
CONTINUOUS
 62
    7
 10
28.985382726551421
 20
-1.417435833825202
 40
0.3731215889178847
 50
182.71402103709926
 51
289.90584391094166
  0
ARC
  8
_0-0_
  6
CONTINUOUS
 62
    7
 10
28.945840866387016
 20
-1.4998848188488125
 40
0.3158747315519916
 50
301.82744657667581
 51
5.042451069170081
  0
ARC
  8
_0-0_
  6
CONTINUOUS
 62
    7
 10
33.989531327780753
 20
-2.8404620476439888
 40
0.5145444879313652
 50
188.42157546227375
 51
351.57842453772577
  0
ARC
  8
_0-0_
  6
CONTINUOUS
 62
    7
 10
33.933163144142156
 20
-2.9166612553770932
 40
0.4526288833478641
 50
100.49535542426241
 51
179.89350239120887
  0
ARC
  8
_0-0_
  6
CONTINUOUS
 62
    7
 10
33.963481686253999
 20
-3.00162380230244
 40
0.5418823179593671
 50
9.1107944002656591
 51
102.01122698212912
  0
ARC
  8
_0-0_
  6
CONTINUOUS
 62
    7
 10
32.892768085141
 20
4.1685905117331004
 40
0.5154540208692973
 50
216.98951287814734
 51
332.73951599737313
  0
ARC
  8
_0-0_
  6
CONTINUOUS
 62
    7
 10
32.784135579897196
 20
3.8168127409139316
 40
0.3059318903070331
 50
112.68652667423194
 51
172.17628926811892
  0
ARC
  8
_0-0_
  6
CONTINUOUS
 62
    7
 10
32.905675719992132
 20
3.8107432456607171
 40
0.3748488966825076
 50
46.039265229382117
 51
129.71854197729223
  0
ARC
  8
_0-0_
  6
CONTINUOUS
 62
    7
 10
33.177661220150213
 20
3.9055715972403533
 40
0.1753897055537009
 50
8.8297446679067928
 51
93.850638823906209
  0
LINE
  8
_0-0_
  6
CONTINUOUS
 62
    7
 10
8.1417745228768439
 20
-3.2304721881710634
 11
7.6605416715145083
 21
-6.4140125894911293
  0
LINE
  8
_0-0_
  6
CONTINUOUS
 62
    7
 10
8.1787924345200906
 20
-6.6731379709939276
 11
16.396768819323057
 21
-8.7091231113730387
  0
LINE
  8
_0-0_
  6
CONTINUOUS
 62
    7
 10
16.655894200825855
 20
-8.3019260832972179
 11
17.544324080264019
 21
-5.3775110634799432
  0
LINE
  8
_0-0_
  6
CONTINUOUS
 62
    7
 10
17.544324080264019
 20
-5.3775110634799432
 11
8.5489715509526576
 21
-3.3045080114575782
  0
ARC
  8
_0-0_
  6
CONTINUOUS
 62
    7
 10
-28.638336178482206
 20
6.3558930729555243
 40
0.704461166454356
 50
97.711119589892292
 51
192.67112915582675
  0
ARC
  8
_0-0_
  6
CONTINUOUS
 62
    7
 10
-27.901648359635274
 20
2.6481693812213791
 40
4.4835381236489038
 50
80.751841993895241
 51
100.68397816053259
  0
ARC
  8
_0-0_
  6
CONTINUOUS
 62
    7
 10
-26.92533314604043
 20
-1.4817449472896129
 40
9.5164136212427444
 50
81.261478055240744
 51
95.223353486874487
  0
ARC
  8
_0-0_
  6
CONTINUOUS
 62
    7
 10
-27.869675455636795
 20
7.5460796277235715
 40
0.4557915800511949
 50
80.148672657197167
 51
145.09105723888393
  0
LINE
  8
_0-0_
  6
CONTINUOUS
 62
    7
 10
-28.243453067878207
 20
7.8069172420215835
 11
-29.335206381331446
 21
6.7151639285683302
  0
ARC
  8
_0-0_
  6
CONTINUOUS
 62
    7
 10
-24.396405465005529
 20
5.6019856453924604
 40
5.0292742000185884
 50
227.02452098379698
 51
250.35985449914
  0
ARC
  8
_0-0_
  6
CONTINUOUS
 62
    7
 10
-23.175852773846572
 20
6.517676298693388
 40
6.3579041966545553
 50
242.75170903211011
 51
256.78991796789512
  0
LINE
  8
_0-0_
  6
CONTINUOUS
 62
    7
 10
-25.564545091181614
 20
5.3440579662741072
 11
-24.361770081236202
 21
1.15017141843812
  0
LINE
  8
_0-0_
  6
CONTINUOUS
 62
    7
 10
-25.295503312641188
 20
5.2332760574633426
 11
-24.21933619847951
 21
1.1976493793570171
  0
LINE
  8
_0-0_
  6
CONTINUOUS
 62
    7
 10
-22.557607566318083
 20
4.3628467739502099
 11
-21.608048347940127
 21
0.4221760176816928
  0
LINE
  8
_0-0_
  6
CONTINUOUS
 62
    7
 10
-20.800923012318862
 20
-0.1159075393991528
 11
-5.6554534791904416
 21
-3.5026687516138679
  0
LINE
  8
_0-0_
  6
CONTINUOUS
 62
    7
 10
-4.9432840654069707
 20
-3.3602348688571695
 11
-5.038239987244765
 21
0.0265263433575455
  0
LINE
  8
_0-0_
  6
CONTINUOUS
 62
    7
 10
-5.4497156485418827
 20
0.4696539786005899
 11
-21.877090126480539
 21
4.6160625655176659
  0
LINE
  8
_0-0_
  6
CONTINUOUS
 62
    7
 10
-23.475514810750099
 20
5.7713596145441812
 11
-4.025376820974941
 21
0.9602595747625315
  0
LINE
  8
_0-0_
  6
CONTINUOUS
 62
    7
 10
-2.2845182539486899
 20
-0.5432091876692339
 11
-2.3794741757864841
 21
-4.2306641523703021
  0
ARC
  8
_0-0_
  6
CONTINUOUS
 62
    7
 10
-4.8359334546568675
 20
-1.5307927906771468
 40
2.6196075934705156
 50
41.371647106188881
 51
71.975773519580343
  0
ARC
  8
_0-0_
  6
CONTINUOUS
 62
    7
 10
-4.4823925672357205
 20
-1.6710529939880345
 40
2.4703609348551874
 50
27.164721978429537
 51
49.257328872692455
  0
ARC
  8
_0-0_
  6
CONTINUOUS
 62
    7
 10
-3.0764585304183214
 20
-4.0130445059569908
 40
0.7301681320809752
 50
262.57843273819014
 51
342.66005340419554
  0
ARC
  8
_0-0_
  6
CONTINUOUS
 62
    7
 10
-3.4552732437395406
 20
2.4199308383610543
 40
7.1626789310503343
 50
263.01703418305209
 51
272.27637208473141
  0
ARC
  8
_0-0_
  6
CONTINUOUS
 62
    7
 10
-5.4051530010127351
 20
-2.9025306666654132
 40
0.6502430702295793
 50
247.36037496718095
 51
315.25948998086079
  0
ARC
  8
_0-0_
  6
CONTINUOUS
 62
    7
 10
-5.5157396879447589
 20
-0.0042601469258443
 40
0.4784911411432354
 50
3.6890030310625703
 51
82.068804175615924
  0
ARC
  8
_0-0_
  6
CONTINUOUS
 62
    7
 10
-22.090740950615583
 20
4.1491959498151658
 40
0.5134307270811607
 50
65.40988283380382
 51
155.40988283380383
  0
ARC
  8
_0-0_
  6
CONTINUOUS
 62
    7
 10
-20.695555256946207
 20
0.9165298739161897
 40
1.0378002583761297
 50
208.44714062020321
 51
264.17272432783659
  0
ARC
  8
_0-0_
  6
CONTINUOUS
 62
    7
 10
-19.72179564160129
 20
5.5391502589226178
 40
6.3869005051500523
 50
223.40764645485223
 51
241.39981125072421
  0
ARC
  8
_0-0_
  6
CONTINUOUS
 62
    7
 10
-18.42702496637375
 20
6.83433840622871
 40
8.0822727369988154
 50
224.21988412312501
 51
238.87269744346338
  0
ARC
  8
_0-0_
  6
CONTINUOUS
 62
    7
 10
-24.749754043120276
 20
5.1437603186474803
 40
0.5530418905276093
 50
97.3728696529583
 51
170.68508648488597
  0
ARC
  8
_0-0_
  6
CONTINUOUS
 62
    7
 10
-23.867207988331046
 20
0.9563030780195873
 40
4.8309619120100411
 50
85.349367589773721
 51
101.38355373708549
  0
ARC
  8
_0-0_
  6
CONTINUOUS
 62
    7
 10
-24.701591619194318
 20
5.120089647869321
 40
0.8915438870094865
 50
94.609881441600919
 51
165.45063710217929
  0
ARC
  8
_0-0_
  6
CONTINUOUS
 62
    7
 10
-24.064360967555501
 20
2.4163996780378199
 40
3.6616245420008249
 50
83.745203754766777
 51
101.16285959428724
  0
ARC
  8
_0-0_
  6
CONTINUOUS
 62
    7
 10
-24.037813588506694
 20
7.6628458646798379
 40
0.844379982467732
 50
99.825465557276615
 51
172.18470645323256
  0
ARC
  8
_0-0_
  6
CONTINUOUS
 62
    7
 10
-24.052954530157677
 20
7.9490096618835366
 40
0.5608561453093146
 50
23.577713380800382
 51
103.29218426504173
  0
ARC
  8
_0-0_
  6
CONTINUOUS
 62
    7
 10
-24.040750013554174
 20
7.6490354906284921
 40
0.7257667361296407
 50
344.58921684136948
 51
46.255105796107657
  0
ARC
  8
_0-0_
  6
CONTINUOUS
 62
    7
 10
-22.463155656804247
 20
5.7473148666080789
 40
1.7841193075133859
 50
88.014118099786955
 51
111.55069596382624
  0
ARC
  8
_0-0_
  6
CONTINUOUS
 62
    7
 10
-22.792891719425668
 20
5.6962057769019196
 40
1.8754870862791926
 50
48.920682529253483
 51
77.949215116591347
  0
ARC
  8
_0-0_
  6
CONTINUOUS
 62
    7
 10
-20.546564792817037
 20
6.7637262796388455
 40
0.9416981391547286
 50
103.67130713219541
 51
166.32869286780459
  0
ARC
  8
_0-0_
  6
CONTINUOUS
 62
    7
 10
-20.406052266131752
 20
7.1852638596946576
 40
0.6126603979203442
 50
67.905769658417654
 51
126.34426303938424
  0
ARC
  8
_0-0_
  6
CONTINUOUS
 62
    7
 10
-20.267429184486161
 20
7.3498847484052874
 40
0.413375764184061
 50
340.05427857170946
 51
77.166640760218826
  0
ARC
  8
_0-0_
  6
CONTINUOUS
 62
    7
 10
-21.102994398490694
 20
6.9615679172117098
 40
1.248875337178724
 50
348.57881372500066
 51
11.421186274999997
  0
ARC
  8
_0-0_
  6
CONTINUOUS
 62
    7
 10
-17.658540575591147
 20
5.2609799348715001
 40
1.5183563345696716
 50
98.222897309122857
 51
130.38620122275162
  0
ARC
  8
_0-0_
  6
CONTINUOUS
 62
    7
 10
-18.085909425504454
 20
5.1438978720108679
 40
1.6334108312567526
 50
60.524110996754217
 51
82.605991357400654
  0
ARC
  8
_0-0_
  6
CONTINUOUS
 62
    7
 10
-15.637619160540154
 20
5.1686280767076198
 40
2.2628475139200903
 50
118.38557551087334
 51
151.61442448912749
  0
ARC
  8
_0-0_
  6
CONTINUOUS
 62
    7
 10
-16.530654330139882
 20
6.8228039908585174
 40
0.322939632849139
 50
35.651022410712436
 51
105.04132947317977
  0
ARC
  8
_0-0_
  6
CONTINUOUS
 62
    7
 10
-17.729041107399013
 20
6.0302546125278127
 40
1.7595052611769708
 50
350.01117450326996
 51
33.877179873623213
  0
ARC
  8
_0-0_
  6
CONTINUOUS
 62
    7
 10
-12.163025400666541
 20
4.1052292747534125
 40
2.2714460788352255
 50
113.07572627128134
 51
148.12686301872819
  0
ARC
  8
_0-0_
  6
CONTINUOUS
 62
    7
 10
-12.42975832275134
 20
4.995516643831138
 40
1.3518196319627991
 50
94.421674197026078
 51
117.46911760481808
  0
ARC
  8
_0-0_
  6
CONTINUOUS
 62
    7
 10
-12.972939604480331
 20
5.8517999814514496
 40
0.6589929644558325
 50
21.751500283369754
 51
48.232540113749607
  0
ARC
  8
_0-0_
  6
CONTINUOUS
 62
    7
 10
-18.521779283282058
 20
4.9831515414829823
 40
6.2606146116333967
 50
359.09466056747516
 51
10.23905617540292
  0
ARC
  8
_0-0_
  6
CONTINUOUS
 62
    7
 10
-10.48549318207985
 20
2.8357454336607475
 40
1.8303785903873306
 50
79.752853188982442
 51
103.94236734300686
  0
ARC
  8
_0-0_
  6
CONTINUOUS
 62
    7
 10
-7.2887020549646024
 20
2.3840070278691172
 40
3.6689506988391414
 50
119.51974228036072
 51
144.04928973614346
  0
ARC
  8
_0-0_
  6
CONTINUOUS
 62
    7
 10
-8.7732501114465862
 20
5.3938568831179907
 40
0.3713496576641059
 50
338.07269166578487
 51
150.50740077258953
  0
ARC
  8
_0-0_
  6
CONTINUOUS
 62
    7
 10
93.212376811491907
 20
21.25562623183707
 40
102.89283630848298
 50
188.94613758325929
 51
189.54608790786767
  0
ARC
  8
_0-0_
  6
CONTINUOUS
 62
    7
 10
-10.419545969559152
 20
-1.0633835068449713
 40
5.6832410183665854
 50
59.2500326978085
 51
67.61986494803368
  0
ARC
  8
_0-0_
  6
CONTINUOUS
 62
    7
 10
-7.2046193589963536
 20
-3.3138321342290951
 40
7.0661989120292352
 50
84.678489406934503
 51
92.306639075515491
  0
ARC
  8
_0-0_
  6
CONTINUOUS
 62
    7
 10
-4.6853924542443792
 20
2.842687245505374
 40
2.1582525143946318
 50
121.32227640783746
 51
158.80495729822226
  0
ARC
  8
_0-0_
  6
CONTINUOUS
 62
    7
 10
-5.3222143662074046
 20
4.2870690151695783
 40
0.6283514262786826
 50
2.5875041793231284
 51
140.5425981748331
  0
ARC
  8
_0-0_
  6
CONTINUOUS
 62
    7
 10
-11.404632456636676
 20
4.9762820401783046
 40
6.742592007511516
 50
343.43718201832951
 51
354.37537195855424
  0
ARC
  8
_0-0_
  6
CONTINUOUS
 62
    7
 10
-3.3668007176413255
 20
4.6206994788983167
 40
1.9656084626874051
 50
266.61898819577925
 51
288.57029854140416
  0
ARC
  8
_0-0_
  6
CONTINUOUS
 62
    7
 10
-1.1131794653052509
 20
2.2138567116080736
 40
1.6933885562586093
 50
126.58914616925347
 51
167.36311871915282
  0
ARC
  8
_0-0_
  6
CONTINUOUS
 62
    7
 10
-3.6311047803363437
 20
7.2336001688744318
 40
3.9587643272383688
 50
292.39960354577835
 51
308.65980825409014
  0
ARC
  8
_0-0_
  6
CONTINUOUS
 62
    7
 10
-0.957874887546481
 20
3.6932345879991999
 40
0.491696690694647
 50
18.04716605025537
 51
114.02785600058643
  0
ARC
  8
_0-0_
  6
CONTINUOUS
 62
    7
 10
-2.7889039203907231
 20
3.5556691703842631
 40
2.3167437707318137
 50
336.5515618523894
 51
7.1882334392981386
  0
ARC
  8
_0-0_
  6
CONTINUOUS
 62
    7
 10
5.5808964691283336
 20
0.568810003144712
 40
6.5769559779929772
 50
161.7013072329616
 51
166.40790096519476
  0
LINE
  8
_0-0_
  6
CONTINUOUS
 62
    7
 10
23.544659882629503
 20
-6.0309780534378632
 11
24.281052920569934
 21
-6.1898079243661925
  0
LINE
  8
_0-0_
  6
CONTINUOUS
 62
    7
 10
23.44358632840239
 20
-6.2764423994180092
 11
24.17997936634282
 21
-6.4497113495216425
  0
ARC
  8
_0-0_
  6
CONTINUOUS
 62
    7
 10
23.476589937945931
 20
-6.1464906868402807
 40
0.1340771637706673
 50
59.489762593882858
 51
255.74996730219988
  0
ARC
  8
_0-0_
  6
CONTINUOUS
 62
    7
 10
24.242030852165783
 20
-6.3242375792197976
 40
0.1399787624127231
 50
243.68587763984334
 51
73.813111345892409
  0
LINE
  8
_0-0_
  6
CONTINUOUS
 62
    7
 10
22.867527776105433
 20
-8.1650374009167734
 11
23.603920814045864
 21
-8.3238672718451028
  0
LINE
  8
_0-0_
  6
CONTINUOUS
 62
    7
 10
22.76645422187832
 20
-8.4105017468969194
 11
23.502847259818751
 21
-8.5837706970005527
  0
ARC
  8
_0-0_
  6
CONTINUOUS
 62
    7
 10
22.799457831421861
 20
-8.2805500343191909
 40
0.1340771637706673
 50
59.489762593882858
 51
255.74996730219988
  0
ARC
  8
_0-0_
  6
CONTINUOUS
 62
    7
 10
23.564898745641713
 20
-8.4582969266987078
 40
0.1399787624127231
 50
243.68587763984334
 51
73.813111345892409
  0
LINE
  8
_0-0_
  6
CONTINUOUS
 62
    7
 10
22.67981974682651
 20
-8.5837706970005456
 11
23.416212784766941
 21
-8.742600567928875
  0
LINE
  8
_0-0_
  6
CONTINUOUS
 62
    7
 10
22.578746192599397
 20
-8.8292350429806916
 11
23.315139230539828
 21
-9.0025039930843249
  0
ARC
  8
_0-0_
  6
CONTINUOUS
 62
    7
 10
22.611749802142938
 20
-8.6992833304029631
 40
0.1340771637706673
 50
59.489762593882858
 51
255.74996730219988
  0
ARC
  8
_0-0_
  6
CONTINUOUS
 62
    7
 10
23.37719071636279
 20
-8.87703022278248
 40
0.1399787624127231
 50
243.68587763984334
 51
73.813111345892409
  0
LINE
  8
_0-0_
  6
CONTINUOUS
 62
    7
 10
21.64020604620471
 20
-10.475290068965187
 11
22.376599084145141
 21
-10.634119939893516
  0
LINE
  8
_0-0_
  6
CONTINUOUS
 62
    7
 10
21.539132491977597
 20
-10.720754414945333
 11
22.275525529918028
 21
-10.894023365048966
  0
ARC
  8
_0-0_
  6
CONTINUOUS
 62
    7
 10
21.572136101521139
 20
-10.590802702367604
 40
0.1340771637706673
 50
59.489762593882858
 51
255.74996730219988
  0
ARC
  8
_0-0_
  6
CONTINUOUS
 62
    7
 10
22.33757701574099
 20
-10.768549594747121
 40
0.1399787624127231
 50
243.68587763984334
 51
73.813111345892409
  0
LINE
  8
_0-0_
  6
CONTINUOUS
 62
    7
 10
2.9533002389995744
 20
-1.0549423779511713
 11
3.7633325807340583
 21
-1.2296552359723307
  0
LINE
  8
_0-0_
  6
CONTINUOUS
 62
    7
 10
2.8421193293497566
 20
-1.3249531585293326
 11
3.6521516710842263
 21
-1.5155490036433292
  0
ARC
  8
_0-0_
  6
CONTINUOUS
 62
    7
 10
2.878423299847654
 20
-1.1820062746938333
 40
0.147484880147734
 50
59.489762593882858
 51
255.74996730219988
  0
ARC
  8
_0-0_
  6
CONTINUOUS
 62
    7
 10
3.7204083054894852
 20
-1.3775278563112963
 40
0.1539766386539954
 50
243.68587763984334
 51
73.813111345892409
  0
LINE
  8
_0-0_
  6
CONTINUOUS
 62
    7
 10
2.5201278637404982
 20
-5.646569555697404
 11
3.3301602054749821
 21
-5.8212824137185635
  0
LINE
  8
_0-0_
  6
CONTINUOUS
 62
    7
 10
2.4089469540906805
 20
-5.9165803362755653
 11
3.2189792958251502
 21
-6.107176181389562
  0
ARC
  8
_0-0_
  6
CONTINUOUS
 62
    7
 10
2.4452509245885778
 20
-5.7736334524400661
 40
0.147484880147734
 50
59.489762593882858
 51
255.74996730219988
  0
ARC
  8
_0-0_
  6
CONTINUOUS
 62
    7
 10
3.2872359302304091
 20
-5.969155034057529
 40
0.1539766386539954
 50
243.68587763984334
 51
73.813111345892409
  0
LINE
  8
_0-0_
  6
CONTINUOUS
 62
    7
 10
-1.0057448093968731
 20
0.3889655395790896
 11
-0.1220731638683645
 21
0.2142526815579302
  0
LINE
  8
_0-0_
  6
CONTINUOUS
 62
    7
 10
-1.1270330744694093
 20
0.1189547590009283
 11
-0.2433614289409007
 21
-0.0716410861130682
  0
LINE
  8
_0-0_
  6
CONTINUOUS
 62
    7
 10
-1.1270330744694197
 20
0.1189547590009293
 11
-1.1270330744694197
 21
0.1189547590009293
  0
LINE
  8
_0-0_
  6
CONTINUOUS
 62
    7
 10
-1.1270330744694197
 20
0.1189547590009293
 11
-1.1535104493727932
 21
0.1274305616853269
  0
LINE
  8
_0-0_
  6
CONTINUOUS
 62
    7
 10
-1.1535104493727932
 20
0.1274305616853269
 11
-1.1779799650675082
 21
0.1399922001248503
  0
LINE
  8
_0-0_
  6
CONTINUOUS
 62
    7
 10
-1.1779799650675082
 20
0.1399922001248503
 11
-1.1996981277013528
 21
0.1562579952920105
  0
LINE
  8
_0-0_
  6
CONTINUOUS
 62
    7
 10
-1.1996981277013528
 20
0.1562579952920105
 11
-1.2180050418926185
 21
0.1757337192315427
  0
LINE
  8
_0-0_
  6
CONTINUOUS
 62
    7
 10
-1.2180050418926185
 20
0.1757337192315427
 11
-1.2323444613173489
 21
0.1978276119267361
  0
LINE
  8
_0-0_
  6
CONTINUOUS
 62
    7
 10
-1.2323444613173489
 20
0.1978276119267361
 11
-1.2422806899724201
 21
0.2218683616280964
  0
LINE
  8
_0-0_
  6
CONTINUOUS
 62
    7
 10
-1.2422806899724201
 20
0.2218683616280964
 11
-1.2475118205781222
 21
0.2471255023211541
  0
LINE
  8
_0-0_
  6
CONTINUOUS
 62
    7
 10
-1.2475118205781222
 20
0.2471255023211541
 11
-1.2478789078780808
 21
0.2728316085666804
  0
LINE
  8
_0-0_
  6
CONTINUOUS
 62
    7
 10
-1.2478789078780808
 20
0.2728316085666804
 11
-1.2433707981104414
 21
0.2982056133343227
  0
LINE
  8
_0-0_
  6
CONTINUOUS
 62
    7
 10
-1.2433707981104414
 20
0.2982056133343227
 11
-1.2341244679092802
 21
0.3224765403290818
  0
LINE
  8
_0-0_
  6
CONTINUOUS
 62
    7
 10
-1.2341244679092802
 20
0.3224765403290818
 11
-1.220420862338891
 21
0.3449069297159037
  0
LINE
  8
_0-0_
  6
CONTINUOUS
 62
    7
 10
-1.220420862338891
 20
0.3449069297159037
 11
-1.202676358520171
 21
0.3648152454635946
  0
LINE
  8
_0-0_
  6
CONTINUOUS
 62
    7
 10
-1.202676358520171
 20
0.3648152454635946
 11
-1.1814301142224994
 21
0.3815965834722547
  0
LINE
  8
_0-0_
  6
CONTINUOUS
 62
    7
 10
-1.1814301142224994
 20
0.3815965834722547
 11
-1.157327685827743
 21
0.3947410512782577
  0
LINE
  8
_0-0_
  6
CONTINUOUS
 62
    7
 10
-1.157327685827743
 20
0.3947410512782577
 11
-1.1311014134262591
 21
0.4038492608787397
  0
LINE
  8
_0-0_
  6
CONTINUOUS
 62
    7
 10
-1.1311014134262591
 20
0.4038492608787397
 11
-1.1035481690338327
 21
0.4086444639339667
  0
LINE
  8
_0-0_
  6
CONTINUOUS
 62
    7
 10
-1.1035481690338327
 20
0.4086444639339667
 11
-1.0755051440387129
 21
0.4089809606255952
  0
LINE
  8
_0-0_
  6
CONTINUOUS
 62
    7
 10
-1.0755051440387129
 20
0.4089809606255952
 11
-1.0478244115649216
 21
0.4048485266719258
  0
LINE
  8
_0-0_
  6
CONTINUOUS
 62
    7
 10
-1.0478244115649216
 20
0.4048485266719258
 11
-1.021347036661548
 21
0.3963727239875283
  0
LINE
  8
_0-0_
  6
CONTINUOUS
 62
    7
 10
-1.021347036661548
 20
0.3963727239875283
 11
-1.0057448093968833
 21
0.3889655395790887
  0
LINE
  8
_0-0_
  6
CONTINUOUS
 62
    7
 10
-0.1220731638683645
 20
0.2142526815579301
 11
-0.1220731638683645
 21
0.2142526815579301
  0
LINE
  8
_0-0_
  6
CONTINUOUS
 62
    7
 10
-0.1220731638683645
 20
0.2142526815579301
 11
-0.0947724058421014
 21
0.204552442013116
  0
LINE
  8
_0-0_
  6
CONTINUOUS
 62
    7
 10
-0.0947724058421014
 20
0.204552442013116
 11
-0.0697239664964251
 21
0.1906539045964698
  0
LINE
  8
_0-0_
  6
CONTINUOUS
 62
    7
 10
-0.0697239664964251
 20
0.1906539045964698
 11
-0.0476889299857321
 21
0.1729793693343972
  0
LINE
  8
_0-0_
  6
CONTINUOUS
 62
    7
 10
-0.0476889299857321
 20
0.1729793693343972
 11
-0.0293368197441332
 21
0.1520658680370899
  0
LINE
  8
_0-0_
  6
CONTINUOUS
 62
    7
 10
-0.0293368197441332
 20
0.1520658680370899
 11
-0.0152252553547035
 21
0.1285488468587241
  0
LINE
  8
_0-0_
  6
CONTINUOUS
 62
    7
 10
-0.0152252553547035
 20
0.1285488468587241
 11
-0.0057830095606199
 21
0.1031428585876178
  0
LINE
  8
_0-0_
  6
CONTINUOUS
 62
    7
 10
-0.0057830095606199
 20
0.1031428585876178
 11
-0.0012969802223285
 21
0.0766198513213379
  0
LINE
  8
_0-0_
  6
CONTINUOUS
 62
    7
 10
-0.0012969802223285
 20
0.0766198513213379
 11
-0.001903473071233
 21
0.0497857132143813
  0
LINE
  8
_0-0_
  6
CONTINUOUS
 62
    7
 10
-0.001903473071233
 20
0.0497857132143813
 11
-0.0075840601290196
 21
0.0234557859743987
  0
LINE
  8
_0-0_
  6
CONTINUOUS
 62
    7
 10
-0.0075840601290196
 20
0.0234557859743987
 11
-0.0181661396324532
 21
-0.0015699088830091
  0
LINE
  8
_0-0_
  6
CONTINUOUS
 62
    7
 10
-0.0181661396324532
 20
-0.0015699088830091
 11
-0.0333281804506126
 21
-0.0245309782832123
  0
LINE
  8
_0-0_
  6
CONTINUOUS
 62
    7
 10
-0.0333281804506126
 20
-0.0245309782832123
 11
-0.0526094916456009
 21
-0.0447297617513476
  0
LINE
  8
_0-0_
  6
CONTINUOUS
 62
    7
 10
-0.0526094916456009
 20
-0.0447297617513476
 11
-0.0754242203335725
 21
-0.0615525294728133
  0
LINE
  8
_0-0_
  6
CONTINUOUS
 62
    7
 10
-0.0754242203335725
 20
-0.0615525294728133
 11
-0.1010791525281533
 21
-0.0744881301631238
  0
LINE
  8
_0-0_
  6
CONTINUOUS
 62
    7
 10
-0.1010791525281533
 20
-0.0744881301631238
 11
-0.1287947760966329
 21
-0.0831435221410338
  0
LINE
  8
_0-0_
  6
CONTINUOUS
 62
    7
 10
-0.1287947760966329
 20
-0.0831435221410338
 11
-0.1577289658416654
 21
-0.0872557157011343
  0
LINE
  8
_0-0_
  6
CONTINUOUS
 62
    7
 10
-0.1577289658416654
 20
-0.0872557157011343
 11
-0.1870025710492545
 21
-0.0866997639229719
  0
LINE
  8
_0-0_
  6
CONTINUOUS
 62
    7
 10
-0.1870025710492545
 20
-0.0866997639229719
 11
-0.2157261280383264
 21
-0.0814925591200008
  0
LINE
  8
_0-0_
  6
CONTINUOUS
 62
    7
 10
-0.2157261280383264
 20
-0.0814925591200008
 11
-0.2430268860645894
 21
-0.0717923195751868
  0
LINE
  8
_0-0_
  6
CONTINUOUS
 62
    7
 10
-0.2430268860645894
 20
-0.0717923195751868
 11
-0.243361428940901
 21
-0.0716410861130651
  0
LINE
  8
_0-0_
  6
CONTINUOUS
 62
    7
 10
-1.034622967747481
 20
-0.1019631523811952
 11
-0.1509513222189724
 21
-0.2766760104023546
  0
LINE
  8
_0-0_
  6
CONTINUOUS
 62
    7
 10
-1.1559112328200172
 20
-0.3719739329593565
 11
-0.2722395872915086
 21
-0.5625697780733531
  0
LINE
  8
_0-0_
  6
CONTINUOUS
 62
    7
 10
-1.1559112328200276
 20
-0.3719739329593555
 11
-1.1559112328200276
 21
-0.3719739329593555
  0
LINE
  8
_0-0_
  6
CONTINUOUS
 62
    7
 10
-1.1559112328200276
 20
-0.3719739329593555
 11
-1.1823886077234012
 21
-0.3634981302749579
  0
LINE
  8
_0-0_
  6
CONTINUOUS
 62
    7
 10
-1.1823886077234012
 20
-0.3634981302749579
 11
-1.2068581234181162
 21
-0.3509364918354345
  0
LINE
  8
_0-0_
  6
CONTINUOUS
 62
    7
 10
-1.2068581234181162
 20
-0.3509364918354345
 11
-1.2285762860519607
 21
-0.3346706966682743
  0
LINE
  8
_0-0_
  6
CONTINUOUS
 62
    7
 10
-1.2285762860519607
 20
-0.3346706966682743
 11
-1.2468832002432264
 21
-0.3151949727287421
  0
LINE
  8
_0-0_
  6
CONTINUOUS
 62
    7
 10
-1.2468832002432264
 20
-0.3151949727287421
 11
-1.2612226196679568
 21
-0.2931010800335487
  0
LINE
  8
_0-0_
  6
CONTINUOUS
 62
    7
 10
-1.2612226196679568
 20
-0.2931010800335487
 11
-1.2711588483230281
 21
-0.2690603303321884
  0
LINE
  8
_0-0_
  6
CONTINUOUS
 62
    7
 10
-1.2711588483230281
 20
-0.2690603303321884
 11
-1.2763899789287301
 21
-0.2438031896391307
  0
LINE
  8
_0-0_
  6
CONTINUOUS
 62
    7
 10
-1.2763899789287301
 20
-0.2438031896391307
 11
-1.2767570662286887
 21
-0.2180970833936044
  0
LINE
  8
_0-0_
  6
CONTINUOUS
 62
    7
 10
-1.2767570662286887
 20
-0.2180970833936044
 11
-1.2722489564610493
 21
-0.1927230786259621
  0
LINE
  8
_0-0_
  6
CONTINUOUS
 62
    7
 10
-1.2722489564610493
 20
-0.1927230786259621
 11
-1.2630026262598881
 21
-0.168452151631203
  0
LINE
  8
_0-0_
  6
CONTINUOUS
 62
    7
 10
-1.2630026262598881
 20
-0.168452151631203
 11
-1.2492990206894989
 21
-0.1460217622443811
  0
LINE
  8
_0-0_
  6
CONTINUOUS
 62
    7
 10
-1.2492990206894989
 20
-0.1460217622443811
 11
-1.2315545168707789
 21
-0.1261134464966902
  0
LINE
  8
_0-0_
  6
CONTINUOUS
 62
    7
 10
-1.2315545168707789
 20
-0.1261134464966902
 11
-1.2103082725731074
 21
-0.1093321084880301
  0
LINE
  8
_0-0_
  6
CONTINUOUS
 62
    7
 10
-1.2103082725731074
 20
-0.1093321084880301
 11
-1.186205844178351
 21
-0.0961876406820271
  0
LINE
  8
_0-0_
  6
CONTINUOUS
 62
    7
 10
-1.186205844178351
 20
-0.0961876406820271
 11
-1.1599795717768671
 21
-0.0870794310815451
  0
LINE
  8
_0-0_
  6
CONTINUOUS
 62
    7
 10
-1.1599795717768671
 20
-0.0870794310815451
 11
-1.1324263273844406
 21
-0.0822842280263182
  0
LINE
  8
_0-0_
  6
CONTINUOUS
 62
    7
 10
-1.1324263273844406
 20
-0.0822842280263182
 11
-1.1043833023893208
 21
-0.0819477313346896
  0
LINE
  8
_0-0_
  6
CONTINUOUS
 62
    7
 10
-1.1043833023893208
 20
-0.0819477313346896
 11
-1.0767025699155295
 21
-0.0860801652883589
  0
LINE
  8
_0-0_
  6
CONTINUOUS
 62
    7
 10
-1.0767025699155295
 20
-0.0860801652883589
 11
-1.0502251950121559
 21
-0.0945559679727565
  0
LINE
  8
_0-0_
  6
CONTINUOUS
 62
    7
 10
-1.0502251950121559
 20
-0.0945559679727565
 11
-1.0346229677474912
 21
-0.1019631523811961
  0
LINE
  8
_0-0_
  6
CONTINUOUS
 62
    7
 10
-0.1509513222189724
 20
-0.2766760104023546
 11
-0.1509513222189724
 21
-0.2766760104023546
  0
LINE
  8
_0-0_
  6
CONTINUOUS
 62
    7
 10
-0.1509513222189724
 20
-0.2766760104023546
 11
-0.1236505641927094
 21
-0.2863762499471688
  0
LINE
  8
_0-0_
  6
CONTINUOUS
 62
    7
 10
-0.1236505641927094
 20
-0.2863762499471688
 11
-0.098602124847033
 21
-0.300274787363815
  0
LINE
  8
_0-0_
  6
CONTINUOUS
 62
    7
 10
-0.098602124847033
 20
-0.300274787363815
 11
-0.07656708833634
 21
-0.3179493226258876
  0
LINE
  8
_0-0_
  6
CONTINUOUS
 62
    7
 10
-0.07656708833634
 20
-0.3179493226258876
 11
-0.0582149780947411
 21
-0.338862823923195
  0
LINE
  8
_0-0_
  6
CONTINUOUS
 62
    7
 10
-0.0582149780947411
 20
-0.338862823923195
 11
-0.0441034137053115
 21
-0.3623798451015607
  0
LINE
  8
_0-0_
  6
CONTINUOUS
 62
    7
 10
-0.0441034137053115
 20
-0.3623798451015607
 11
-0.0346611679112278
 21
-0.387785833372667
  0
LINE
  8
_0-0_
  6
CONTINUOUS
 62
    7
 10
-0.0346611679112278
 20
-0.387785833372667
 11
-0.0301751385729364
 21
-0.4143088406389469
  0
LINE
  8
_0-0_
  6
CONTINUOUS
 62
    7
 10
-0.0301751385729364
 20
-0.4143088406389469
 11
-0.0307816314218409
 21
-0.4411429787459035
  0
LINE
  8
_0-0_
  6
CONTINUOUS
 62
    7
 10
-0.0307816314218409
 20
-0.4411429787459035
 11
-0.0364622184796275
 21
-0.4674729059858862
  0
LINE
  8
_0-0_
  6
CONTINUOUS
 62
    7
 10
-0.0364622184796275
 20
-0.4674729059858862
 11
-0.0470442979830611
 21
-0.492498600843294
  0
LINE
  8
_0-0_
  6
CONTINUOUS
 62
    7
 10
-0.0470442979830611
 20
-0.492498600843294
 11
-0.0622063388012205
 21
-0.5154596702434972
  0
LINE
  8
_0-0_
  6
CONTINUOUS
 62
    7
 10
-0.0622063388012205
 20
-0.5154596702434972
 11
-0.0814876499962088
 21
-0.5356584537116325
  0
LINE
  8
_0-0_
  6
CONTINUOUS
 62
    7
 10
-0.0814876499962088
 20
-0.5356584537116325
 11
-0.1043023786841804
 21
-0.5524812214330981
  0
LINE
  8
_0-0_
  6
CONTINUOUS
 62
    7
 10
-0.1043023786841804
 20
-0.5524812214330981
 11
-0.1299573108787612
 21
-0.5654168221234087
  0
LINE
  8
_0-0_
  6
CONTINUOUS
 62
    7
 10
-0.1299573108787612
 20
-0.5654168221234087
 11
-0.1576729344472409
 21
-0.5740722141013188
  0
LINE
  8
_0-0_
  6
CONTINUOUS
 62
    7
 10
-0.1576729344472409
 20
-0.5740722141013188
 11
-0.1866071241922734
 21
-0.5781844076614192
  0
LINE
  8
_0-0_
  6
CONTINUOUS
 62
    7
 10
-0.1866071241922734
 20
-0.5781844076614192
 11
-0.2158807293998624
 21
-0.5776284558832567
  0
LINE
  8
_0-0_
  6
CONTINUOUS
 62
    7
 10
-0.2158807293998624
 20
-0.5776284558832567
 11
-0.2446042863889343
 21
-0.5724212510802857
  0
LINE
  8
_0-0_
  6
CONTINUOUS
 62
    7
 10
-0.2446042863889343
 20
-0.5724212510802857
 11
-0.2719050444151973
 21
-0.5627210115354717
  0
LINE
  8
_0-0_
  6
CONTINUOUS
 62
    7
 10
-0.2719050444151973
 20
-0.5627210115354717
 11
-0.2722395872915089
 21
-0.56256977807335
  0
LINE
  8
_0-0_
  6
CONTINUOUS
 62
    7
 10
-1.1212574427993047
 20
-0.621770002692088
 11
-0.2375857972707962
 21
-0.7964828607132474
  0
LINE
  8
_0-0_
  6
CONTINUOUS
 62
    7
 10
-1.2425457078718409
 20
-0.8917807832702493
 11
-0.3588740623433324
 21
-1.082376628384246
  0
LINE
  8
_0-0_
  6
CONTINUOUS
 62
    7
 10
-1.2425457078718514
 20
-0.8917807832702483
 11
-1.2425457078718514
 21
-0.8917807832702483
  0
LINE
  8
_0-0_
  6
CONTINUOUS
 62
    7
 10
-1.2425457078718514
 20
-0.8917807832702483
 11
-1.2690230827752249
 21
-0.8833049805858507
  0
LINE
  8
_0-0_
  6
CONTINUOUS
 62
    7
 10
-1.2690230827752249
 20
-0.8833049805858507
 11
-1.2934925984699399
 21
-0.8707433421463273
  0
LINE
  8
_0-0_
  6
CONTINUOUS
 62
    7
 10
-1.2934925984699399
 20
-0.8707433421463273
 11
-1.3152107611037844
 21
-0.8544775469791672
  0
LINE
  8
_0-0_
  6
CONTINUOUS
 62
    7
 10
-1.3152107611037844
 20
-0.8544775469791672
 11
-1.3335176752950502
 21
-0.8350018230396349
  0
LINE
  8
_0-0_
  6
CONTINUOUS
 62
    7
 10
-1.3335176752950502
 20
-0.8350018230396349
 11
-1.3478570947197805
 21
-0.8129079303444415
  0
LINE
  8
_0-0_
  6
CONTINUOUS
 62
    7
 10
-1.3478570947197805
 20
-0.8129079303444415
 11
-1.3577933233748518
 21
-0.7888671806430812
  0
LINE
  8
_0-0_
  6
CONTINUOUS
 62
    7
 10
-1.3577933233748518
 20
-0.7888671806430812
 11
-1.3630244539805538
 21
-0.7636100399500235
  0
LINE
  8
_0-0_
  6
CONTINUOUS
 62
    7
 10
-1.3630244539805538
 20
-0.7636100399500235
 11
-1.3633915412805124
 21
-0.7379039337044972
  0
LINE
  8
_0-0_
  6
CONTINUOUS
 62
    7
 10
-1.3633915412805124
 20
-0.7379039337044972
 11
-1.3588834315128731
 21
-0.7125299289368549
  0
LINE
  8
_0-0_
  6
CONTINUOUS
 62
    7
 10
-1.3588834315128731
 20
-0.7125299289368549
 11
-1.3496371013117119
 21
-0.6882590019420957
  0
LINE
  8
_0-0_
  6
CONTINUOUS
 62
    7
 10
-1.3496371013117119
 20
-0.6882590019420957
 11
-1.3359334957413227
 21
-0.6658286125552739
  0
LINE
  8
_0-0_
  6
CONTINUOUS
 62
    7
 10
-1.3359334957413227
 20
-0.6658286125552739
 11
-1.3181889919226026
 21
-0.645920296807583
  0
LINE
  8
_0-0_
  6
CONTINUOUS
 62
    7
 10
-1.3181889919226026
 20
-0.645920296807583
 11
-1.2969427476249311
 21
-0.6291389587989229
  0
LINE
  8
_0-0_
  6
CONTINUOUS
 62
    7
 10
-1.2969427476249311
 20
-0.6291389587989229
 11
-1.2728403192301747
 21
-0.61599449099292
  0
LINE
  8
_0-0_
  6
CONTINUOUS
 62
    7
 10
-1.2728403192301747
 20
-0.61599449099292
 11
-1.2466140468286908
 21
-0.6068862813924379
  0
LINE
  8
_0-0_
  6
CONTINUOUS
 62
    7
 10
-1.2466140468286908
 20
-0.6068862813924379
 11
-1.2190608024362644
 21
-0.6020910783372109
  0
LINE
  8
_0-0_
  6
CONTINUOUS
 62
    7
 10
-1.2190608024362644
 20
-0.6020910783372109
 11
-1.1910177774411446
 21
-0.6017545816455824
  0
LINE
  8
_0-0_
  6
CONTINUOUS
 62
    7
 10
-1.1910177774411446
 20
-0.6017545816455824
 11
-1.1633370449673532
 21
-0.6058870155992517
  0
LINE
  8
_0-0_
  6
CONTINUOUS
 62
    7
 10
-1.1633370449673532
 20
-0.6058870155992517
 11
-1.1368596700639797
 21
-0.6143628182836493
  0
LINE
  8
_0-0_
  6
CONTINUOUS
 62
    7
 10
-1.1368596700639797
 20
-0.6143628182836493
 11
-1.1212574427993149
 21
-0.6217700026920889
  0
LINE
  8
_0-0_
  6
CONTINUOUS
 62
    7
 10
-0.2375857972707962
 20
-0.7964828607132474
 11
-0.2375857972707962
 21
-0.7964828607132474
  0
LINE
  8
_0-0_
  6
CONTINUOUS
 62
    7
 10
-0.2375857972707962
 20
-0.7964828607132474
 11
-0.2102850392445331
 21
-0.8061831002580617
  0
LINE
  8
_0-0_
  6
CONTINUOUS
 62
    7
 10
-0.2102850392445331
 20
-0.8061831002580617
 11
-0.1852365998988568
 21
-0.8200816376747077
  0
LINE
  8
_0-0_
  6
CONTINUOUS
 62
    7
 10
-0.1852365998988568
 20
-0.8200816376747077
 11
-0.1632015633881638
 21
-0.8377561729367804
  0
LINE
  8
_0-0_
  6
CONTINUOUS
 62
    7
 10
-0.1632015633881638
 20
-0.8377561729367804
 11
-0.1448494531465648
 21
-0.8586696742340878
  0
LINE
  8
_0-0_
  6
CONTINUOUS
 62
    7
 10
-0.1448494531465648
 20
-0.8586696742340878
 11
-0.1307378887571352
 21
-0.8821866954124535
  0
LINE
  8
_0-0_
  6
CONTINUOUS
 62
    7
 10
-0.1307378887571352
 20
-0.8821866954124535
 11
-0.1212956429630515
 21
-0.9075926836835598
  0
LINE
  8
_0-0_
  6
CONTINUOUS
 62
    7
 10
-0.1212956429630515
 20
-0.9075926836835598
 11
-0.1168096136247601
 21
-0.9341156909498397
  0
LINE
  8
_0-0_
  6
CONTINUOUS
 62
    7
 10
-0.1168096136247601
 20
-0.9341156909498397
 11
-0.1174161064736646
 21
-0.9609498290567963
  0
LINE
  8
_0-0_
  6
CONTINUOUS
 62
    7
 10
-0.1174161064736646
 20
-0.9609498290567963
 11
-0.1230966935314513
 21
-0.987279756296779
  0
LINE
  8
_0-0_
  6
CONTINUOUS
 62
    7
 10
-0.1230966935314513
 20
-0.987279756296779
 11
-0.1336787730348849
 21
-1.0123054511541867
  0
LINE
  8
_0-0_
  6
CONTINUOUS
 62
    7
 10
-0.1336787730348849
 20
-1.0123054511541867
 11
-0.1488408138530443
 21
-1.0352665205543901
  0
LINE
  8
_0-0_
  6
CONTINUOUS
 62
    7
 10
-0.1488408138530443
 20
-1.0352665205543901
 11
-0.1681221250480326
 21
-1.0554653040225253
  0
LINE
  8
_0-0_
  6
CONTINUOUS
 62
    7
 10
-0.1681221250480326
 20
-1.0554653040225253
 11
-0.1909368537360042
 21
-1.0722880717439911
  0
LINE
  8
_0-0_
  6
CONTINUOUS
 62
    7
 10
-0.1909368537360042
 20
-1.0722880717439911
 11
-0.216591785930585
 21
-1.0852236724343016
  0
LINE
  8
_0-0_
  6
CONTINUOUS
 62
    7
 10
-0.216591785930585
 20
-1.0852236724343016
 11
-0.2443074094990646
 21
-1.0938790644122116
  0
LINE
  8
_0-0_
  6
CONTINUOUS
 62
    7
 10
-0.2443074094990646
 20
-1.0938790644122116
 11
-0.2732415992440971
 21
-1.0979912579723119
  0
LINE
  8
_0-0_
  6
CONTINUOUS
 62
    7
 10
-0.2732415992440971
 20
-1.0979912579723119
 11
-0.3025152044516861
 21
-1.0974353061941495
  0
LINE
  8
_0-0_
  6
CONTINUOUS
 62
    7
 10
-0.3025152044516861
 20
-1.0974353061941495
 11
-0.331238761440758
 21
-1.0922281013911785
  0
LINE
  8
_0-0_
  6
CONTINUOUS
 62
    7
 10
-0.331238761440758
 20
-1.0922281013911785
 11
-0.3585395194670211
 21
-1.0825278618463645
  0
LINE
  8
_0-0_
  6
CONTINUOUS
 62
    7
 10
-0.3585395194670211
 20
-1.0825278618463645
 11
-0.3588740623433326
 21
-1.0823766283842429
  0
LINE
  8
_0-0_
  6
CONTINUOUS
 62
    7
 10
-1.0923792844486968
 20
-1.1415768530029808
 11
-0.2087076389201882
 21
-1.3162897110241403
  0
LINE
  8
_0-0_
  6
CONTINUOUS
 62
    7
 10
-1.213667549521233
 20
-1.4115876335811421
 11
-0.3299959039927244
 21
-1.6021834786951388
  0
LINE
  8
_0-0_
  6
CONTINUOUS
 62
    7
 10
-1.2136675495212434
 20
-1.4115876335811413
 11
-1.2136675495212434
 21
-1.4115876335811413
  0
LINE
  8
_0-0_
  6
CONTINUOUS
 62
    7
 10
-1.2136675495212434
 20
-1.4115876335811413
 11
-1.240144924424617
 21
-1.4031118308967436
  0
LINE
  8
_0-0_
  6
CONTINUOUS
 62
    7
 10
-1.240144924424617
 20
-1.4031118308967436
 11
-1.264614440119332
 21
-1.3905501924572201
  0
LINE
  8
_0-0_
  6
CONTINUOUS
 62
    7
 10
-1.264614440119332
 20
-1.3905501924572201
 11
-1.2863326027531765
 21
-1.37428439729006
  0
LINE
  8
_0-0_
  6
CONTINUOUS
 62
    7
 10
-1.2863326027531765
 20
-1.37428439729006
 11
-1.3046395169444422
 21
-1.3548086733505278
  0
LINE
  8
_0-0_
  6
CONTINUOUS
 62
    7
 10
-1.3046395169444422
 20
-1.3548086733505278
 11
-1.3189789363691726
 21
-1.3327147806553343
  0
LINE
  8
_0-0_
  6
CONTINUOUS
 62
    7
 10
-1.3189789363691726
 20
-1.3327147806553343
 11
-1.3289151650242439
 21
-1.3086740309539739
  0
LINE
  8
_0-0_
  6
CONTINUOUS
 62
    7
 10
-1.3289151650242439
 20
-1.3086740309539739
 11
-1.3341462956299459
 21
-1.2834168902609164
  0
LINE
  8
_0-0_
  6
CONTINUOUS
 62
    7
 10
-1.3341462956299459
 20
-1.2834168902609164
 11
-1.3345133829299045
 21
-1.25771078401539
  0
LINE
  8
_0-0_
  6
CONTINUOUS
 62
    7
 10
-1.3345133829299045
 20
-1.25771078401539
 11
-1.3300052731622651
 21
-1.2323367792477478
  0
LINE
  8
_0-0_
  6
CONTINUOUS
 62
    7
 10
-1.3300052731622651
 20
-1.2323367792477478
 11
-1.320758942961104
 21
-1.2080658522529886
  0
LINE
  8
_0-0_
  6
CONTINUOUS
 62
    7
 10
-1.320758942961104
 20
-1.2080658522529886
 11
-1.3070553373907148
 21
-1.1856354628661667
  0
LINE
  8
_0-0_
  6
CONTINUOUS
 62
    7
 10
-1.3070553373907148
 20
-1.1856354628661667
 11
-1.2893108335719947
 21
-1.1657271471184758
  0
LINE
  8
_0-0_
  6
CONTINUOUS
 62
    7
 10
-1.2893108335719947
 20
-1.1657271471184758
 11
-1.2680645892743232
 21
-1.1489458091098157
  0
LINE
  8
_0-0_
  6
CONTINUOUS
 62
    7
 10
-1.2680645892743232
 20
-1.1489458091098157
 11
-1.2439621608795668
 21
-1.1358013413038128
  0
LINE
  8
_0-0_
  6
CONTINUOUS
 62
    7
 10
-1.2439621608795668
 20
-1.1358013413038128
 11
-1.2177358884780829
 21
-1.1266931317033309
  0
LINE
  8
_0-0_
  6
CONTINUOUS
 62
    7
 10
-1.2177358884780829
 20
-1.1266931317033309
 11
-1.1901826440856564
 21
-1.1218979286481039
  0
LINE
  8
_0-0_
  6
CONTINUOUS
 62
    7
 10
-1.1901826440856564
 20
-1.1218979286481039
 11
-1.1621396190905366
 21
-1.1215614319564753
  0
LINE
  8
_0-0_
  6
CONTINUOUS
 62
    7
 10
-1.1621396190905366
 20
-1.1215614319564753
 11
-1.1344588866167453
 21
-1.1256938659101445
  0
LINE
  8
_0-0_
  6
CONTINUOUS
 62
    7
 10
-1.1344588866167453
 20
-1.1256938659101445
 11
-1.1079815117133718
 21
-1.1341696685945422
  0
LINE
  8
_0-0_
  6
CONTINUOUS
 62
    7
 10
-1.1079815117133718
 20
-1.1341696685945422
 11
-1.092379284448707
 21
-1.1415768530029817
  0
LINE
  8
_0-0_
  6
CONTINUOUS
 62
    7
 10
-0.2087076389201883
 20
-1.3162897110241403
 11
-0.2087076389201883
 21
-1.3162897110241403
  0
LINE
  8
_0-0_
  6
CONTINUOUS
 62
    7
 10
-0.2087076389201883
 20
-1.3162897110241403
 11
-0.1814068808939252
 21
-1.3259899505689545
  0
LINE
  8
_0-0_
  6
CONTINUOUS
 62
    7
 10
-0.1814068808939252
 20
-1.3259899505689545
 11
-0.1563584415482489
 21
-1.3398884879856006
  0
LINE
  8
_0-0_
  6
CONTINUOUS
 62
    7
 10
-0.1563584415482489
 20
-1.3398884879856006
 11
-0.1343234050375558
 21
-1.3575630232476732
  0
LINE
  8
_0-0_
  6
CONTINUOUS
 62
    7
 10
-0.1343234050375558
 20
-1.3575630232476732
 11
-0.1159712947959569
 21
-1.3784765245449806
  0
LINE
  8
_0-0_
  6
CONTINUOUS
 62
    7
 10
-0.1159712947959569
 20
-1.3784765245449806
 11
-0.1018597304065273
 21
-1.4019935457233463
  0
LINE
  8
_0-0_
  6
CONTINUOUS
 62
    7
 10
-0.1018597304065273
 20
-1.4019935457233463
 11
-0.0924174846124436
 21
-1.4273995339944527
  0
LINE
  8
_0-0_
  6
CONTINUOUS
 62
    7
 10
-0.0924174846124436
 20
-1.4273995339944527
 11
-0.0879314552741522
 21
-1.4539225412607326
  0
LINE
  8
_0-0_
  6
CONTINUOUS
 62
    7
 10
-0.0879314552741522
 20
-1.4539225412607326
 11
-0.0885379481230567
 21
-1.4807566793676892
  0
LINE
  8
_0-0_
  6
CONTINUOUS
 62
    7
 10
-0.0885379481230567
 20
-1.4807566793676892
 11
-0.0942185351808433
 21
-1.5070866066076718
  0
LINE
  8
_0-0_
  6
CONTINUOUS
 62
    7
 10
-0.0942185351808433
 20
-1.5070866066076718
 11
-0.104800614684277
 21
-1.5321123014650795
  0
LINE
  8
_0-0_
  6
CONTINUOUS
 62
    7
 10
-0.104800614684277
 20
-1.5321123014650795
 11
-0.1199626555024364
 21
-1.5550733708652829
  0
LINE
  8
_0-0_
  6
CONTINUOUS
 62
    7
 10
-0.1199626555024364
 20
-1.5550733708652829
 11
-0.1392439666974247
 21
-1.5752721543334181
  0
LINE
  8
_0-0_
  6
CONTINUOUS
 62
    7
 10
-0.1392439666974247
 20
-1.5752721543334181
 11
-0.1620586953853963
 21
-1.5920949220548839
  0
LINE
  8
_0-0_
  6
CONTINUOUS
 62
    7
 10
-0.1620586953853963
 20
-1.5920949220548839
 11
-0.1877136275799771
 21
-1.6050305227451944
  0
LINE
  8
_0-0_
  6
CONTINUOUS
 62
    7
 10
-0.1877136275799771
 20
-1.6050305227451944
 11
-0.2154292511484567
 21
-1.6136859147231044
  0
LINE
  8
_0-0_
  6
CONTINUOUS
 62
    7
 10
-0.2154292511484567
 20
-1.6136859147231044
 11
-0.2443634408934892
 21
-1.6177981082832047
  0
LINE
  8
_0-0_
  6
CONTINUOUS
 62
    7
 10
-0.2443634408934892
 20
-1.6177981082832047
 11
-0.2736370461010782
 21
-1.6172421565050423
  0
LINE
  8
_0-0_
  6
CONTINUOUS
 62
    7
 10
-0.2736370461010782
 20
-1.6172421565050423
 11
-0.3023606030901501
 21
-1.6120349517020713
  0
LINE
  8
_0-0_
  6
CONTINUOUS
 62
    7
 10
-0.3023606030901501
 20
-1.6120349517020713
 11
-0.3296613611164132
 21
-1.6023347121572573
  0
LINE
  8
_0-0_
  6
CONTINUOUS
 62
    7
 10
-0.3296613611164132
 20
-1.6023347121572573
 11
-0.3299959039927247
 21
-1.6021834786951357
  0
LINE
  8
_0-0_
  6
CONTINUOUS
 62
    7
 10
-1.034622967747481
 20
-1.6325055449632728
 11
-0.1509513222189724
 21
-1.8072184029844323
  0
LINE
  8
_0-0_
  6
CONTINUOUS
 62
    7
 10
-1.1559112328200172
 20
-1.9025163255414341
 11
-0.2722395872915086
 21
-2.0931121706554308
  0
LINE
  8
_0-0_
  6
CONTINUOUS
 62
    7
 10
-1.1559112328200276
 20
-1.9025163255414332
 11
-1.1559112328200276
 21
-1.9025163255414332
  0
LINE
  8
_0-0_
  6
CONTINUOUS
 62
    7
 10
-1.1559112328200276
 20
-1.9025163255414332
 11
-1.1823886077234012
 21
-1.8940405228570356
  0
LINE
  8
_0-0_
  6
CONTINUOUS
 62
    7
 10
-1.1823886077234012
 20
-1.8940405228570356
 11
-1.2068581234181162
 21
-1.8814788844175121
  0
LINE
  8
_0-0_
  6
CONTINUOUS
 62
    7
 10
-1.2068581234181162
 20
-1.8814788844175121
 11
-1.2285762860519607
 21
-1.865213089250352
  0
LINE
  8
_0-0_
  6
CONTINUOUS
 62
    7
 10
-1.2285762860519607
 20
-1.865213089250352
 11
-1.2468832002432264
 21
-1.8457373653108198
  0
LINE
  8
_0-0_
  6
CONTINUOUS
 62
    7
 10
-1.2468832002432264
 20
-1.8457373653108198
 11
-1.2612226196679568
 21
-1.8236434726156263
  0
LINE
  8
_0-0_
  6
CONTINUOUS
 62
    7
 10
-1.2612226196679568
 20
-1.8236434726156263
 11
-1.2711588483230281
 21
-1.7996027229142659
  0
LINE
  8
_0-0_
  6
CONTINUOUS
 62
    7
 10
-1.2711588483230281
 20
-1.7996027229142659
 11
-1.2763899789287301
 21
-1.7743455822212084
  0
LINE
  8
_0-0_
  6
CONTINUOUS
 62
    7
 10
-1.2763899789287301
 20
-1.7743455822212084
 11
-1.2767570662286887
 21
-1.748639475975682
  0
LINE
  8
_0-0_
  6
CONTINUOUS
 62
    7
 10
-1.2767570662286887
 20
-1.748639475975682
 11
-1.2722489564610493
 21
-1.7232654712080397
  0
LINE
  8
_0-0_
  6
CONTINUOUS
 62
    7
 10
-1.2722489564610493
 20
-1.7232654712080397
 11
-1.2630026262598881
 21
-1.6989945442132806
  0
LINE
  8
_0-0_
  6
CONTINUOUS
 62
    7
 10
-1.2630026262598881
 20
-1.6989945442132806
 11
-1.2492990206894989
 21
-1.6765641548264587
  0
LINE
  8
_0-0_
  6
CONTINUOUS
 62
    7
 10
-1.2492990206894989
 20
-1.6765641548264587
 11
-1.2315545168707789
 21
-1.6566558390787678
  0
LINE
  8
_0-0_
  6
CONTINUOUS
 62
    7
 10
-1.2315545168707789
 20
-1.6566558390787678
 11
-1.2103082725731074
 21
-1.6398745010701077
  0
LINE
  8
_0-0_
  6
CONTINUOUS
 62
    7
 10
-1.2103082725731074
 20
-1.6398745010701077
 11
-1.186205844178351
 21
-1.6267300332641048
  0
LINE
  8
_0-0_
  6
CONTINUOUS
 62
    7
 10
-1.186205844178351
 20
-1.6267300332641048
 11
-1.1599795717768671
 21
-1.6176218236636228
  0
LINE
  8
_0-0_
  6
CONTINUOUS
 62
    7
 10
-1.1599795717768671
 20
-1.6176218236636228
 11
-1.1324263273844406
 21
-1.6128266206083959
  0
LINE
  8
_0-0_
  6
CONTINUOUS
 62
    7
 10
-1.1324263273844406
 20
-1.6128266206083959
 11
-1.1043833023893208
 21
-1.6124901239167673
  0
LINE
  8
_0-0_
  6
CONTINUOUS
 62
    7
 10
-1.1043833023893208
 20
-1.6124901239167673
 11
-1.0767025699155295
 21
-1.6166225578704365
  0
LINE
  8
_0-0_
  6
CONTINUOUS
 62
    7
 10
-1.0767025699155295
 20
-1.6166225578704365
 11
-1.0502251950121559
 21
-1.6250983605548341
  0
LINE
  8
_0-0_
  6
CONTINUOUS
 62
    7
 10
-1.0502251950121559
 20
-1.6250983605548341
 11
-1.0346229677474912
 21
-1.6325055449632737
  0
LINE
  8
_0-0_
  6
CONTINUOUS
 62
    7
 10
-0.1509513222189724
 20
-1.8072184029844323
 11
-0.1509513222189724
 21
-1.8072184029844323
  0
LINE
  8
_0-0_
  6
CONTINUOUS
 62
    7
 10
-0.1509513222189724
 20
-1.8072184029844323
 11
-0.1236505641927094
 21
-1.8169186425292465
  0
LINE
  8
_0-0_
  6
CONTINUOUS
 62
    7
 10
-0.1236505641927094
 20
-1.8169186425292465
 11
-0.098602124847033
 21
-1.8308171799458925
  0
LINE
  8
_0-0_
  6
CONTINUOUS
 62
    7
 10
-0.098602124847033
 20
-1.8308171799458925
 11
-0.07656708833634
 21
-1.8484917152079652
  0
LINE
  8
_0-0_
  6
CONTINUOUS
 62
    7
 10
-0.07656708833634
 20
-1.8484917152079652
 11
-0.0582149780947411
 21
-1.8694052165052726
  0
LINE
  8
_0-0_
  6
CONTINUOUS
 62
    7
 10
-0.0582149780947411
 20
-1.8694052165052726
 11
-0.0441034137053115
 21
-1.8929222376836383
  0
LINE
  8
_0-0_
  6
CONTINUOUS
 62
    7
 10
-0.0441034137053115
 20
-1.8929222376836383
 11
-0.0346611679112278
 21
-1.9183282259547447
  0
LINE
  8
_0-0_
  6
CONTINUOUS
 62
    7
 10
-0.0346611679112278
 20
-1.9183282259547447
 11
-0.0301751385729364
 21
-1.9448512332210246
  0
LINE
  8
_0-0_
  6
CONTINUOUS
 62
    7
 10
-0.0301751385729364
 20
-1.9448512332210246
 11
-0.0307816314218409
 21
-1.9716853713279812
  0
LINE
  8
_0-0_
  6
CONTINUOUS
 62
    7
 10
-0.0307816314218409
 20
-1.9716853713279812
 11
-0.0364622184796275
 21
-1.9980152985679638
  0
LINE
  8
_0-0_
  6
CONTINUOUS
 62
    7
 10
-0.0364622184796275
 20
-1.9980152985679638
 11
-0.0470442979830611
 21
-2.0230409934253717
  0
LINE
  8
_0-0_
  6
CONTINUOUS
 62
    7
 10
-0.0470442979830611
 20
-2.0230409934253717
 11
-0.0622063388012205
 21
-2.0460020628255751
  0
LINE
  8
_0-0_
  6
CONTINUOUS
 62
    7
 10
-0.0622063388012205
 20
-2.0460020628255751
 11
-0.0814876499962088
 21
-2.06620084629371
  0
LINE
  8
_0-0_
  6
CONTINUOUS
 62
    7
 10
-0.0814876499962088
 20
-2.06620084629371
 11
-0.1043023786841804
 21
-2.0830236140151759
  0
LINE
  8
_0-0_
  6
CONTINUOUS
 62
    7
 10
-0.1043023786841804
 20
-2.0830236140151759
 11
-0.1299573108787612
 21
-2.0959592147054864
  0
LINE
  8
_0-0_
  6
CONTINUOUS
 62
    7
 10
-0.1299573108787612
 20
-2.0959592147054864
 11
-0.1576729344472409
 21
-2.1046146066833962
  0
LINE
  8
_0-0_
  6
CONTINUOUS
 62
    7
 10
-0.1576729344472409
 20
-2.1046146066833962
 11
-0.1866071241922734
 21
-2.1087268002434967
  0
LINE
  8
_0-0_
  6
CONTINUOUS
 62
    7
 10
-0.1866071241922734
 20
-2.1087268002434967
 11
-0.2158807293998624
 21
-2.1081708484653343
  0
LINE
  8
_0-0_
  6
CONTINUOUS
 62
    7
 10
-0.2158807293998624
 20
-2.1081708484653343
 11
-0.2446042863889343
 21
-2.1029636436623633
  0
LINE
  8
_0-0_
  6
CONTINUOUS
 62
    7
 10
-0.2446042863889343
 20
-2.1029636436623633
 11
-0.2719050444151973
 21
-2.0932634041175491
  0
LINE
  8
_0-0_
  6
CONTINUOUS
 62
    7
 10
-0.2719050444151973
 20
-2.0932634041175491
 11
-0.2722395872915089
 21
-2.0931121706554277
  0
LINE
  8
_0-0_
  6
CONTINUOUS
 62
    7
 10
-1.1501356011499126
 20
-3.2496824125971671
 11
-0.2664639556214041
 21
-3.4243952706183265
  0
LINE
  8
_0-0_
  6
CONTINUOUS
 62
    7
 10
-1.2714238662224489
 20
-3.5196931931753284
 11
-0.3877522206939403
 21
-3.710289038289325
  0
LINE
  8
_0-0_
  6
CONTINUOUS
 62
    7
 10
-1.2714238662224593
 20
-3.5196931931753275
 11
-1.2714238662224593
 21
-3.5196931931753275
  0
LINE
  8
_0-0_
  6
CONTINUOUS
 62
    7
 10
-1.2714238662224593
 20
-3.5196931931753275
 11
-1.2979012411258328
 21
-3.5112173904909296
  0
LINE
  8
_0-0_
  6
CONTINUOUS
 62
    7
 10
-1.2979012411258328
 20
-3.5112173904909296
 11
-1.3223707568205478
 21
-3.4986557520514063
  0
LINE
  8
_0-0_
  6
CONTINUOUS
 62
    7
 10
-1.3223707568205478
 20
-3.4986557520514063
 11
-1.3440889194543924
 21
-3.482389956884246
  0
LINE
  8
_0-0_
  6
CONTINUOUS
 62
    7
 10
-1.3440889194543924
 20
-3.482389956884246
 11
-1.3623958336456581
 21
-3.4629142329447138
  0
LINE
  8
_0-0_
  6
CONTINUOUS
 62
    7
 10
-1.3623958336456581
 20
-3.4629142329447138
 11
-1.3767352530703885
 21
-3.4408203402495205
  0
LINE
  8
_0-0_
  6
CONTINUOUS
 62
    7
 10
-1.3767352530703885
 20
-3.4408203402495205
 11
-1.3866714817254597
 21
-3.4167795905481602
  0
LINE
  8
_0-0_
  6
CONTINUOUS
 62
    7
 10
-1.3866714817254597
 20
-3.4167795905481602
 11
-1.3919026123311617
 21
-3.3915224498551026
  0
LINE
  8
_0-0_
  6
CONTINUOUS
 62
    7
 10
-1.3919026123311617
 20
-3.3915224498551026
 11
-1.3922696996311203
 21
-3.365816343609576
  0
LINE
  8
_0-0_
  6
CONTINUOUS
 62
    7
 10
-1.3922696996311203
 20
-3.365816343609576
 11
-1.387761589863481
 21
-3.340442338841934
  0
LINE
  8
_0-0_
  6
CONTINUOUS
 62
    7
 10
-1.387761589863481
 20
-3.340442338841934
 11
-1.3785152596623198
 21
-3.3161714118471748
  0
LINE
  8
_0-0_
  6
CONTINUOUS
 62
    7
 10
-1.3785152596623198
 20
-3.3161714118471748
 11
-1.3648116540919306
 21
-3.2937410224603529
  0
LINE
  8
_0-0_
  6
CONTINUOUS
 62
    7
 10
-1.3648116540919306
 20
-3.2937410224603529
 11
-1.3470671502732106
 21
-3.2738327067126622
  0
LINE
  8
_0-0_
  6
CONTINUOUS
 62
    7
 10
-1.3470671502732106
 20
-3.2738327067126622
 11
-1.325820905975539
 21
-3.2570513687040021
  0
LINE
  8
_0-0_
  6
CONTINUOUS
 62
    7
 10
-1.325820905975539
 20
-3.2570513687040021
 11
-1.3017184775807826
 21
-3.2439069008979988
  0
LINE
  8
_0-0_
  6
CONTINUOUS
 62
    7
 10
-1.3017184775807826
 20
-3.2439069008979988
 11
-1.2754922051792987
 21
-3.2347986912975171
  0
LINE
  8
_0-0_
  6
CONTINUOUS
 62
    7
 10
-1.2754922051792987
 20
-3.2347986912975171
 11
-1.2479389607868723
 21
-3.2300034882422901
  0
LINE
  8
_0-0_
  6
CONTINUOUS
 62
    7
 10
-1.2479389607868723
 20
-3.2300034882422901
 11
-1.2198959357917525
 21
-3.2296669915506615
  0
LINE
  8
_0-0_
  6
CONTINUOUS
 62
    7
 10
-1.2198959357917525
 20
-3.2296669915506615
 11
-1.1922152033179612
 21
-3.2337994255043307
  0
LINE
  8
_0-0_
  6
CONTINUOUS
 62
    7
 10
-1.1922152033179612
 20
-3.2337994255043307
 11
-1.1657378284145876
 21
-3.2422752281887282
  0
LINE
  8
_0-0_
  6
CONTINUOUS
 62
    7
 10
-1.1657378284145876
 20
-3.2422752281887282
 11
-1.1501356011499229
 21
-3.2496824125971679
  0
LINE
  8
_0-0_
  6
CONTINUOUS
 62
    7
 10
-0.2664639556214041
 20
-3.4243952706183265
 11
-0.2664639556214041
 21
-3.4243952706183265
  0
LINE
  8
_0-0_
  6
CONTINUOUS
 62
    7
 10
-0.2664639556214041
 20
-3.4243952706183265
 11
-0.2391631975951411
 21
-3.4340955101631407
  0
LINE
  8
_0-0_
  6
CONTINUOUS
 62
    7
 10
-0.2391631975951411
 20
-3.4340955101631407
 11
-0.2141147582494647
 21
-3.4479940475797868
  0
LINE
  8
_0-0_
  6
CONTINUOUS
 62
    7
 10
-0.2141147582494647
 20
-3.4479940475797868
 11
-0.1920797217387717
 21
-3.4656685828418596
  0
LINE
  8
_0-0_
  6
CONTINUOUS
 62
    7
 10
-0.1920797217387717
 20
-3.4656685828418596
 11
-0.1737276114971728
 21
-3.4865820841391666
  0
LINE
  8
_0-0_
  6
CONTINUOUS
 62
    7
 10
-0.1737276114971728
 20
-3.4865820841391666
 11
-0.1596160471077431
 21
-3.5100991053175323
  0
LINE
  8
_0-0_
  6
CONTINUOUS
 62
    7
 10
-0.1596160471077431
 20
-3.5100991053175323
 11
-0.1501738013136595
 21
-3.5355050935886387
  0
LINE
  8
_0-0_
  6
CONTINUOUS
 62
    7
 10
-0.1501738013136595
 20
-3.5355050935886387
 11
-0.1456877719753681
 21
-3.5620281008549188
  0
LINE
  8
_0-0_
  6
CONTINUOUS
 62
    7
 10
-0.1456877719753681
 20
-3.5620281008549188
 11
-0.1462942648242726
 21
-3.5888622389618754
  0
LINE
  8
_0-0_
  6
CONTINUOUS
 62
    7
 10
-0.1462942648242726
 20
-3.5888622389618754
 11
-0.1519748518820592
 21
-3.615192166201858
  0
LINE
  8
_0-0_
  6
CONTINUOUS
 62
    7
 10
-0.1519748518820592
 20
-3.615192166201858
 11
-0.1625569313854928
 21
-3.6402178610592659
  0
LINE
  8
_0-0_
  6
CONTINUOUS
 62
    7
 10
-0.1625569313854928
 20
-3.6402178610592659
 11
-0.1777189722036522
 21
-3.6631789304594693
  0
LINE
  8
_0-0_
  6
CONTINUOUS
 62
    7
 10
-0.1777189722036522
 20
-3.6631789304594693
 11
-0.1970002833986405
 21
-3.6833777139276043
  0
LINE
  8
_0-0_
  6
CONTINUOUS
 62
    7
 10
-0.1970002833986405
 20
-3.6833777139276043
 11
-0.2198150120866121
 21
-3.7002004816490701
  0
LINE
  8
_0-0_
  6
CONTINUOUS
 62
    7
 10
-0.2198150120866121
 20
-3.7002004816490701
 11
-0.2454699442811929
 21
-3.7131360823393806
  0
LINE
  8
_0-0_
  6
CONTINUOUS
 62
    7
 10
-0.2454699442811929
 20
-3.7131360823393806
 11
-0.2731855678496725
 21
-3.7217914743172904
  0
LINE
  8
_0-0_
  6
CONTINUOUS
 62
    7
 10
-0.2731855678496725
 20
-3.7217914743172904
 11
-0.3021197575947051
 21
-3.7259036678773909
  0
LINE
  8
_0-0_
  6
CONTINUOUS
 62
    7
 10
-0.3021197575947051
 20
-3.7259036678773909
 11
-0.331393362802294
 21
-3.7253477160992285
  0
LINE
  8
_0-0_
  6
CONTINUOUS
 62
    7
 10
-0.331393362802294
 20
-3.7253477160992285
 11
-0.360116919791366
 21
-3.7201405112962576
  0
LINE
  8
_0-0_
  6
CONTINUOUS
 62
    7
 10
-0.360116919791366
 20
-3.7201405112962576
 11
-0.387417677817629
 21
-3.7104402717514433
  0
LINE
  8
_0-0_
  6
CONTINUOUS
 62
    7
 10
-0.387417677817629
 20
-3.7104402717514433
 11
-0.3877522206939406
 21
-3.7102890382893219
  0
LINE
  8
_0-0_
  6
CONTINUOUS
 62
    7
 10
-1.1501356011499126
 20
-3.8561237379598765
 11
-0.2664639556214041
 21
-4.0308365959810359
  0
LINE
  8
_0-0_
  6
CONTINUOUS
 62
    7
 10
-1.2714238662224489
 20
-4.1261345185380378
 11
-0.3877522206939403
 21
-4.3167303636520344
  0
LINE
  8
_0-0_
  6
CONTINUOUS
 62
    7
 10
-1.2714238662224593
 20
-4.1261345185380369
 11
-1.2714238662224593
 21
-4.1261345185380369
  0
LINE
  8
_0-0_
  6
CONTINUOUS
 62
    7
 10
-1.2714238662224593
 20
-4.1261345185380369
 11
-1.2979012411258328
 21
-4.1176587158536391
  0
LINE
  8
_0-0_
  6
CONTINUOUS
 62
    7
 10
-1.2979012411258328
 20
-4.1176587158536391
 11
-1.3223707568205478
 21
-4.1050970774141158
  0
LINE
  8
_0-0_
  6
CONTINUOUS
 62
    7
 10
-1.3223707568205478
 20
-4.1050970774141158
 11
-1.3440889194543924
 21
-4.0888312822469555
  0
LINE
  8
_0-0_
  6
CONTINUOUS
 62
    7
 10
-1.3440889194543924
 20
-4.0888312822469555
 11
-1.3623958336456581
 21
-4.0693555583074232
  0
LINE
  8
_0-0_
  6
CONTINUOUS
 62
    7
 10
-1.3623958336456581
 20
-4.0693555583074232
 11
-1.3767352530703885
 21
-4.04726166561223
  0
LINE
  8
_0-0_
  6
CONTINUOUS
 62
    7
 10
-1.3767352530703885
 20
-4.04726166561223
 11
-1.3866714817254597
 21
-4.0232209159108701
  0
LINE
  8
_0-0_
  6
CONTINUOUS
 62
    7
 10
-1.3866714817254597
 20
-4.0232209159108701
 11
-1.3919026123311617
 21
-3.9979637752178121
  0
LINE
  8
_0-0_
  6
CONTINUOUS
 62
    7
 10
-1.3919026123311617
 20
-3.9979637752178121
 11
-1.3922696996311203
 21
-3.9722576689722855
  0
LINE
  8
_0-0_
  6
CONTINUOUS
 62
    7
 10
-1.3922696996311203
 20
-3.9722576689722855
 11
-1.387761589863481
 21
-3.9468836642046434
  0
LINE
  8
_0-0_
  6
CONTINUOUS
 62
    7
 10
-1.387761589863481
 20
-3.9468836642046434
 11
-1.3785152596623198
 21
-3.9226127372098842
  0
LINE
  8
_0-0_
  6
CONTINUOUS
 62
    7
 10
-1.3785152596623198
 20
-3.9226127372098842
 11
-1.3648116540919306
 21
-3.9001823478230624
  0
LINE
  8
_0-0_
  6
CONTINUOUS
 62
    7
 10
-1.3648116540919306
 20
-3.9001823478230624
 11
-1.3470671502732106
 21
-3.8802740320753717
  0
LINE
  8
_0-0_
  6
CONTINUOUS
 62
    7
 10
-1.3470671502732106
 20
-3.8802740320753717
 11
-1.325820905975539
 21
-3.8634926940667116
  0
LINE
  8
_0-0_
  6
CONTINUOUS
 62
    7
 10
-1.325820905975539
 20
-3.8634926940667116
 11
-1.3017184775807826
 21
-3.8503482262607083
  0
LINE
  8
_0-0_
  6
CONTINUOUS
 62
    7
 10
-1.3017184775807826
 20
-3.8503482262607083
 11
-1.2754922051792987
 21
-3.8412400166602265
  0
LINE
  8
_0-0_
  6
CONTINUOUS
 62
    7
 10
-1.2754922051792987
 20
-3.8412400166602265
 11
-1.2479389607868723
 21
-3.8364448136049996
  0
LINE
  8
_0-0_
  6
CONTINUOUS
 62
    7
 10
-1.2479389607868723
 20
-3.8364448136049996
 11
-1.2198959357917525
 21
-3.836108316913371
  0
LINE
  8
_0-0_
  6
CONTINUOUS
 62
    7
 10
-1.2198959357917525
 20
-3.836108316913371
 11
-1.1922152033179612
 21
-3.8402407508670402
  0
LINE
  8
_0-0_
  6
CONTINUOUS
 62
    7
 10
-1.1922152033179612
 20
-3.8402407508670402
 11
-1.1657378284145876
 21
-3.8487165535514376
  0
LINE
  8
_0-0_
  6
CONTINUOUS
 62
    7
 10
-1.1657378284145876
 20
-3.8487165535514376
 11
-1.1501356011499229
 21
-3.8561237379598774
  0
LINE
  8
_0-0_
  6
CONTINUOUS
 62
    7
 10
-0.2664639556214041
 20
-4.0308365959810359
 11
-0.2664639556214041
 21
-4.0308365959810359
  0
LINE
  8
_0-0_
  6
CONTINUOUS
 62
    7
 10
-0.2664639556214041
 20
-4.0308365959810359
 11
-0.2391631975951411
 21
-4.0405368355258497
  0
LINE
  8
_0-0_
  6
CONTINUOUS
 62
    7
 10
-0.2391631975951411
 20
-4.0405368355258497
 11
-0.2141147582494647
 21
-4.0544353729424962
  0
LINE
  8
_0-0_
  6
CONTINUOUS
 62
    7
 10
-0.2141147582494647
 20
-4.0544353729424962
 11
-0.1920797217387717
 21
-4.0721099082045686
  0
LINE
  8
_0-0_
  6
CONTINUOUS
 62
    7
 10
-0.1920797217387717
 20
-4.0721099082045686
 11
-0.1737276114971728
 21
-4.0930234095018765
  0
LINE
  8
_0-0_
  6
CONTINUOUS
 62
    7
 10
-0.1737276114971728
 20
-4.0930234095018765
 11
-0.1596160471077431
 21
-4.1165404306802422
  0
LINE
  8
_0-0_
  6
CONTINUOUS
 62
    7
 10
-0.1596160471077431
 20
-4.1165404306802422
 11
-0.1501738013136595
 21
-4.1419464189513482
  0
LINE
  8
_0-0_
  6
CONTINUOUS
 62
    7
 10
-0.1501738013136595
 20
-4.1419464189513482
 11
-0.1456877719753681
 21
-4.1684694262176283
  0
LINE
  8
_0-0_
  6
CONTINUOUS
 62
    7
 10
-0.1456877719753681
 20
-4.1684694262176283
 11
-0.1462942648242726
 21
-4.1953035643245844
  0
LINE
  8
_0-0_
  6
CONTINUOUS
 62
    7
 10
-0.1462942648242726
 20
-4.1953035643245844
 11
-0.1519748518820592
 21
-4.2216334915645675
  0
LINE
  8
_0-0_
  6
CONTINUOUS
 62
    7
 10
-0.1519748518820592
 20
-4.2216334915645675
 11
-0.1625569313854928
 21
-4.2466591864219749
  0
LINE
  8
_0-0_
  6
CONTINUOUS
 62
    7
 10
-0.1625569313854928
 20
-4.2466591864219749
 11
-0.1777189722036522
 21
-4.2696202558221783
  0
LINE
  8
_0-0_
  6
CONTINUOUS
 62
    7
 10
-0.1777189722036522
 20
-4.2696202558221783
 11
-0.1970002833986405
 21
-4.2898190392903137
  0
LINE
  8
_0-0_
  6
CONTINUOUS
 62
    7
 10
-0.1970002833986405
 20
-4.2898190392903137
 11
-0.2198150120866121
 21
-4.3066418070117791
  0
LINE
  8
_0-0_
  6
CONTINUOUS
 62
    7
 10
-0.2198150120866121
 20
-4.3066418070117791
 11
-0.2454699442811929
 21
-4.3195774077020896
  0
LINE
  8
_0-0_
  6
CONTINUOUS
 62
    7
 10
-0.2454699442811929
 20
-4.3195774077020896
 11
-0.2731855678496725
 21
-4.3282327996800003
  0
LINE
  8
_0-0_
  6
CONTINUOUS
 62
    7
 10
-0.2731855678496725
 20
-4.3282327996800003
 11
-0.3021197575947051
 21
-4.3323449932401008
  0
LINE
  8
_0-0_
  6
CONTINUOUS
 62
    7
 10
-0.3021197575947051
 20
-4.3323449932401008
 11
-0.331393362802294
 21
-4.3317890414619384
  0
LINE
  8
_0-0_
  6
CONTINUOUS
 62
    7
 10
-0.331393362802294
 20
-4.3317890414619384
 11
-0.360116919791366
 21
-4.326581836658967
  0
LINE
  8
_0-0_
  6
CONTINUOUS
 62
    7
 10
-0.360116919791366
 20
-4.326581836658967
 11
-0.387417677817629
 21
-4.3168815971141532
  0
LINE
  8
_0-0_
  6
CONTINUOUS
 62
    7
 10
-0.387417677817629
 20
-4.3168815971141532
 11
-0.3877522206939406
 21
-4.3167303636520309
  0
LINE
  8
_0-0_
  6
CONTINUOUS
 62
    7
 10
-1.1790137595005064
 20
-4.3181742715695606
 11
-0.2953421139719978
 21
-4.49288712959072
  0
LINE
  8
_0-0_
  6
CONTINUOUS
 62
    7
 10
-1.3003020245730426
 20
-4.5881850521477219
 11
-0.416630379044534
 21
-4.7787808972617185
  0
LINE
  8
_0-0_
  6
CONTINUOUS
 62
    7
 10
-1.300302024573053
 20
-4.588185052147721
 11
-1.300302024573053
 21
-4.588185052147721
  0
LINE
  8
_0-0_
  6
CONTINUOUS
 62
    7
 10
-1.300302024573053
 20
-4.588185052147721
 11
-1.3267793994764265
 21
-4.5797092494633231
  0
LINE
  8
_0-0_
  6
CONTINUOUS
 62
    7
 10
-1.3267793994764265
 20
-4.5797092494633231
 11
-1.3512489151711415
 21
-4.5671476110237998
  0
LINE
  8
_0-0_
  6
CONTINUOUS
 62
    7
 10
-1.3512489151711415
 20
-4.5671476110237998
 11
-1.3729670778049861
 21
-4.5508818158566395
  0
LINE
  8
_0-0_
  6
CONTINUOUS
 62
    7
 10
-1.3729670778049861
 20
-4.5508818158566395
 11
-1.3912739919962518
 21
-4.5314060919171073
  0
LINE
  8
_0-0_
  6
CONTINUOUS
 62
    7
 10
-1.3912739919962518
 20
-4.5314060919171073
 11
-1.4056134114209822
 21
-4.5093121992219141
  0
LINE
  8
_0-0_
  6
CONTINUOUS
 62
    7
 10
-1.4056134114209822
 20
-4.5093121992219141
 11
-1.4155496400760534
 21
-4.4852714495205541
  0
LINE
  8
_0-0_
  6
CONTINUOUS
 62
    7
 10
-1.4155496400760534
 20
-4.4852714495205541
 11
-1.4207807706817555
 21
-4.4600143088274962
  0
LINE
  8
_0-0_
  6
CONTINUOUS
 62
    7
 10
-1.4207807706817555
 20
-4.4600143088274962
 11
-1.4211478579817141
 21
-4.4343082025819696
  0
LINE
  8
_0-0_
  6
CONTINUOUS
 62
    7
 10
-1.4211478579817141
 20
-4.4343082025819696
 11
-1.4166397482140747
 21
-4.4089341978143279
  0
LINE
  8
_0-0_
  6
CONTINUOUS
 62
    7
 10
-1.4166397482140747
 20
-4.4089341978143279
 11
-1.4073934180129135
 21
-4.3846632708195683
  0
LINE
  8
_0-0_
  6
CONTINUOUS
 62
    7
 10
-1.4073934180129135
 20
-4.3846632708195683
 11
-1.3936898124425243
 21
-4.362232881432746
  0
LINE
  8
_0-0_
  6
CONTINUOUS
 62
    7
 10
-1.3936898124425243
 20
-4.362232881432746
 11
-1.3759453086238043
 21
-4.3423245656850558
  0
LINE
  8
_0-0_
  6
CONTINUOUS
 62
    7
 10
-1.3759453086238043
 20
-4.3423245656850558
 11
-1.3546990643261327
 21
-4.3255432276763957
  0
LINE
  8
_0-0_
  6
CONTINUOUS
 62
    7
 10
-1.3546990643261327
 20
-4.3255432276763957
 11
-1.3305966359313763
 21
-4.3123987598703923
  0
LINE
  8
_0-0_
  6
CONTINUOUS
 62
    7
 10
-1.3305966359313763
 20
-4.3123987598703923
 11
-1.3043703635298924
 21
-4.3032905502699101
  0
LINE
  8
_0-0_
  6
CONTINUOUS
 62
    7
 10
-1.3043703635298924
 20
-4.3032905502699101
 11
-1.276817119137466
 21
-4.2984953472146836
  0
LINE
  8
_0-0_
  6
CONTINUOUS
 62
    7
 10
-1.276817119137466
 20
-4.2984953472146836
 11
-1.2487740941423462
 21
-4.2981588505230546
  0
LINE
  8
_0-0_
  6
CONTINUOUS
 62
    7
 10
-1.2487740941423462
 20
-4.2981588505230546
 11
-1.2210933616685549
 21
-4.3022912844767243
  0
LINE
  8
_0-0_
  6
CONTINUOUS
 62
    7
 10
-1.2210933616685549
 20
-4.3022912844767243
 11
-1.1946159867651813
 21
-4.3107670871611221
  0
LINE
  8
_0-0_
  6
CONTINUOUS
 62
    7
 10
-1.1946159867651813
 20
-4.3107670871611221
 11
-1.1790137595005166
 21
-4.3181742715695615
  0
LINE
  8
_0-0_
  6
CONTINUOUS
 62
    7
 10
-0.2953421139719978
 20
-4.49288712959072
 11
-0.2953421139719978
 21
-4.49288712959072
  0
LINE
  8
_0-0_
  6
CONTINUOUS
 62
    7
 10
-0.2953421139719978
 20
-4.49288712959072
 11
-0.2680413559457348
 21
-4.5025873691355338
  0
LINE
  8
_0-0_
  6
CONTINUOUS
 62
    7
 10
-0.2680413559457348
 20
-4.5025873691355338
 11
-0.2429929166000584
 21
-4.5164859065521803
  0
LINE
  8
_0-0_
  6
CONTINUOUS
 62
    7
 10
-0.2429929166000584
 20
-4.5164859065521803
 11
-0.2209578800893654
 21
-4.5341604418142527
  0
LINE
  8
_0-0_
  6
CONTINUOUS
 62
    7
 10
-0.2209578800893654
 20
-4.5341604418142527
 11
-0.2026057698477665
 21
-4.5550739431115606
  0
LINE
  8
_0-0_
  6
CONTINUOUS
 62
    7
 10
-0.2026057698477665
 20
-4.5550739431115606
 11
-0.1884942054583368
 21
-4.5785909642899263
  0
LINE
  8
_0-0_
  6
CONTINUOUS
 62
    7
 10
-0.1884942054583368
 20
-4.5785909642899263
 11
-0.1790519596642532
 21
-4.6039969525610323
  0
LINE
  8
_0-0_
  6
CONTINUOUS
 62
    7
 10
-0.1790519596642532
 20
-4.6039969525610323
 11
-0.1745659303259618
 21
-4.6305199598273123
  0
LINE
  8
_0-0_
  6
CONTINUOUS
 62
    7
 10
-0.1745659303259618
 20
-4.6305199598273123
 11
-0.1751724231748663
 21
-4.6573540979342685
  0
LINE
  8
_0-0_
  6
CONTINUOUS
 62
    7
 10
-0.1751724231748663
 20
-4.6573540979342685
 11
-0.1808530102326529
 21
-4.6836840251742515
  0
LINE
  8
_0-0_
  6
CONTINUOUS
 62
    7
 10
-0.1808530102326529
 20
-4.6836840251742515
 11
-0.1914350897360865
 21
-4.708709720031659
  0
LINE
  8
_0-0_
  6
CONTINUOUS
 62
    7
 10
-0.1914350897360865
 20
-4.708709720031659
 11
-0.2065971305542459
 21
-4.7316707894318624
  0
LINE
  8
_0-0_
  6
CONTINUOUS
 62
    7
 10
-0.2065971305542459
 20
-4.7316707894318624
 11
-0.2258784417492342
 21
-4.7518695728999978
  0
LINE
  8
_0-0_
  6
CONTINUOUS
 62
    7
 10
-0.2258784417492342
 20
-4.7518695728999978
 11
-0.2486931704372058
 21
-4.7686923406214632
  0
LINE
  8
_0-0_
  6
CONTINUOUS
 62
    7
 10
-0.2486931704372058
 20
-4.7686923406214632
 11
-0.2743481026317866
 21
-4.7816279413117737
  0
LINE
  8
_0-0_
  6
CONTINUOUS
 62
    7
 10
-0.2743481026317866
 20
-4.7816279413117737
 11
-0.3020637262002662
 21
-4.7902833332896844
  0
LINE
  8
_0-0_
  6
CONTINUOUS
 62
    7
 10
-0.3020637262002662
 20
-4.7902833332896844
 11
-0.3309979159452988
 21
-4.7943955268497849
  0
LINE
  8
_0-0_
  6
CONTINUOUS
 62
    7
 10
-0.3309979159452988
 20
-4.7943955268497849
 11
-0.3602715211528878
 21
-4.7938395750716225
  0
LINE
  8
_0-0_
  6
CONTINUOUS
 62
    7
 10
-0.3602715211528878
 20
-4.7938395750716225
 11
-0.3889950781419597
 21
-4.7886323702686511
  0
LINE
  8
_0-0_
  6
CONTINUOUS
 62
    7
 10
-0.3889950781419597
 20
-4.7886323702686511
 11
-0.4162958361682227
 21
-4.7789321307238373
  0
LINE
  8
_0-0_
  6
CONTINUOUS
 62
    7
 10
-0.4162958361682227
 20
-4.7789321307238373
 11
-0.4166303790445343
 21
-4.778780897261715
  0
LINE
  8
_0-0_
  6
CONTINUOUS
 62
    7
 10
-1.1501356011499126
 20
-4.7513466468286438
 11
-0.2664639556214041
 21
-4.9260595048498033
  0
LINE
  8
_0-0_
  6
CONTINUOUS
 62
    7
 10
-1.2714238662224489
 20
-5.0213574274068051
 11
-0.3877522206939403
 21
-5.2119532725208018
  0
LINE
  8
_0-0_
  6
CONTINUOUS
 62
    7
 10
-1.2714238662224593
 20
-5.0213574274068042
 11
-1.2714238662224593
 21
-5.0213574274068042
  0
LINE
  8
_0-0_
  6
CONTINUOUS
 62
    7
 10
-1.2714238662224593
 20
-5.0213574274068042
 11
-1.2979012411258328
 21
-5.0128816247224064
  0
LINE
  8
_0-0_
  6
CONTINUOUS
 62
    7
 10
-1.2979012411258328
 20
-5.0128816247224064
 11
-1.3223707568205478
 21
-5.0003199862828831
  0
LINE
  8
_0-0_
  6
CONTINUOUS
 62
    7
 10
-1.3223707568205478
 20
-5.0003199862828831
 11
-1.3440889194543924
 21
-4.9840541911157228
  0
LINE
  8
_0-0_
  6
CONTINUOUS
 62
    7
 10
-1.3440889194543924
 20
-4.9840541911157228
 11
-1.3623958336456581
 21
-4.9645784671761906
  0
LINE
  8
_0-0_
  6
CONTINUOUS
 62
    7
 10
-1.3623958336456581
 20
-4.9645784671761906
 11
-1.3767352530703885
 21
-4.9424845744809973
  0
LINE
  8
_0-0_
  6
CONTINUOUS
 62
    7
 10
-1.3767352530703885
 20
-4.9424845744809973
 11
-1.3866714817254597
 21
-4.9184438247796374
  0
LINE
  8
_0-0_
  6
CONTINUOUS
 62
    7
 10
-1.3866714817254597
 20
-4.9184438247796374
 11
-1.3919026123311617
 21
-4.8931866840865794
  0
LINE
  8
_0-0_
  6
CONTINUOUS
 62
    7
 10
-1.3919026123311617
 20
-4.8931866840865794
 11
-1.3922696996311203
 21
-4.8674805778410528
  0
LINE
  8
_0-0_
  6
CONTINUOUS
 62
    7
 10
-1.3922696996311203
 20
-4.8674805778410528
 11
-1.387761589863481
 21
-4.8421065730734112
  0
LINE
  8
_0-0_
  6
CONTINUOUS
 62
    7
 10
-1.387761589863481
 20
-4.8421065730734112
 11
-1.3785152596623198
 21
-4.8178356460786516
  0
LINE
  8
_0-0_
  6
CONTINUOUS
 62
    7
 10
-1.3785152596623198
 20
-4.8178356460786516
 11
-1.3648116540919306
 21
-4.7954052566918293
  0
LINE
  8
_0-0_
  6
CONTINUOUS
 62
    7
 10
-1.3648116540919306
 20
-4.7954052566918293
 11
-1.3470671502732106
 21
-4.775496940944139
  0
LINE
  8
_0-0_
  6
CONTINUOUS
 62
    7
 10
-1.3470671502732106
 20
-4.775496940944139
 11
-1.325820905975539
 21
-4.7587156029354789
  0
LINE
  8
_0-0_
  6
CONTINUOUS
 62
    7
 10
-1.325820905975539
 20
-4.7587156029354789
 11
-1.3017184775807826
 21
-4.7455711351294756
  0
LINE
  8
_0-0_
  6
CONTINUOUS
 62
    7
 10
-1.3017184775807826
 20
-4.7455711351294756
 11
-1.2754922051792987
 21
-4.7364629255289934
  0
LINE
  8
_0-0_
  6
CONTINUOUS
 62
    7
 10
-1.2754922051792987
 20
-4.7364629255289934
 11
-1.2479389607868723
 21
-4.7316677224737669
  0
LINE
  8
_0-0_
  6
CONTINUOUS
 62
    7
 10
-1.2479389607868723
 20
-4.7316677224737669
 11
-1.2198959357917525
 21
-4.7313312257821378
  0
LINE
  8
_0-0_
  6
CONTINUOUS
 62
    7
 10
-1.2198959357917525
 20
-4.7313312257821378
 11
-1.1922152033179612
 21
-4.7354636597358075
  0
LINE
  8
_0-0_
  6
CONTINUOUS
 62
    7
 10
-1.1922152033179612
 20
-4.7354636597358075
 11
-1.1657378284145876
 21
-4.7439394624202054
  0
LINE
  8
_0-0_
  6
CONTINUOUS
 62
    7
 10
-1.1657378284145876
 20
-4.7439394624202054
 11
-1.1501356011499229
 21
-4.7513466468286447
  0
LINE
  8
_0-0_
  6
CONTINUOUS
 62
    7
 10
-0.2664639556214041
 20
-4.9260595048498033
 11
-0.2664639556214041
 21
-4.9260595048498033
  0
LINE
  8
_0-0_
  6
CONTINUOUS
 62
    7
 10
-0.2664639556214041
 20
-4.9260595048498033
 11
-0.2391631975951411
 21
-4.9357597443946171
  0
LINE
  8
_0-0_
  6
CONTINUOUS
 62
    7
 10
-0.2391631975951411
 20
-4.9357597443946171
 11
-0.2141147582494647
 21
-4.9496582818112635
  0
LINE
  8
_0-0_
  6
CONTINUOUS
 62
    7
 10
-0.2141147582494647
 20
-4.9496582818112635
 11
-0.1920797217387717
 21
-4.967332817073336
  0
LINE
  8
_0-0_
  6
CONTINUOUS
 62
    7
 10
-0.1920797217387717
 20
-4.967332817073336
 11
-0.1737276114971728
 21
-4.9882463183706438
  0
LINE
  8
_0-0_
  6
CONTINUOUS
 62
    7
 10
-0.1737276114971728
 20
-4.9882463183706438
 11
-0.1596160471077431
 21
-5.0117633395490095
  0
LINE
  8
_0-0_
  6
CONTINUOUS
 62
    7
 10
-0.1596160471077431
 20
-5.0117633395490095
 11
-0.1501738013136595
 21
-5.0371693278201155
  0
LINE
  8
_0-0_
  6
CONTINUOUS
 62
    7
 10
-0.1501738013136595
 20
-5.0371693278201155
 11
-0.1456877719753681
 21
-5.0636923350863956
  0
LINE
  8
_0-0_
  6
CONTINUOUS
 62
    7
 10
-0.1456877719753681
 20
-5.0636923350863956
 11
-0.1462942648242726
 21
-5.0905264731933517
  0
LINE
  8
_0-0_
  6
CONTINUOUS
 62
    7
 10
-0.1462942648242726
 20
-5.0905264731933517
 11
-0.1519748518820592
 21
-5.1168564004333348
  0
LINE
  8
_0-0_
  6
CONTINUOUS
 62
    7
 10
-0.1519748518820592
 20
-5.1168564004333348
 11
-0.1625569313854928
 21
-5.1418820952907422
  0
LINE
  8
_0-0_
  6
CONTINUOUS
 62
    7
 10
-0.1625569313854928
 20
-5.1418820952907422
 11
-0.1777189722036522
 21
-5.1648431646909456
  0
LINE
  8
_0-0_
  6
CONTINUOUS
 62
    7
 10
-0.1777189722036522
 20
-5.1648431646909456
 11
-0.1970002833986405
 21
-5.185041948159081
  0
LINE
  8
_0-0_
  6
CONTINUOUS
 62
    7
 10
-0.1970002833986405
 20
-5.185041948159081
 11
-0.2198150120866121
 21
-5.2018647158805464
  0
LINE
  8
_0-0_
  6
CONTINUOUS
 62
    7
 10
-0.2198150120866121
 20
-5.2018647158805464
 11
-0.2454699442811929
 21
-5.214800316570857
  0
LINE
  8
_0-0_
  6
CONTINUOUS
 62
    7
 10
-0.2454699442811929
 20
-5.214800316570857
 11
-0.2731855678496725
 21
-5.2234557085487676
  0
LINE
  8
_0-0_
  6
CONTINUOUS
 62
    7
 10
-0.2731855678496725
 20
-5.2234557085487676
 11
-0.3021197575947051
 21
-5.2275679021088681
  0
LINE
  8
_0-0_
  6
CONTINUOUS
 62
    7
 10
-0.3021197575947051
 20
-5.2275679021088681
 11
-0.331393362802294
 21
-5.2270119503307058
  0
LINE
  8
_0-0_
  6
CONTINUOUS
 62
    7
 10
-0.331393362802294
 20
-5.2270119503307058
 11
-0.360116919791366
 21
-5.2218047455277343
  0
LINE
  8
_0-0_
  6
CONTINUOUS
 62
    7
 10
-0.360116919791366
 20
-5.2218047455277343
 11
-0.387417677817629
 21
-5.2121045059829205
  0
LINE
  8
_0-0_
  6
CONTINUOUS
 62
    7
 10
-0.387417677817629
 20
-5.2121045059829205
 11
-0.3877522206939406
 21
-5.2119532725207982
  0
LINE
  8
_0-0_
  6
CONTINUOUS
 62
    7
 10
-1.1790137595005064
 20
-5.1556408637371121
 11
-0.2953421139719978
 21
-5.3303537217582715
  0
LINE
  8
_0-0_
  6
CONTINUOUS
 62
    7
 10
-1.3003020245730426
 20
-5.4256516443152734
 11
-0.416630379044534
 21
-5.61624748942927
  0
LINE
  8
_0-0_
  6
CONTINUOUS
 62
    7
 10
-1.300302024573053
 20
-5.4256516443152725
 11
-1.300302024573053
 21
-5.4256516443152725
  0
LINE
  8
_0-0_
  6
CONTINUOUS
 62
    7
 10
-1.300302024573053
 20
-5.4256516443152725
 11
-1.3267793994764265
 21
-5.4171758416308746
  0
LINE
  8
_0-0_
  6
CONTINUOUS
 62
    7
 10
-1.3267793994764265
 20
-5.4171758416308746
 11
-1.3512489151711415
 21
-5.4046142031913513
  0
LINE
  8
_0-0_
  6
CONTINUOUS
 62
    7
 10
-1.3512489151711415
 20
-5.4046142031913513
 11
-1.3729670778049861
 21
-5.388348408024191
  0
LINE
  8
_0-0_
  6
CONTINUOUS
 62
    7
 10
-1.3729670778049861
 20
-5.388348408024191
 11
-1.3912739919962518
 21
-5.3688726840846588
  0
LINE
  8
_0-0_
  6
CONTINUOUS
 62
    7
 10
-1.3912739919962518
 20
-5.3688726840846588
 11
-1.4056134114209822
 21
-5.3467787913894655
  0
LINE
  8
_0-0_
  6
CONTINUOUS
 62
    7
 10
-1.4056134114209822
 20
-5.3467787913894655
 11
-1.4155496400760534
 21
-5.3227380416881056
  0
LINE
  8
_0-0_
  6
CONTINUOUS
 62
    7
 10
-1.4155496400760534
 20
-5.3227380416881056
 11
-1.4207807706817555
 21
-5.2974809009950476
  0
LINE
  8
_0-0_
  6
CONTINUOUS
 62
    7
 10
-1.4207807706817555
 20
-5.2974809009950476
 11
-1.4211478579817141
 21
-5.271774794749521
  0
LINE
  8
_0-0_
  6
CONTINUOUS
 62
    7
 10
-1.4211478579817141
 20
-5.271774794749521
 11
-1.4166397482140747
 21
-5.2464007899818794
  0
LINE
  8
_0-0_
  6
CONTINUOUS
 62
    7
 10
-1.4166397482140747
 20
-5.2464007899818794
 11
-1.4073934180129135
 21
-5.2221298629871198
  0
LINE
  8
_0-0_
  6
CONTINUOUS
 62
    7
 10
-1.4073934180129135
 20
-5.2221298629871198
 11
-1.3936898124425243
 21
-5.1996994736002975
  0
LINE
  8
_0-0_
  6
CONTINUOUS
 62
    7
 10
-1.3936898124425243
 20
-5.1996994736002975
 11
-1.3759453086238043
 21
-5.1797911578526072
  0
LINE
  8
_0-0_
  6
CONTINUOUS
 62
    7
 10
-1.3759453086238043
 20
-5.1797911578526072
 11
-1.3546990643261327
 21
-5.1630098198439471
  0
LINE
  8
_0-0_
  6
CONTINUOUS
 62
    7
 10
-1.3546990643261327
 20
-5.1630098198439471
 11
-1.3305966359313763
 21
-5.1498653520379438
  0
LINE
  8
_0-0_
  6
CONTINUOUS
 62
    7
 10
-1.3305966359313763
 20
-5.1498653520379438
 11
-1.3043703635298924
 21
-5.1407571424374616
  0
LINE
  8
_0-0_
  6
CONTINUOUS
 62
    7
 10
-1.3043703635298924
 20
-5.1407571424374616
 11
-1.276817119137466
 21
-5.1359619393822351
  0
LINE
  8
_0-0_
  6
CONTINUOUS
 62
    7
 10
-1.276817119137466
 20
-5.1359619393822351
 11
-1.2487740941423462
 21
-5.1356254426906061
  0
LINE
  8
_0-0_
  6
CONTINUOUS
 62
    7
 10
-1.2487740941423462
 20
-5.1356254426906061
 11
-1.2210933616685549
 21
-5.1397578766442757
  0
LINE
  8
_0-0_
  6
CONTINUOUS
 62
    7
 10
-1.2210933616685549
 20
-5.1397578766442757
 11
-1.1946159867651813
 21
-5.1482336793286736
  0
LINE
  8
_0-0_
  6
CONTINUOUS
 62
    7
 10
-1.1946159867651813
 20
-5.1482336793286736
 11
-1.1790137595005166
 21
-5.1556408637371129
  0
LINE
  8
_0-0_
  6
CONTINUOUS
 62
    7
 10
-0.2953421139719978
 20
-5.3303537217582715
 11
-0.2953421139719978
 21
-5.3303537217582715
  0
LINE
  8
_0-0_
  6
CONTINUOUS
 62
    7
 10
-0.2953421139719978
 20
-5.3303537217582715
 11
-0.2680413559457348
 21
-5.3400539613030853
  0
LINE
  8
_0-0_
  6
CONTINUOUS
 62
    7
 10
-0.2680413559457348
 20
-5.3400539613030853
 11
-0.2429929166000584
 21
-5.3539524987197318
  0
LINE
  8
_0-0_
  6
CONTINUOUS
 62
    7
 10
-0.2429929166000584
 20
-5.3539524987197318
 11
-0.2209578800893654
 21
-5.3716270339818042
  0
LINE
  8
_0-0_
  6
CONTINUOUS
 62
    7
 10
-0.2209578800893654
 20
-5.3716270339818042
 11
-0.2026057698477665
 21
-5.392540535279112
  0
LINE
  8
_0-0_
  6
CONTINUOUS
 62
    7
 10
-0.2026057698477665
 20
-5.392540535279112
 11
-0.1884942054583368
 21
-5.4160575564574778
  0
LINE
  8
_0-0_
  6
CONTINUOUS
 62
    7
 10
-0.1884942054583368
 20
-5.4160575564574778
 11
-0.1790519596642532
 21
-5.4414635447285837
  0
LINE
  8
_0-0_
  6
CONTINUOUS
 62
    7
 10
-0.1790519596642532
 20
-5.4414635447285837
 11
-0.1745659303259618
 21
-5.4679865519948638
  0
LINE
  8
_0-0_
  6
CONTINUOUS
 62
    7
 10
-0.1745659303259618
 20
-5.4679865519948638
 11
-0.1751724231748663
 21
-5.4948206901018199
  0
LINE
  8
_0-0_
  6
CONTINUOUS
 62
    7
 10
-0.1751724231748663
 20
-5.4948206901018199
 11
-0.1808530102326529
 21
-5.521150617341803
  0
LINE
  8
_0-0_
  6
CONTINUOUS
 62
    7
 10
-0.1808530102326529
 20
-5.521150617341803
 11
-0.1914350897360865
 21
-5.5461763121992105
  0
LINE
  8
_0-0_
  6
CONTINUOUS
 62
    7
 10
-0.1914350897360865
 20
-5.5461763121992105
 11
-0.2065971305542459
 21
-5.5691373815994138
  0
LINE
  8
_0-0_
  6
CONTINUOUS
 62
    7
 10
-0.2065971305542459
 20
-5.5691373815994138
 11
-0.2258784417492342
 21
-5.5893361650675493
  0
LINE
  8
_0-0_
  6
CONTINUOUS
 62
    7
 10
-0.2258784417492342
 20
-5.5893361650675493
 11
-0.2486931704372058
 21
-5.6061589327890147
  0
LINE
  8
_0-0_
  6
CONTINUOUS
 62
    7
 10
-0.2486931704372058
 20
-5.6061589327890147
 11
-0.2743481026317866
 21
-5.6190945334793252
  0
LINE
  8
_0-0_
  6
CONTINUOUS
 62
    7
 10
-0.2743481026317866
 20
-5.6190945334793252
 11
-0.3020637262002662
 21
-5.6277499254572358
  0
LINE
  8
_0-0_
  6
CONTINUOUS
 62
    7
 10
-0.3020637262002662
 20
-5.6277499254572358
 11
-0.3309979159452988
 21
-5.6318621190173364
  0
LINE
  8
_0-0_
  6
CONTINUOUS
 62
    7
 10
-0.3309979159452988
 20
-5.6318621190173364
 11
-0.3602715211528878
 21
-5.631306167239174
  0
LINE
  8
_0-0_
  6
CONTINUOUS
 62
    7
 10
-0.3602715211528878
 20
-5.631306167239174
 11
-0.3889950781419597
 21
-5.6260989624362026
  0
LINE
  8
_0-0_
  6
CONTINUOUS
 62
    7
 10
-0.3889950781419597
 20
-5.6260989624362026
 11
-0.4162958361682227
 21
-5.6163987228913888
  0
LINE
  8
_0-0_
  6
CONTINUOUS
 62
    7
 10
-0.4162958361682227
 20
-5.6163987228913888
 11
-0.4166303790445343
 21
-5.6162474894292664
  0
ARC
  8
_0-0_
  6
CONTINUOUS
 62
    7
 10
-3.3182721822334713
 20
-0.8195668391298127
 40
0.6098395139850063
 50
209.84650870135386
 51
287.76537833556148
  0
ARC
  8
_0-0_
  6
CONTINUOUS
 62
    7
 10
-3.2382072079468855
 20
-0.7297922481647631
 40
0.6788614036110772
 50
278.98392557648333
 51
327.56585039318662
  0
ARC
  8
_0-0_
  6
CONTINUOUS
 62
    7
 10
-3.2822908509492095
 20
-1.2335556771697611
 40
0.6326581496761773
 50
12.754058004957178
 51
69.355569536968829
  0
ARC
  8
_0-0_
  6
CONTINUOUS
 62
    7
 10
-3.2037917700293406
 20
-1.6467995940288276
 40
1.0156169533152948
 50
81.817144141181046
 51
125.17432242041023
  0
ARC
  8
_0-0_
  6
CONTINUOUS
 62
    7
 10
-3.0902449666737795
 20
-1.1084783034219043
 40
0.7571193252280006
 50
157.32704409281217
 51
181.10436017206541
  0
ARC
  8
_0-0_
  6
CONTINUOUS
 62
    7
 10
-3.282278230201058
 20
-2.9800759302148094
 40
0.6098395139850063
 50
209.84650870135386
 51
287.76537833556148
  0
ARC
  8
_0-0_
  6
CONTINUOUS
 62
    7
 10
-3.2022132559144723
 20
-2.8903013392497598
 40
0.6788614036110772
 50
278.98392557648333
 51
327.56585039318662
  0
ARC
  8
_0-0_
  6
CONTINUOUS
 62
    7
 10
-3.2462968989167962
 20
-3.3940647682547578
 40
0.6326581496761773
 50
12.754058004957178
 51
69.355569536968829
  0
ARC
  8
_0-0_
  6
CONTINUOUS
 62
    7
 10
-3.1677978179969273
 20
-3.8073086851138243
 40
1.0156169533152948
 50
81.817144141181046
 51
125.17432242041023
  0
ARC
  8
_0-0_
  6
CONTINUOUS
 62
    7
 10
-3.0542510146413662
 20
-3.268987394506901
 40
0.7571193252280006
 50
157.32704409281217
 51
181.10436017206541
  0
LINE
  8
_0-0_
  6
CONTINUOUS
 62
    7
 10
-8.8936513961927268
 20
-3.4584361467127978
 11
-8.8936513961927268
 21
-3.4584361467127978
  0
LINE
  8
_0-0_
  6
CONTINUOUS
 62
    7
 10
-8.8936513961927268
 20
-3.4584361467127978
 11
-8.9765910518372198
 21
-3.4748780358684601
  0
LINE
  8
_0-0_
  6
CONTINUOUS
 62
    7
 10
-8.9765910518372198
 20
-3.4748780358684601
 11
-9.0615336438501171
 21
-3.4784681057315083
  0
LINE
  8
_0-0_
  6
CONTINUOUS
 62
    7
 10
-9.0615336438501171
 20
-3.4784681057315083
 11
-9.1458982345561317
 21
-3.4690972738458168
  0
LINE
  8
_0-0_
  6
CONTINUOUS
 62
    7
 10
-9.1458982345561317
 20
-3.4690972738458168
 11
-9.2271214485572024
 21
-3.4470502681963624
  0
LINE
  8
_0-0_
  6
CONTINUOUS
 62
    7
 10
-9.2271214485572024
 20
-3.4470502681963624
 11
-9.3027353595968396
 21
-3.4129969758934808
  0
LINE
  8
_0-0_
  6
CONTINUOUS
 62
    7
 10
-9.3027353595968396
 20
-3.4129969758934808
 11
-9.3704424772505863
 21
-3.3679720889919973
  0
LINE
  8
_0-0_
  6
CONTINUOUS
 62
    7
 10
-9.3704424772505863
 20
-3.3679720889919973
 11
-9.4281855550099891
 21
-3.3133436658967219
  0
LINE
  8
_0-0_
  6
CONTINUOUS
 62
    7
 10
-9.4281855550099891
 20
-3.3133436658967219
 11
-9.4656719187995293
 21
-3.2643577551140606
  0
LINE
  8
_0-0_
  6
CONTINUOUS
 62
    7
 10
-8.8936513961927286
 20
-3.4584361467127942
 11
-8.8936513961927286
 21
-3.4584361467127942
  0
LINE
  8
_0-0_
  6
CONTINUOUS
 62
    7
 10
-8.8936513961927286
 20
-3.4584361467127942
 11
-8.8017903075948603
 21
-3.4384194981309677
  0
LINE
  8
_0-0_
  6
CONTINUOUS
 62
    7
 10
-8.8017903075948603
 20
-3.4384194981309677
 11
-8.7152972005426612
 21
-3.4047493756139335
  0
LINE
  8
_0-0_
  6
CONTINUOUS
 62
    7
 10
-8.7152972005426612
 20
-3.4047493756139335
 11
-8.6368001243262889
 21
-3.358448828796468
  0
LINE
  8
_0-0_
  6
CONTINUOUS
 62
    7
 10
-8.6368001243262889
 20
-3.358448828796468
 11
-8.5686841728851419
 21
-3.3009246763644122
  0
LINE
  8
_0-0_
  6
CONTINUOUS
 62
    7
 10
-8.5686841728851419
 20
-3.3009246763644122
 11
-8.5200869732658351
 21
-3.2439284507352419
  0
LINE
  8
_0-0_
  6
CONTINUOUS
 62
    7
 10
-8.5200869732658351
 20
-3.2439284507352437
 11
-8.5200869732658351
 21
-3.2439284507352437
  0
LINE
  8
_0-0_
  6
CONTINUOUS
 62
    7
 10
-8.5200869732658351
 20
-3.2439284507352437
 11
-8.546989170175193
 21
-3.1704092503445547
  0
LINE
  8
_0-0_
  6
CONTINUOUS
 62
    7
 10
-8.546989170175193
 20
-3.1704092503445547
 11
-8.5880729196033023
 21
-3.1020945495895247
  0
LINE
  8
_0-0_
  6
CONTINUOUS
 62
    7
 10
-8.5880729196033023
 20
-3.1020945495895247
 11
-8.6420899126131694
 21
-3.0410600560836887
  0
LINE
  8
_0-0_
  6
CONTINUOUS
 62
    7
 10
-8.6420899126131694
 20
-3.0410600560836887
 11
-8.7073988702061076
 21
-2.9891602720272772
  0
LINE
  8
_0-0_
  6
CONTINUOUS
 62
    7
 10
-8.7073988702061076
 20
-2.9891602720272772
 11
-8.7820154127535819
 21
-2.9479721460962871
  0
LINE
  8
_0-0_
  6
CONTINUOUS
 62
    7
 10
-8.7820154127535819
 20
-2.9479721460962871
 11
-8.8352819551104069
 21
-2.9272742328636205
  0
LINE
  8
_0-0_
  6
CONTINUOUS
 62
    7
 10
-8.8352819551104158
 20
-2.9272742328636228
 11
-8.8352819551104158
 21
-2.9272742328636228
  0
LINE
  8
_0-0_
  6
CONTINUOUS
 62
    7
 10
-8.8352819551104158
 20
-2.9272742328636228
 11
-8.9766904444087512
 21
-2.9203936546927252
  0
LINE
  8
_0-0_
  6
CONTINUOUS
 62
    7
 10
-8.9766904444087512
 20
-2.9203936546927252
 11
-9.11731610656655
 21
-2.9351035186289476
  0
LINE
  8
_0-0_
  6
CONTINUOUS
 62
    7
 10
-9.11731610656655
 20
-2.9351035186289476
 11
-9.2528861019991648
 21
-2.9709568729001377
  0
LINE
  8
_0-0_
  6
CONTINUOUS
 62
    7
 10
-9.2528861019991648
 20
-2.9709568729001377
 11
-9.3792812049971026
 21
-3.0268643314794383
  0
LINE
  8
_0-0_
  6
CONTINUOUS
 62
    7
 10
-9.3792812049971026
 20
-3.0268643314794383
 11
-9.4189763659336876
 21
-3.0498500591365083
  0
LINE
  8
_0-0_
  6
CONTINUOUS
 62
    7
 10
-9.4189763659336734
 20
-3.0498500591365074
 11
-9.4189763659336734
 21
-3.0498500591365074
  0
LINE
  8
_0-0_
  6
CONTINUOUS
 62
    7
 10
-9.4189763659336734
 20
-3.0498500591365074
 11
-9.4510285988409066
 21
-3.1378722854815817
  0
LINE
  8
_0-0_
  6
CONTINUOUS
 62
    7
 10
-9.4510285988409066
 20
-3.1378722854815817
 11
-9.4651254300818639
 21
-3.2294273417787913
  0
LINE
  8
_0-0_
  6
CONTINUOUS
 62
    7
 10
-9.4651254300818639
 20
-3.2294273417787913
 11
-9.4656719187995293
 21
-3.2643577551140597
  0
LINE
  8
_0-0_
  6
CONTINUOUS
 62
    7
 10
-9.3022374837690229
 20
1.7218517493437502
 11
-9.3022374837690229
 21
1.7218517493437502
  0
LINE
  8
_0-0_
  6
CONTINUOUS
 62
    7
 10
-9.3022374837690229
 20
1.7218517493437502
 11
-9.3851771394135159
 21
1.7054098601880878
  0
LINE
  8
_0-0_
  6
CONTINUOUS
 62
    7
 10
-9.3851771394135159
 20
1.7054098601880878
 11
-9.4701197314264132
 21
1.7018197903250396
  0
LINE
  8
_0-0_
  6
CONTINUOUS
 62
    7
 10
-9.4701197314264132
 20
1.7018197903250396
 11
-9.5544843221324278
 21
1.7111906222107311
  0
LINE
  8
_0-0_
  6
CONTINUOUS
 62
    7
 10
-9.5544843221324278
 20
1.7111906222107311
 11
-9.6357075361334985
 21
1.7332376278601855
  0
LINE
  8
_0-0_
  6
CONTINUOUS
 62
    7
 10
-9.6357075361334985
 20
1.7332376278601855
 11
-9.7113214471731357
 21
1.7672909201630671
  0
LINE
  8
_0-0_
  6
CONTINUOUS
 62
    7
 10
-9.7113214471731357
 20
1.7672909201630671
 11
-9.7790285648268824
 21
1.8123158070645506
  0
LINE
  8
_0-0_
  6
CONTINUOUS
 62
    7
 10
-9.7790285648268824
 20
1.8123158070645506
 11
-9.8367716425862852
 21
1.866944230159826
  0
LINE
  8
_0-0_
  6
CONTINUOUS
 62
    7
 10
-9.8367716425862852
 20
1.866944230159826
 11
-9.8742580063758254
 21
1.9159301409424876
  0
LINE
  8
_0-0_
  6
CONTINUOUS
 62
    7
 10
-9.3022374837690247
 20
1.7218517493437537
 11
-9.3022374837690247
 21
1.7218517493437537
  0
LINE
  8
_0-0_
  6
CONTINUOUS
 62
    7
 10
-9.3022374837690247
 20
1.7218517493437537
 11
-9.2103763951711564
 21
1.7418683979255805
  0
LINE
  8
_0-0_
  6
CONTINUOUS
 62
    7
 10
-9.2103763951711564
 20
1.7418683979255805
 11
-9.1238832881189573
 21
1.7755385204426146
  0
LINE
  8
_0-0_
  6
CONTINUOUS
 62
    7
 10
-9.1238832881189573
 20
1.7755385204426146
 11
-9.045386211902585
 21
1.8218390672600802
  0
LINE
  8
_0-0_
  6
CONTINUOUS
 62
    7
 10
-9.045386211902585
 20
1.8218390672600802
 11
-8.9772702604614381
 21
1.8793632196921357
  0
LINE
  8
_0-0_
  6
CONTINUOUS
 62
    7
 10
-8.9772702604614381
 20
1.8793632196921357
 11
-8.9286730608421312
 21
1.936359445321306
  0
LINE
  8
_0-0_
  6
CONTINUOUS
 62
    7
 10
-8.9286730608421312
 20
1.9363594453213042
 11
-8.9286730608421312
 21
1.9363594453213042
  0
LINE
  8
_0-0_
  6
CONTINUOUS
 62
    7
 10
-8.9286730608421312
 20
1.9363594453213042
 11
-8.9555752577514891
 21
2.0098786457119933
  0
LINE
  8
_0-0_
  6
CONTINUOUS
 62
    7
 10
-8.9555752577514891
 20
2.0098786457119933
 11
-8.9966590071795984
 21
2.0781933464670233
  0
LINE
  8
_0-0_
  6
CONTINUOUS
 62
    7
 10
-8.9966590071795984
 20
2.0781933464670233
 11
-9.0506760001894655
 21
2.1392278399728593
  0
LINE
  8
_0-0_
  6
CONTINUOUS
 62
    7
 10
-9.0506760001894655
 20
2.1392278399728593
 11
-9.1159849577824037
 21
2.1911276240292707
  0
LINE
  8
_0-0_
  6
CONTINUOUS
 62
    7
 10
-9.1159849577824037
 20
2.1911276240292707
 11
-9.190601500329878
 21
2.2323157499602608
  0
LINE
  8
_0-0_
  6
CONTINUOUS
 62
    7
 10
-9.190601500329878
 20
2.2323157499602608
 11
-9.243868042686703
 21
2.2530136631929274
  0
LINE
  8
_0-0_
  6
CONTINUOUS
 62
    7
 10
-9.2438680426867119
 20
2.2530136631929252
 11
-9.2438680426867119
 21
2.2530136631929252
  0
LINE
  8
_0-0_
  6
CONTINUOUS
 62
    7
 10
-9.2438680426867119
 20
2.2530136631929252
 11
-9.3852765319850473
 21
2.2598942413638228
  0
LINE
  8
_0-0_
  6
CONTINUOUS
 62
    7
 10
-9.3852765319850473
 20
2.2598942413638228
 11
-9.5259021941428461
 21
2.2451843774276004
  0
LINE
  8
_0-0_
  6
CONTINUOUS
 62
    7
 10
-9.5259021941428461
 20
2.2451843774276004
 11
-9.6614721895754609
 21
2.2093310231564103
  0
LINE
  8
_0-0_
  6
CONTINUOUS
 62
    7
 10
-9.6614721895754609
 20
2.2093310231564103
 11
-9.7878672925733987
 21
2.1534235645771096
  0
LINE
  8
_0-0_
  6
CONTINUOUS
 62
    7
 10
-9.7878672925733987
 20
2.1534235645771096
 11
-9.8275624535099837
 21
2.1304378369200396
  0
LINE
  8
_0-0_
  6
CONTINUOUS
 62
    7
 10
-9.8275624535099695
 20
2.1304378369200405
 11
-9.8275624535099695
 21
2.1304378369200405
  0
LINE
  8
_0-0_
  6
CONTINUOUS
 62
    7
 10
-9.8275624535099695
 20
2.1304378369200405
 11
-9.8596146864172027
 21
2.0424156105749662
  0
LINE
  8
_0-0_
  6
CONTINUOUS
 62
    7
 10
-9.8596146864172027
 20
2.0424156105749662
 11
-9.87371151765816
 21
1.9508605542777566
  0
LINE
  8
_0-0_
  6
CONTINUOUS
 62
    7
 10
-9.87371151765816
 20
1.9508605542777566
 11
-9.8742580063758254
 21
1.9159301409424883
  0
LINE
  8
_0-0_
  6
CONTINUOUS
 62
    7
 10
-18.378685572070925
 20
3.983667591283941
 11
-18.378685572070925
 21
3.983667591283941
  0
LINE
  8
_0-0_
  6
CONTINUOUS
 62
    7
 10
-18.378685572070925
 20
3.983667591283941
 11
-18.461625227715416
 21
3.9672257021282786
  0
LINE
  8
_0-0_
  6
CONTINUOUS
 62
    7
 10
-18.461625227715416
 20
3.9672257021282786
 11
-18.546567819728313
 21
3.9636356322652304
  0
LINE
  8
_0-0_
  6
CONTINUOUS
 62
    7
 10
-18.546567819728313
 20
3.9636356322652304
 11
-18.63093241043433
 21
3.973006464150922
  0
LINE
  8
_0-0_
  6
CONTINUOUS
 62
    7
 10
-18.63093241043433
 20
3.973006464150922
 11
-18.7121556244354
 21
3.9950534698003763
  0
LINE
  8
_0-0_
  6
CONTINUOUS
 62
    7
 10
-18.7121556244354
 20
3.9950534698003763
 11
-18.787769535475036
 21
4.0291067621032584
  0
LINE
  8
_0-0_
  6
CONTINUOUS
 62
    7
 10
-18.787769535475036
 20
4.0291067621032584
 11
-18.855476653128786
 21
4.074131649004741
  0
LINE
  8
_0-0_
  6
CONTINUOUS
 62
    7
 10
-18.855476653128786
 20
4.074131649004741
 11
-18.913219730888187
 21
4.1287600721000173
  0
LINE
  8
_0-0_
  6
CONTINUOUS
 62
    7
 10
-18.913219730888187
 20
4.1287600721000173
 11
-18.950706094677727
 21
4.1777459828826782
  0
LINE
  8
_0-0_
  6
CONTINUOUS
 62
    7
 10
-18.378685572070928
 20
3.9836675912839445
 11
-18.378685572070928
 21
3.9836675912839445
  0
LINE
  8
_0-0_
  6
CONTINUOUS
 62
    7
 10
-18.378685572070928
 20
3.9836675912839445
 11
-18.286824483473058
 21
4.0036842398657715
  0
LINE
  8
_0-0_
  6
CONTINUOUS
 62
    7
 10
-18.286824483473058
 20
4.0036842398657715
 11
-18.200331376420859
 21
4.0373543623828052
  0
LINE
  8
_0-0_
  6
CONTINUOUS
 62
    7
 10
-18.200331376420859
 20
4.0373543623828052
 11
-18.121834300204487
 21
4.0836549092002707
  0
LINE
  8
_0-0_
  6
CONTINUOUS
 62
    7
 10
-18.121834300204487
 20
4.0836549092002707
 11
-18.05371834876334
 21
4.1411790616323261
  0
LINE
  8
_0-0_
  6
CONTINUOUS
 62
    7
 10
-18.05371834876334
 20
4.1411790616323261
 11
-18.005121149144035
 21
4.1981752872614964
  0
LINE
  8
_0-0_
  6
CONTINUOUS
 62
    7
 10
-18.005121149144031
 20
4.1981752872614946
 11
-18.005121149144031
 21
4.1981752872614946
  0
LINE
  8
_0-0_
  6
CONTINUOUS
 62
    7
 10
-18.005121149144031
 20
4.1981752872614946
 11
-18.032023346053393
 21
4.2716944876521836
  0
LINE
  8
_0-0_
  6
CONTINUOUS
 62
    7
 10
-18.032023346053393
 20
4.2716944876521836
 11
-18.0731070954815
 21
4.3400091884072136
  0
LINE
  8
_0-0_
  6
CONTINUOUS
 62
    7
 10
-18.0731070954815
 20
4.3400091884072136
 11
-18.127124088491367
 21
4.4010436819130501
  0
LINE
  8
_0-0_
  6
CONTINUOUS
 62
    7
 10
-18.127124088491367
 20
4.4010436819130501
 11
-18.192433046084304
 21
4.4529434659694616
  0
LINE
  8
_0-0_
  6
CONTINUOUS
 62
    7
 10
-18.192433046084304
 20
4.4529434659694616
 11
-18.267049588631778
 21
4.4941315919004516
  0
LINE
  8
_0-0_
  6
CONTINUOUS
 62
    7
 10
-18.267049588631778
 20
4.4941315919004516
 11
-18.320316130988605
 21
4.5148295051331182
  0
LINE
  8
_0-0_
  6
CONTINUOUS
 62
    7
 10
-18.320316130988612
 20
4.5148295051331164
 11
-18.320316130988612
 21
4.5148295051331164
  0
LINE
  8
_0-0_
  6
CONTINUOUS
 62
    7
 10
-18.320316130988612
 20
4.5148295051331164
 11
-18.461724620286951
 21
4.5217100833040131
  0
LINE
  8
_0-0_
  6
CONTINUOUS
 62
    7
 10
-18.461724620286951
 20
4.5217100833040131
 11
-18.60235028244475
 21
4.5070002193677912
  0
LINE
  8
_0-0_
  6
CONTINUOUS
 62
    7
 10
-18.60235028244475
 20
4.5070002193677912
 11
-18.737920277877361
 21
4.4711468650966015
  0
LINE
  8
_0-0_
  6
CONTINUOUS
 62
    7
 10
-18.737920277877361
 20
4.4711468650966015
 11
-18.864315380875301
 21
4.4152394065173004
  0
LINE
  8
_0-0_
  6
CONTINUOUS
 62
    7
 10
-18.864315380875301
 20
4.4152394065173004
 11
-18.904010541811886
 21
4.3922536788602304
  0
LINE
  8
_0-0_
  6
CONTINUOUS
 62
    7
 10
-18.904010541811871
 20
4.3922536788602313
 11
-18.904010541811871
 21
4.3922536788602313
  0
LINE
  8
_0-0_
  6
CONTINUOUS
 62
    7
 10
-18.904010541811871
 20
4.3922536788602313
 11
-18.936062774719105
 21
4.3042314525151575
  0
LINE
  8
_0-0_
  6
CONTINUOUS
 62
    7
 10
-18.936062774719105
 20
4.3042314525151575
 11
-18.950159605960064
 21
4.2126763962179474
  0
LINE
  8
_0-0_
  6
CONTINUOUS
 62
    7
 10
-18.950159605960064
 20
4.2126763962179474
 11
-18.950706094677727
 21
4.1777459828826791
  0
LINE
  8
_0-0_
  6
CONTINUOUS
 62
    7
 10
-17.182112029883204
 20
-1.4738751499136726
 11
-17.182112029883204
 21
-1.4738751499136726
  0
LINE
  8
_0-0_
  6
CONTINUOUS
 62
    7
 10
-17.182112029883204
 20
-1.4738751499136726
 11
-17.265051685527695
 21
-1.490317039069335
  0
LINE
  8
_0-0_
  6
CONTINUOUS
 62
    7
 10
-17.265051685527695
 20
-1.490317039069335
 11
-17.349994277540592
 21
-1.4939071089323832
  0
LINE
  8
_0-0_
  6
CONTINUOUS
 62
    7
 10
-17.349994277540592
 20
-1.4939071089323832
 11
-17.434358868246608
 21
-1.4845362770466917
  0
LINE
  8
_0-0_
  6
CONTINUOUS
 62
    7
 10
-17.434358868246608
 20
-1.4845362770466917
 11
-17.515582082247679
 21
-1.4624892713972373
  0
LINE
  8
_0-0_
  6
CONTINUOUS
 62
    7
 10
-17.515582082247679
 20
-1.4624892713972373
 11
-17.591195993287315
 21
-1.4284359790943557
  0
LINE
  8
_0-0_
  6
CONTINUOUS
 62
    7
 10
-17.591195993287315
 20
-1.4284359790943557
 11
-17.658903110941065
 21
-1.3834110921928722
  0
LINE
  8
_0-0_
  6
CONTINUOUS
 62
    7
 10
-17.658903110941065
 20
-1.3834110921928722
 11
-17.716646188700466
 21
-1.3287826690975968
  0
LINE
  8
_0-0_
  6
CONTINUOUS
 62
    7
 10
-17.716646188700466
 20
-1.3287826690975968
 11
-17.754132552490006
 21
-1.2797967583149352
  0
LINE
  8
_0-0_
  6
CONTINUOUS
 62
    7
 10
-17.182112029883207
 20
-1.4738751499136691
 11
-17.182112029883207
 21
-1.4738751499136691
  0
LINE
  8
_0-0_
  6
CONTINUOUS
 62
    7
 10
-17.182112029883207
 20
-1.4738751499136691
 11
-17.090250941285337
 21
-1.4538585013318424
  0
LINE
  8
_0-0_
  6
CONTINUOUS
 62
    7
 10
-17.090250941285337
 20
-1.4538585013318424
 11
-17.003757834233138
 21
-1.4201883788148082
  0
LINE
  8
_0-0_
  6
CONTINUOUS
 62
    7
 10
-17.003757834233138
 20
-1.4201883788148082
 11
-16.925260758016766
 21
-1.3738878319973427
  0
LINE
  8
_0-0_
  6
CONTINUOUS
 62
    7
 10
-16.925260758016766
 20
-1.3738878319973427
 11
-16.857144806575619
 21
-1.3163636795652871
  0
LINE
  8
_0-0_
  6
CONTINUOUS
 62
    7
 10
-16.857144806575619
 20
-1.3163636795652871
 11
-16.808547606956314
 21
-1.2593674539361168
  0
LINE
  8
_0-0_
  6
CONTINUOUS
 62
    7
 10
-16.80854760695631
 20
-1.2593674539361186
 11
-16.80854760695631
 21
-1.2593674539361186
  0
LINE
  8
_0-0_
  6
CONTINUOUS
 62
    7
 10
-16.80854760695631
 20
-1.2593674539361186
 11
-16.835449803865671
 21
-1.1858482535454296
  0
LINE
  8
_0-0_
  6
CONTINUOUS
 62
    7
 10
-16.835449803865671
 20
-1.1858482535454296
 11
-16.876533553293779
 21
-1.1175335527903996
  0
LINE
  8
_0-0_
  6
CONTINUOUS
 62
    7
 10
-16.876533553293779
 20
-1.1175335527903996
 11
-16.930550546303646
 21
-1.0564990592845636
  0
LINE
  8
_0-0_
  6
CONTINUOUS
 62
    7
 10
-16.930550546303646
 20
-1.0564990592845636
 11
-16.995859503896583
 21
-1.0045992752281523
  0
LINE
  8
_0-0_
  6
CONTINUOUS
 62
    7
 10
-16.995859503896583
 20
-1.0045992752281523
 11
-17.070476046444057
 21
-0.9634111492971619
  0
LINE
  8
_0-0_
  6
CONTINUOUS
 62
    7
 10
-17.070476046444057
 20
-0.9634111492971619
 11
-17.123742588800884
 21
-0.9427132360644956
  0
LINE
  8
_0-0_
  6
CONTINUOUS
 62
    7
 10
-17.123742588800891
 20
-0.9427132360644975
 11
-17.123742588800891
 21
-0.9427132360644975
  0
LINE
  8
_0-0_
  6
CONTINUOUS
 62
    7
 10
-17.123742588800891
 20
-0.9427132360644975
 11
-17.26515107809923
 21
-0.9358326578936001
  0
LINE
  8
_0-0_
  6
CONTINUOUS
 62
    7
 10
-17.26515107809923
 20
-0.9358326578936001
 11
-17.405776740257028
 21
-0.9505425218298224
  0
LINE
  8
_0-0_
  6
CONTINUOUS
 62
    7
 10
-17.405776740257028
 20
-0.9505425218298224
 11
-17.54134673568964
 21
-0.9863958761010125
  0
LINE
  8
_0-0_
  6
CONTINUOUS
 62
    7
 10
-17.54134673568964
 20
-0.9863958761010125
 11
-17.667741838687579
 21
-1.042303334680313
  0
LINE
  8
_0-0_
  6
CONTINUOUS
 62
    7
 10
-17.667741838687579
 20
-1.042303334680313
 11
-17.707436999624164
 21
-1.065289062337383
  0
LINE
  8
_0-0_
  6
CONTINUOUS
 62
    7
 10
-17.70743699962415
 20
-1.0652890623373821
 11
-17.70743699962415
 21
-1.0652890623373821
  0
LINE
  8
_0-0_
  6
CONTINUOUS
 62
    7
 10
-17.70743699962415
 20
-1.0652890623373821
 11
-17.739489232531383
 21
-1.1533112886824566
  0
LINE
  8
_0-0_
  6
CONTINUOUS
 62
    7
 10
-17.739489232531383
 20
-1.1533112886824566
 11
-17.753586063772342
 21
-1.2448663449796662
  0
LINE
  8
_0-0_
  6
CONTINUOUS
 62
    7
 10
-17.753586063772342
 20
-1.2448663449796662
 11
-17.754132552490006
 21
-1.2797967583149346
  0
LINE
  8
_0-0_
  6
CONTINUOUS
 62
    7
 10
-23.19416446136292
 20
1.4445969042027058
 11
-23.19416446136292
 21
1.4445969042027058
  0
LINE
  8
_0-0_
  6
CONTINUOUS
 62
    7
 10
-23.19416446136292
 20
1.4445969042027058
 11
-23.277104117007411
 21
1.4281550150470435
  0
LINE
  8
_0-0_
  6
CONTINUOUS
 62
    7
 10
-23.277104117007411
 20
1.4281550150470435
 11
-23.362046709020309
 21
1.4245649451839952
  0
LINE
  8
_0-0_
  6
CONTINUOUS
 62
    7
 10
-23.362046709020309
 20
1.4245649451839952
 11
-23.446411299726325
 21
1.4339357770696868
  0
LINE
  8
_0-0_
  6
CONTINUOUS
 62
    7
 10
-23.446411299726325
 20
1.4339357770696868
 11
-23.527634513727396
 21
1.4559827827191412
  0
LINE
  8
_0-0_
  6
CONTINUOUS
 62
    7
 10
-23.527634513727396
 20
1.4559827827191412
 11
-23.603248424767031
 21
1.4900360750220227
  0
LINE
  8
_0-0_
  6
CONTINUOUS
 62
    7
 10
-23.603248424767031
 20
1.4900360750220227
 11
-23.670955542420781
 21
1.5350609619235063
  0
LINE
  8
_0-0_
  6
CONTINUOUS
 62
    7
 10
-23.670955542420781
 20
1.5350609619235063
 11
-23.728698620180182
 21
1.5896893850187817
  0
LINE
  8
_0-0_
  6
CONTINUOUS
 62
    7
 10
-23.728698620180182
 20
1.5896893850187817
 11
-23.766184983969723
 21
1.6386752958014432
  0
LINE
  8
_0-0_
  6
CONTINUOUS
 62
    7
 10
-23.194164461362924
 20
1.4445969042027094
 11
-23.194164461362924
 21
1.4445969042027094
  0
LINE
  8
_0-0_
  6
CONTINUOUS
 62
    7
 10
-23.194164461362924
 20
1.4445969042027094
 11
-23.102303372765054
 21
1.4646135527845361
  0
LINE
  8
_0-0_
  6
CONTINUOUS
 62
    7
 10
-23.102303372765054
 20
1.4646135527845361
 11
-23.015810265712854
 21
1.4982836753015703
  0
LINE
  8
_0-0_
  6
CONTINUOUS
 62
    7
 10
-23.015810265712854
 20
1.4982836753015703
 11
-22.937313189496482
 21
1.5445842221190358
  0
LINE
  8
_0-0_
  6
CONTINUOUS
 62
    7
 10
-22.937313189496482
 20
1.5445842221190358
 11
-22.869197238055335
 21
1.6021083745510913
  0
LINE
  8
_0-0_
  6
CONTINUOUS
 62
    7
 10
-22.869197238055335
 20
1.6021083745510913
 11
-22.82060003843603
 21
1.6591046001802616
  0
LINE
  8
_0-0_
  6
CONTINUOUS
 62
    7
 10
-22.820600038436027
 20
1.6591046001802598
 11
-22.820600038436027
 21
1.6591046001802598
  0
LINE
  8
_0-0_
  6
CONTINUOUS
 62
    7
 10
-22.820600038436027
 20
1.6591046001802598
 11
-22.847502235345388
 21
1.7326238005709489
  0
LINE
  8
_0-0_
  6
CONTINUOUS
 62
    7
 10
-22.847502235345388
 20
1.7326238005709489
 11
-22.888585984773496
 21
1.8009385013259789
  0
LINE
  8
_0-0_
  6
CONTINUOUS
 62
    7
 10
-22.888585984773496
 20
1.8009385013259789
 11
-22.942602977783363
 21
1.8619729948318149
  0
LINE
  8
_0-0_
  6
CONTINUOUS
 62
    7
 10
-22.942602977783363
 20
1.8619729948318149
 11
-23.007911935376299
 21
1.9138727788882262
  0
LINE
  8
_0-0_
  6
CONTINUOUS
 62
    7
 10
-23.007911935376299
 20
1.9138727788882262
 11
-23.082528477923773
 21
1.9550609048192165
  0
LINE
  8
_0-0_
  6
CONTINUOUS
 62
    7
 10
-23.082528477923773
 20
1.9550609048192165
 11
-23.1357950202806
 21
1.9757588180518828
  0
LINE
  8
_0-0_
  6
CONTINUOUS
 62
    7
 10
-23.135795020280607
 20
1.9757588180518808
 11
-23.135795020280607
 21
1.9757588180518808
  0
LINE
  8
_0-0_
  6
CONTINUOUS
 62
    7
 10
-23.135795020280607
 20
1.9757588180518808
 11
-23.277203509578946
 21
1.9826393962227784
  0
LINE
  8
_0-0_
  6
CONTINUOUS
 62
    7
 10
-23.277203509578946
 20
1.9826393962227784
 11
-23.417829171736745
 21
1.967929532286556
  0
LINE
  8
_0-0_
  6
CONTINUOUS
 62
    7
 10
-23.417829171736745
 20
1.967929532286556
 11
-23.553399167169356
 21
1.9320761780153659
  0
LINE
  8
_0-0_
  6
CONTINUOUS
 62
    7
 10
-23.553399167169356
 20
1.9320761780153659
 11
-23.679794270167296
 21
1.8761687194360654
  0
LINE
  8
_0-0_
  6
CONTINUOUS
 62
    7
 10
-23.679794270167296
 20
1.8761687194360654
 11
-23.719489431103881
 21
1.8531829917789955
  0
LINE
  8
_0-0_
  6
CONTINUOUS
 62
    7
 10
-23.719489431103867
 20
1.8531829917789964
 11
-23.719489431103867
 21
1.8531829917789964
  0
LINE
  8
_0-0_
  6
CONTINUOUS
 62
    7
 10
-23.719489431103867
 20
1.8531829917789964
 11
-23.7515416640111
 21
1.7651607654339219
  0
LINE
  8
_0-0_
  6
CONTINUOUS
 62
    7
 10
-23.7515416640111
 20
1.7651607654339219
 11
-23.765638495252059
 21
1.6736057091367122
  0
LINE
  8
_0-0_
  6
CONTINUOUS
 62
    7
 10
-23.765638495252059
 20
1.6736057091367122
 11
-23.766184983969723
 21
1.6386752958014439
  0
ARC
  8
_0-0_
  6
CONTINUOUS
 62
    7
 10
-23.999680017364454
 20
4.1125662637196427
 40
0.487871611188005
 50
209.84650870135386
 51
287.76537833556148
  0
ARC
  8
_0-0_
  6
CONTINUOUS
 62
    7
 10
-23.935628037935189
 20
4.1843859364916796
 40
0.5430891228888618
 50
278.98392557648333
 51
327.56585039318662
  0
ARC
  8
_0-0_
  6
CONTINUOUS
 62
    7
 10
-23.970894952337048
 20
3.7813751932876869
 40
0.5061265197409419
 50
12.754058004957178
 51
69.355569536968829
  0
ARC
  8
_0-0_
  6
CONTINUOUS
 62
    7
 10
-23.908095687601161
 20
3.4507800598004366
 40
0.8124935626522358
 50
81.817144141181046
 51
125.17432242041023
  0
ARC
  8
_0-0_
  6
CONTINUOUS
 62
    7
 10
-23.817258244916701
 20
3.881437092285978
 40
0.6056954601824005
 50
157.32704409281217
 51
181.10436017206541
  0
LINE
  8
_0-0_
  6
CONTINUOUS
 62
    7
 10
-21.591533744737816
 20
3.0795290942350846
 11
-21.08080113526745
 21
1.0074139358124654
  0
LINE
  8
_0-0_
  6
CONTINUOUS
 62
    7
 10
-21.825011509067124
 20
4.1739561145287212
 11
-21.679087906361303
 21
3.4735228215407972
  0
LINE
  8
_0-0_
  6
CONTINUOUS
 62
    7
 10
-20.000966475244397
 20
0.0151334374128992
 11
-18.731431131703772
 21
-0.2767137679987428
  0
LINE
  8
_0-0_
  6
CONTINUOUS
 62
    7
 10
-17.024124980045698
 20
-0.5831533336809613
 11
-15.696220195422754
 21
-0.9041852596337562
  0
LINE
  8
_0-0_
  6
CONTINUOUS
 62
    7
 10
-14.295353609446892
 20
-1.1814401047748149
 11
-12.821525222118126
 21
-1.5170643909981933
  0
LINE
  8
_0-0_
  6
CONTINUOUS
 62
    7
 10
-11.070441989648316
 20
-1.881873397762746
 11
-10.034384410436999
 21
-2.0715740812803034
  0
ARC
  8
_0-0_
  6
CONTINUOUS
 62
    7
 10
-18.300759808048213
 20
3.4474422045955038
 40
1.0700320240083541
 50
192.77352801257629
 51
314.59876713490235
  0
ARC
  8
_0-0_
  6
CONTINUOUS
 62
    7
 10
-19.417272064421127
 20
2.2331721985413395
 40
1.0700320240083541
 50
192.77352801257629
 51
314.59876713490235
  0
ARC
  8
_0-0_
  6
CONTINUOUS
 62
    7
 10
-17.724558273033622
 20
0.6134202085067528
 40
1.0700320240083541
 50
192.77352801257629
 51
314.59876713490235
  0
ARC
  8
_0-0_
  6
CONTINUOUS
 62
    7
 10
-16.542577091116499
 20
1.5765159863651519
 40
1.0700320240083541
 50
192.77352801257629
 51
314.59876713490235
  0
ARC
  8
_0-0_
  6
CONTINUOUS
 62
    7
 10
-15.243857027034721
 20
2.5396117642235509
 40
1.0700320240083541
 50
192.77352801257629
 51
314.59876713490235
  0
ARC
  8
_0-0_
  6
CONTINUOUS
 62
    7
 10
-12.35456969345951
 20
1.8099937506944599
 40
1.0700320240083541
 50
192.77352801257629
 51
314.59876713490235
  0
ARC
  8
_0-0_
  6
CONTINUOUS
 62
    7
 10
-13.565735595917801
 20
0.8760826933772278
 40
1.0700320240083541
 50
192.77352801257629
 51
314.59876713490235
  0
ARC
  8
_0-0_
  6
CONTINUOUS
 62
    7
 10
-14.849863299729009
 20
-0.0724207242105947
 40
1.0700320240083541
 50
192.77352801257629
 51
314.59876713490235
  0
ARC
  8
_0-0_
  6
CONTINUOUS
 62
    7
 10
-12.048130127777299
 20
-0.8458158185514292
 40
0.9630288216075186
 50
192.77352801257629
 51
314.59876713490235
  0
ARC
  8
_0-0_
  6
CONTINUOUS
 62
    7
 10
-10.70563298288377
 20
0.0151334374128992
 40
0.9630288216075186
 50
192.77352801257629
 51
314.59876713490235
  0
ARC
  8
_0-0_
  6
CONTINUOUS
 62
    7
 10
-9.3923205585313951
 20
1.0511910166242018
 40
0.9630288216075186
 50
192.77352801257629
 51
314.59876713490235
  0
ARC
  8
_0-0_
  6
CONTINUOUS
 62
    7
 10
-9.0712886325786002
 20
-1.4441025896452899
 40
0.9630288216075186
 50
192.77352801257629
 51
314.59876713490235
  0
ENDBLK
  0
ENDSEC
  0
SECTION
  2
ENTITIES
  0
LINE
  8
_0-0_
  6
CONTINUOUS
 62
    7
 10
-1244.420826261083
 20
-1127.4836411798831
 11
1755.579173738917
 21
-1127.4836411798831
  0
LINE
  8
_0-0_
  6
CONTINUOUS
 62
    7
 10
1755.579173738917
 20
-1127.4836411798831
 11
1755.579173738917
 21
1392.5163588201169
  0
LINE
  8
_0-0_
  6
CONTINUOUS
 62
    7
 10
1755.579173738917
 20
1392.5163588201169
 11
-1244.420826261083
 21
1392.5163588201169
  0
LINE
  8
_0-0_
  6
CONTINUOUS
 62
    7
 10
-1244.420826261083
 20
1392.5163588201169
 11
-1244.420826261083
 21
-1127.4836411798831
  0
LINE
  8
_0-0_
  6
CONTINUOUS
 62
    7
 10
-1215.1881720287051
 20
-1099.7116744577415
 11
1784.8118279712949
 21
-1099.7116744577415
  0
LINE
  8
_0-0_
  6
CONTINUOUS
 62
    7
 10
1784.8118279712949
 20
-1099.7116744577415
 11
1784.8118279712949
 21
1420.2883255422585
  0
LINE
  8
_0-0_
  6
CONTINUOUS
 62
    7
 10
1784.8118279712949
 20
1420.2883255422585
 11
-1215.1881720287051
 21
1420.2883255422585
  0
LINE
  8
_0-0_
  6
CONTINUOUS
 62
    7
 10
-1215.1881720287051
 20
1420.2883255422585
 11
-1215.1881720287051
 21
-1099.7116744577415
  0
INSERT
  2
-005-44
  8
_0-0_
 10
142.4387755102041
 20
107.52551020408163
 41
1
 42
1
 50
0
  0
ENDSEC
  0
EOF
