  0
SECTION
  2
HEADER
  9
$ACADVER
  1
AC1009
  9
$INSBASE
 10
0
 20
0
 30
0
  9
$EXTMIN
 10
0
 20
0
  9
$EXTMAX
 10
297
 20
210
  9
$LIMMIN
 10
0
 20
0
  9
$LIMMAX
 10
297
 20
210
  9
$LTSCALE
 40
1
  0
ENDSEC
  0
SECTION
  2
TABLES
  0
TABLE
  2
LTYPE
 70
     9
  0
LTYPE
  2
CONTINUOUS
 70
    64
  3
実線
 72
    65
 73
     0
 40
0.0
  0
LTYPE
  2
DASHED1
 70
    64
  3
--  --  --  --  --  --  --  --  
 72
    65
 73
     2
 40
2.5
 49
1.25
 49
-1.25
  0
LTYPE
  2
DASHED2
 70
    64
  3
----    ----    ----    ----    
 72
    65
 73
     2
 40
5.0
 49
2.5
 49
-2.5
  0
LTYPE
  2
DASHED3
 70
    64
  3
------  ------  ------  ------  
 72
    65
 73
     2
 40
5.0
 49
3.75
 49
-1.25
  0
LTYPE
  2
CENTER1
 70
    64
  3
----- - ----- - ----- - ----- - 
 72
    65
 73
     4
 40
10.0
 49
6.25
 49
-1.25
 49
1.25
 49
-1.25
  0
LTYPE
  2
CENTER2
 70
    64
  3
----------  --  ----------  --  
 72
    65
 73
     4
 40
20.0
 49
12.5
 49
-2.5
 49
2.5
 49
-2.5
  0
LTYPE
  2
PHANTOM1
 70
    64
  3
--- - - --- - - --- - - --- - - 
 72
    65
 73
     6
 40
10.0
 49
3.25
 49
-1.25
 49
1.25
 49
-1.25
 49
1.25
 49
-1.25
  0
LTYPE
  2
PHANTOM2
 70
    64
  3
--------  -  -  --------  -  -  
 72
    65
 73
     6
 40
20.0
 49
10.0
 49
-2.5
 49
1.25
 49
-2.5
 49
1.25
 49
-2.5
  0
LTYPE
  2
DOT
 70
    64
  3
-   -   -   -   -   -   -   -   
 72
    65
 73
     2
 40
2.5
 49
0.625
 49
-1.875
  0
LTYPE
  2
DUMMY
 70
    64
  3
ダミー
 72
    65
 73
     0
 40
0.0
  0
LTYPE
  2
RAND1
 70
    64
  3
ランダム線1
 72
    65
 73
     4
 40
10.0
 49
1.0
 49
-2.0
 49
3.0
 49
-4.0
  0
LTYPE
  2
RAND2
 70
    64
  3
ランダム線2
 72
    65
 73
     4
 40
14.0
 49
2.0
 49
-3.0
 49
4.0
 49
-5.0
  0
LTYPE
  2
RAND3
 70
    64
  3
ランダム線3
 72
    65
 73
     4
 40
18.0
 49
3.0
 49
-4.0
 49
5.0
 49
-6.0
  0
LTYPE
  2
RAND4
 70
    64
  3
ランダム線4
 72
    65
 73
     4
 40
22.0
 49
4.0
 49
-5.0
 49
6.0
 49
-7.0
  0
LTYPE
  2
RAND5
 70
    64
  3
ランダム線5
 72
    65
 73
     4
 40
26.0
 49
5.0
 49
-6.0
 49
7.0
 49
-8.0
  0
LTYPE
  2
LONG1
 70
    64
  3
----------  --  ----------  --  
 72
    65
 73
     4
 40
40.0
 49
32.5
 49
-2.5
 49
2.5
 49
-2.5
  0
LTYPE
  2
LONG2
 70
    64
  3
--------  -  -  --------  -  -  
 72
    65
 73
     6
 40
40.0
 49
30.0
 49
-2.5
 49
1.25
 49
-2.5
 49
1.25
 49
-2.5
  0
LTYPE
  2
LONG3
 70
    64
  3
+++++++++++++++..+++++++++++++++
 72
    65
 73
     2
 40
40.0
 49
37.5
 49
-2.5
  0
LTYPE
  2
LONG4
 70
    64
  3
+++++++++++++++..+++++++++++++++
 72
    65
 73
     2
 40
80.0
 49
75.0
 49
-5.0
  0
LTYPE
  2
LONG5
 70
    64
  3
----------  --  ----------  --  
 72
    65
 73
     4
 40
60.0
 49
37.5
 49
-7.5
 49
7.5
 49
-7.5
  0
LTYPE
  2
dashed
 70
   64
  3
-------   -------------   ------
 72
   65
 73
    2
 40
7.5
 49
6
 49
-1.5
  0
LTYPE
  2
dashed_spaced
 70
   64
  3
----        --------        ----
 72
   65
 73
    2
 40
12
 49
6
 49
-6
  0
LTYPE
  2
long_dashed_dotted
 70
   64
  3
------------- --- --------------
 72
   65
 73
    4
 40
15.25
 49
12
 49
-1.5
 49
0.25
 49
-1.5
  0
LTYPE
  2
long_dashed_double-dotted
 70
   64
  3
----------- --- --- ------------
 72
   65
 73
    6
 40
17
 49
12
 49
-1.5
 49
0.25
 49
-1.5
 49
0.25
 49
-1.5
  0
LTYPE
  2
long_dashed_triplicate-dotted
 70
   64
  3
--------- --- --- --- ----------
 72
   65
 73
    8
 40
18.75
 49
12
 49
-1.5
 49
0.25
 49
-1.5
 49
0.25
 49
-1.5
 49
0.25
 49
-1.5
  0
LTYPE
  2
dotted
 70
   64
  3
   -       -       -       -    
 72
   65
 73
    2
 40
1.75
 49
0.25
 49
-1.5
  0
LTYPE
  2
chain
 70
   64
  3
-------------- -- --------------
 72
   65
 73
    4
 40
18.5
 49
12
 49
-1.5
 49
3.5
 49
-1.5
  0
LTYPE
  2
chain_double_dash
 70
   64
  3
------------ -- -- -------------
 72
   65
 73
    6
 40
23.5
 49
12
 49
-1.5
 49
3.5
 49
-1.5
 49
3.5
 49
-1.5
  0
LTYPE
  2
dashed_dotted
 70
   64
  3
-----------     -     ----------
 72
   65
 73
    4
 40
9.25
 49
6
 49
-1.5
 49
0.25
 49
-1.5
  0
LTYPE
  2
double-dashed_dotted
 70
   64
  3
------   -----------   -   -----
 72
   65
 73
    6
 40
16.75
 49
6
 49
-1.5
 49
6
 49
-1.5
 49
0.25
 49
-1.5
  0
LTYPE
  2
dashed_double-dotted
 70
   64
  3
---------    -    -    ---------
 72
   65
 73
    6
 40
11
 49
6
 49
-1.5
 49
0.25
 49
-1.5
 49
0.25
 49
-1.5
  0
LTYPE
  2
double-dashed_double-dotted
 70
   64
  3
-----   ---------   -   -   ----
 72
   65
 73
    8
 40
18.5
 49
6
 49
-1.5
 49
6
 49
-1.5
 49
0.25
 49
-1.5
 49
0.25
 49
-1.5
  0
LTYPE
  2
dashed_triplicate-dotted
 70
   64
  3
-------    -    -    -    ------
 72
   65
 73
    8
 40
12.75
 49
6
 49
-1.5
 49
0.25
 49
-1.5
 49
0.25
 49
-1.5
 49
0.25
 49
-1.5
  0
LTYPE
  2
double-dashed_triplicate-dotted
 70
   64
  3
-----  ---------  -  -  -  -----
 72
   65
 73
   10
 40
20.25
 49
6
 49
-1.5
 49
6
 49
-1.5
 49
0.25
 49
-1.5
 49
0.25
 49
-1.5
 49
0.25
 49
-1.5
  0
LTYPE
  2
undefined
 70
   64
  3
--------------------------------
 72
   65
 73
    0
 40
0
  0
LTYPE
  2
_
 70
   64
  3
                                
 72
   65
 73
    0
 40
0
  0
LTYPE
  2
__18
 70
   64
  3
                                
 72
   65
 73
    0
 40
0
  0
LTYPE
  2
__19
 70
   64
  3
                                
 72
   65
 73
    0
 40
0
  0
LTYPE
  2
__20
 70
   64
  3
                                
 72
   65
 73
    0
 40
0
  0
LTYPE
  2
__21
 70
   64
  3
                                
 72
   65
 73
    0
 40
0
  0
LTYPE
  2
__22
 70
   64
  3
                                
 72
   65
 73
    0
 40
0
  0
LTYPE
  2
__23
 70
   64
  3
                                
 72
   65
 73
    0
 40
0
  0
LTYPE
  2
__24
 70
   64
  3
                                
 72
   65
 73
    0
 40
0
  0
LTYPE
  2
__25
 70
   64
  3
                                
 72
   65
 73
    0
 40
0
  0
LTYPE
  2
__26
 70
   64
  3
                                
 72
   65
 73
    0
 40
0
  0
LTYPE
  2
__27
 70
   64
  3
                                
 72
   65
 73
    0
 40
0
  0
LTYPE
  2
__28
 70
   64
  3
                                
 72
   65
 73
    0
 40
0
  0
LTYPE
  2
__29
 70
   64
  3
                                
 72
   65
 73
    0
 40
0
  0
LTYPE
  2
__30
 70
   64
  3
                                
 72
   65
 73
    0
 40
0
  0
LTYPE
  2
__31
 70
   64
  3
                                
 72
   65
 73
    0
 40
0
  0
LTYPE
  2
__32
 70
   64
  3
                                
 72
   65
 73
    0
 40
0
  0
ENDTAB
  0
TABLE
  2
STYLE
  5
3
100
AcDbSymbolTable
 70
     1
  0
STYLE
  5
10
100
AcDbSymbolTableRecord
100
AcDbTextStyleTableRecord
  2
STANDARD
 70
     0
 40
0.0
 41
1.0
 50
0.0
 71
     0
 42
0.2
  3
txt
  4
bigfont.shx
  0
STYLE
  5
26
100
AcDbSymbolTableRecord
100
AcDbTextStyleTableRecord
  2
TATEGAKI
 70
    68
 40
0.0
 41
1.0
 50
0.0
 71
     0
 42
1.0
  3
txt
  4
bigfont.shx
  0
ENDTAB
  0
TABLE
  2
LAYER
 70
    2
  0
LAYER
  2
_0-0_
 70
   64
 62
    7
  6
CONTINUOUS
  0
LAYER
  2
ADD_LINE
 70
   64
 62
    7
  6
CONTINUOUS
  0
ENDTAB
  0
ENDSEC
  0
SECTION
  2
BLOCKS
  0
BLOCK
  2
-010-555
 70
   64
 10
0
 20
0
 30
0
  0
LINE
  8
_0-0_
  6
CONTINUOUS
 62
    7
 10
-14.073523513186188
 20
6.4071607909108934
 11
7.7027016265512316
 21
-13.541688812624777
  0
LINE
  8
_0-0_
  6
CONTINUOUS
 62
    7
 10
-7.4857450752851094
 20
5.0193546523753696
 11
6.7431601288259344
 21
12.770922412823914
  0
LINE
  8
_0-0_
  6
CONTINUOUS
 62
    7
 10
-6.8486299168920652
 20
4.4671881817680799
 11
7.167903567754621
 21
11.751538159395061
  0
LINE
  8
_0-0_
  6
CONTINUOUS
 62
    7
 10
7.9536789297727069
 20
11.305557548519936
 11
-6.6999697132670235
 21
3.7451243355893098
  0
LINE
  8
_0-0_
  6
CONTINUOUS
 62
    7
 10
-7.400796387499355
 20
2.9593489735712382
 11
-4.3214064552663842
 21
0.2834653083205083
  0
LINE
  8
_0-0_
  6
CONTINUOUS
 62
    7
 10
-8.8449240798568951
 20
4.191104946464435
 11
-7.910488514213796
 21
4.4459510098216413
  0
LINE
  8
_0-0_
  6
CONTINUOUS
 62
    7
 10
11.3516264412022
 20
7.5465781140010648
 11
-2.558721183712322
 21
0.6444972314098933
  0
LINE
  8
_0-0_
  6
CONTINUOUS
 62
    7
 10
-6.7636812291063393
 20
3.1292463491427114
 11
-3.9179001882841362
 21
0.5170741997312831
  0
LINE
  8
_0-0_
  6
CONTINUOUS
 62
    7
 10
-2.1976892606229228
 20
0.3259396522133712
 11
12.434722210470341
 21
7.1430718470188026
  0
ARC
  8
_0-0_
  6
CONTINUOUS
 62
    7
 10
-6.5414232399429295
 20
4.2297956562749235
 40
1.2309131313895225
 50
140.10059330463665
 51
199.99815331946135
  0
ARC
  8
_0-0_
  6
CONTINUOUS
 62
    7
 10
-6.2854114486393939
 20
3.4922286247577929
 40
1.2361408837524597
 50
150.2214805315526
 51
205.5363266751238
  0
ARC
  8
_0-0_
  6
CONTINUOUS
 62
    7
 10
11.850699981777382
 20
-22.472164432048302
 40
32.793195298884925
 50
124.76555584621393
 51
125.85687103305494
  0
ARC
  8
_0-0_
  6
CONTINUOUS
 62
    7
 10
-6.2231952030703326
 20
3.9086505595766496
 40
1.478295192971929
 50
183.87156496596677
 51
208.01922683587998
  0
ARC
  8
_0-0_
  6
CONTINUOUS
 62
    7
 10
-6.556223896538711
 20
3.4190196622300064
 40
0.3563805800175847
 50
113.78771991213451
 51
234.39999786032161
  0
ARC
  8
_0-0_
  6
CONTINUOUS
 62
    7
 10
-3.2959122034120867
 20
2.1229197536393158
 40
2.1059988406903973
 50
240.86037135410365
 51
301.43115432224579
  0
ARC
  8
_0-0_
  6
CONTINUOUS
 62
    7
 10
-3.3963642541380352
 20
1.4159783430793809
 40
1.0392441433724846
 50
239.8780863566306
 51
292.14008744650926
  0
ARC
  8
_0-0_
  6
CONTINUOUS
 62
    7
 10
-2.11274057283714
 20
-1.0120021804121251
 40
1.7154850645351873
 50
105.06848815949296
 51
121.32869286780364
  0
LINE
  8
_0-0_
  6
CONTINUOUS
 62
    7
 10
8.8456401515229288
 20
11.093185829055606
 11
11.946267255702367
 21
8.1412189285012104
  0
ARC
  8
_0-0_
  6
CONTINUOUS
 62
    7
 10
10.725129868782375
 20
5.592758294929034
 40
7.1122730807861876
 50
113.11996471383746
 51
120.01013764031789
  0
ARC
  8
_0-0_
  6
CONTINUOUS
 62
    7
 10
8.3036516616617746
 20
11.45813913866629
 40
0.770924247488979
 50
45.328803401920517
 51
118.78425297689972
  0
ARC
  8
_0-0_
  6
CONTINUOUS
 62
    7
 10
8.2722365089692005
 20
10.664194955737649
 40
0.7161179418810597
 50
36.801931153982153
 51
116.4130733385134
  0
ARC
  8
_0-0_
  6
CONTINUOUS
 62
    7
 10
11.681577685640065
 20
7.968608775491326
 40
0.3159981541431305
 50
271.78508207795556
 51
33.109294768609722
  0
ARC
  8
_0-0_
  6
CONTINUOUS
 62
    7
 10
10.300386429852892
 20
11.507310682013774
 40
4.0978662785379214
 50
284.86447171426335
 51
289.8435775582584
  0
ARC
  8
_0-0_
  6
CONTINUOUS
 62
    7
 10
12.252141523875281
 20
7.7492161296566451
 40
0.6330454948043293
 50
286.76317041302195
 51
26.839648559679528
  0
LINE
  8
_0-0_
  6
CONTINUOUS
 62
    7
 10
-2.8560415909624055
 20
0.0498564169097264
 11
-1.8154201655871134
 21
-0.4810728817511318
  0
ARC
  8
_0-0_
  6
CONTINUOUS
 62
    7
 10
-4.5374464135214794
 20
4.3859077327730702
 40
0.9359143360344398
 50
230.84364936906653
 51
325.16580834552013
  0
ARC
  8
_0-0_
  6
CONTINUOUS
 62
    7
 10
-3.0047017945874472
 20
4.7432714170717247
 40
0.9359143360344398
 50
230.84364936906653
 51
325.16580834552013
  0
ARC
  8
_0-0_
  6
CONTINUOUS
 62
    7
 10
-1.5818112741763457
 20
5.4653352632504948
 40
0.9359143360344398
 50
230.84364936906653
 51
325.16580834552013
  0
ARC
  8
_0-0_
  6
CONTINUOUS
 62
    7
 10
-0.0952092379259283
 20
6.0387389058042231
 40
0.9359143360344398
 50
230.84364936906653
 51
325.16580834552013
  0
ARC
  8
_0-0_
  6
CONTINUOUS
 62
    7
 10
2.0709823006103818
 20
7.2067833628581184
 40
0.9359143360344398
 50
230.84364936906653
 51
325.16580834552013
  0
ARC
  8
_0-0_
  6
CONTINUOUS
 62
    7
 10
3.7911932282715668
 20
8.2049304443405262
 40
0.9359143360344398
 50
230.84364936906653
 51
325.16580834552013
  0
ARC
  8
_0-0_
  6
CONTINUOUS
 62
    7
 10
5.4052182962005588
 20
9.0331801502514608
 40
0.9359143360344398
 50
230.84364936906653
 51
325.16580834552013
  0
ARC
  8
_0-0_
  6
CONTINUOUS
 62
    7
 10
7.2103779116474982
 20
9.7340068244837923
 40
0.9359143360344398
 50
230.84364936906653
 51
325.16580834552013
  0
ARC
  8
_0-0_
  6
CONTINUOUS
 62
    7
 10
9.4190437940766572
 20
9.3305005575015443
 40
0.9359143360344398
 50
230.84364936906653
 51
325.16580834552013
  0
ARC
  8
_0-0_
  6
CONTINUOUS
 62
    7
 10
9.4402809660230957
 20
7.7589498334654081
 40
0.9359143360344398
 50
230.84364936906653
 51
325.16580834552013
  0
ARC
  8
_0-0_
  6
CONTINUOUS
 62
    7
 10
7.7625443822547879
 20
6.9519372995009121
 40
0.9359143360344398
 50
230.84364936906653
 51
325.16580834552013
  0
ARC
  8
_0-0_
  6
CONTINUOUS
 62
    7
 10
6.2334680021115219
 20
6.1873991094292649
 40
0.9359143360344398
 50
230.84364936906653
 51
325.16580834552013
  0
ARC
  8
_0-0_
  6
CONTINUOUS
 62
    7
 10
4.4495455586110211
 20
5.4865724351969263
 40
0.9359143360344398
 50
230.84364936906653
 51
325.16580834552013
  0
ARC
  8
_0-0_
  6
CONTINUOUS
 62
    7
 10
1.9860336128246274
 20
4.0636819147858247
 40
0.9359143360344398
 50
230.84364936906653
 51
325.16580834552013
  0
ARC
  8
_0-0_
  6
CONTINUOUS
 62
    7
 10
0.6480917801992802
 20
3.5327526161249665
 40
0.9359143360344398
 50
230.84364936906653
 51
325.16580834552013
  0
ARC
  8
_0-0_
  6
CONTINUOUS
 62
    7
 10
-0.9022217718904528
 20
2.6832657382675933
 40
0.9359143360344398
 50
230.84364936906653
 51
325.16580834552013
  0
ARC
  8
_0-0_
  6
CONTINUOUS
 62
    7
 10
-2.5374840117658835
 20
2.0036762359816933
 40
0.9359143360344398
 50
230.84364936906653
 51
325.16580834552013
  0
ARC
  8
_0-0_
  6
CONTINUOUS
 62
    7
 10
-4.3426436272128228
 20
2.513368362696113
 40
0.9359143360344398
 50
230.84364936906653
 51
325.16580834552013
  0
LINE
  8
_0-0_
  6
CONTINUOUS
 62
    7
 10
32.11113870797189
 20
-24.668623008959145
 11
42.923110630498826
 21
-35.556735578827855
  0
LINE
  8
_0-0_
  6
CONTINUOUS
 62
    7
 10
37.212562079868377
 20
-24.973185598326111
 11
43.456095161891
 21
-30.988296738323502
  0
LINE
  8
_0-0_
  6
CONTINUOUS
 62
    7
 10
44.750486166700597
 20
-32.739531627183503
 11
46.806283644927561
 21
-34.795329105410467
  0
ARC
  8
_0-0_
  6
CONTINUOUS
 62
    7
 10
20.13781984170167
 20
7.1172976435324244
 40
4.8333441692957306
 50
317.75699071519409
 51
11.732771878690762
  0
ARC
  8
_0-0_
  6
CONTINUOUS
 62
    7
 10
10.991389676467733
 20
19.802795847844507
 40
20.391995987128478
 50
297.25581373010277
 51
308.60864835259042
  0
ARC
  8
_0-0_
  6
CONTINUOUS
 62
    7
 10
8.1107768244053347
 20
15.872364979405141
 40
29.269897961964464
 50
273.88902529467856
 51
290.83595953675001
  0
ARC
  8
_0-0_
  6
CONTINUOUS
 62
    7
 10
-1387.2935632747265
 20
-1499.2457057908084
 40
2063.0197458256916
 50
46.443981180080129
 51
46.815874590688182
  0
ARC
  8
_0-0_
  6
CONTINUOUS
 62
    7
 10
68.522097626307783
 20
26.148096339070079
 40
45.753835427052145
 50
221.50651674219537
 51
227.8807000132704
  0
ARC
  8
_0-0_
  6
CONTINUOUS
 62
    7
 10
-44.69165744811805
 20
-95.473120397290444
 40
120.41258066562203
 50
44.792876529851739
 51
46.734920392007744
  0
ARC
  8
_0-0_
  6
CONTINUOUS
 62
    7
 10
25.995557478112772
 20
-23.801600350980252
 40
19.781343054137828
 50
32.886438926449358
 51
41.721457629517161
  0
ARC
  8
_0-0_
  6
CONTINUOUS
 62
    7
 10
37.867723121538148
 20
-15.717411488347494
 40
5.4329920922349935
 50
1.2369724485275346
 51
29.273264957588534
  0
ARC
  8
_0-0_
  6
CONTINUOUS
 62
    7
 10
24.545457564820225
 20
-7.7274754198769671
 40
15.364745899214027
 50
227.38234590475923
 51
244.55787372930723
  0
ARC
  8
_0-0_
  6
CONTINUOUS
 62
    7
 10
23.635802827165406
 20
-11.944519776145484
 40
11.209705063852185
 50
239.49007948718449
 51
272.77054763580554
  0
ARC
  8
_0-0_
  6
CONTINUOUS
 62
    7
 10
25.340318533084854
 20
61.209924606933697
 40
84.359059306452579
 50
269.21029530661878
 51
273.55041284027004
  0
ARC
  8
_0-0_
  6
CONTINUOUS
 62
    7
 10
74.057323663298718
 20
15.470287509415577
 40
58.056994151511006
 50
221.48390432164334
 51
223.73871778995277
  0
ARC
  8
_0-0_
  6
CONTINUOUS
 62
    7
 10
32.527729893109125
 20
-19.65691950813401
 40
4.7530906736555991
 50
259.72809545914021
 51
287.90005420944061
  0
ARC
  8
_0-0_
  6
CONTINUOUS
 62
    7
 10
31.998514988493497
 20
-18.731790270016461
 40
5.8002418019895101
 50
290.06638260712174
 51
337.94667968031297
  0
ARC
  8
_0-0_
  6
CONTINUOUS
 62
    7
 10
34.058354419608776
 20
-10.697429155806162
 40
10.737063187157426
 50
287.98929335946457
 51
319.17902759172131
  0
ARC
  8
_0-0_
  6
CONTINUOUS
 62
    7
 10
38.661538673498086
 20
-14.506885369971414
 40
4.7650172371548498
 50
317.66063707984358
 51
21.100052367846306
  0
ARC
  8
_0-0_
  6
CONTINUOUS
 62
    7
 10
38.85617139471006
 20
-13.942494095925596
 40
4.4039761934880577
 50
15.150513115384562
 51
34.941681203594683
  0
ARC
  8
_0-0_
  6
CONTINUOUS
 62
    7
 10
38.425600701072455
 20
-15.601714398065226
 40
4.5799977854271923
 50
351.32305517935743
 51
52.977420677343986
  0
ARC
  8
_0-0_
  6
CONTINUOUS
 62
    7
 10
22.28133451403933
 20
-31.559490948336059
 40
27.477448873472575
 50
49.344865792511648
 51
61.36177429534748
  0
ARC
  8
_0-0_
  6
CONTINUOUS
 62
    7
 10
37.514538150430184
 20
-3.5328845884736069
 40
4.4218574015755552
 50
221.82575671445451
 51
242.17677840053688
  0
ARC
  8
_0-0_
  6
CONTINUOUS
 62
    7
 10
32.265198234334463
 20
-17.559683843207864
 40
9.939019420347833
 50
13.87117199979699
 51
60.094641852891968
  0
ARC
  8
_0-0_
  6
CONTINUOUS
 62
    7
 10
38.759461983080683
 20
-16.581225333348684
 40
3.4143244608877903
 50
343.30075576600757
 51
16.699244233992445
  0
ARC
  8
_0-0_
  6
CONTINUOUS
 62
    7
 10
25.815551934985166
 20
-16.682907853896396
 40
12.6135780556376
 50
17.053168334048074
 51
37.404190020134301
  0
ARC
  8
_0-0_
  6
CONTINUOUS
 62
    7
 10
31.123987981057809
 20
-12.746737373038656
 40
7.0090499154227972
 50
301.59962096209608
 51
354.90980419319334
  0
ARC
  8
_0-0_
  6
CONTINUOUS
 62
    7
 10
30.746614754384751
 20
-15.313193201653633
 40
5.2901047525364504
 50
271.36026848843471
 51
319.95826054550002
  0
ARC
  8
_0-0_
  6
CONTINUOUS
 62
    7
 10
25.902577515634249
 20
-6.5479392668163001
 40
14.906653300079141
 50
281.03602335380947
 51
289.47421405230659
  0
ARC
  8
_0-0_
  6
CONTINUOUS
 62
    7
 10
23.299596595488126
 20
13.898797244873997
 40
35.499577101591065
 50
266.26042431564588
 51
278.84176586235594
  0
ARC
  8
_0-0_
  6
CONTINUOUS
 62
    7
 10
21.764245068219068
 20
-12.505644105774749
 40
9.053213057261269
 50
238.40667960390306
 51
265.05750798161461
  0
ARC
  8
_0-0_
  6
CONTINUOUS
 62
    7
 10
-3.2354190031068271
 20
-47.245375719048219
 40
41.45724269667982
 50
36.471093556106617
 51
38.48126556661505
  0
ARC
  8
_0-0_
  6
CONTINUOUS
 62
    7
 10
36.835738621368165
 20
-14.917204625467122
 40
5.9943741625926519
 50
253.97883277955574
 51
271.47115730466612
  0
LINE
  8
_0-0_
  6
CONTINUOUS
 62
    7
 10
10.942422172714814
 20
-10.636920145656333
 11
7.1719243837578546
 21
-7.0587946928706486
  0
LINE
  8
_0-0_
  6
CONTINUOUS
 62
    7
 10
16.533554623491469
 20
-16.138523899853894
 11
18.213851419688083
 21
-17.996734474471353
  0
LINE
  8
_0-0_
  6
CONTINUOUS
 62
    7
 10
16.948686773140039
 20
-15.861769133421504
 11
18.609215371734379
 21
-17.640906917629721
  0
ARC
  8
_0-0_
  6
CONTINUOUS
 62
    7
 10
16.828891495670021
 20
-16.131802712669085
 40
0.2954133416509485
 50
66.076440071959667
 51
181.3036949800015
  0
ARC
  8
_0-0_
  6
CONTINUOUS
 62
    7
 10
18.372614756681671
 20
-17.775577763795468
 40
0.2722427002700338
 50
234.32629977414285
 51
29.648125217486669
  0
LINE
  8
_0-0_
  6
CONTINUOUS
 62
    7
 10
19.096149321611605
 20
-15.819897619875107
 11
20.77644611780822
 21
-17.67810819449258
  0
LINE
  8
_0-0_
  6
CONTINUOUS
 62
    7
 10
19.511281471260176
 20
-15.543142853442731
 11
21.171810069854516
 21
-17.322280637650934
  0
ARC
  8
_0-0_
  6
CONTINUOUS
 62
    7
 10
19.391486193790158
 20
-15.813176432690312
 40
0.2954133416509485
 50
66.076440071959667
 51
181.3036949800015
  0
ARC
  8
_0-0_
  6
CONTINUOUS
 62
    7
 10
20.935209454801807
 20
-17.456951483816681
 40
0.2722427002700338
 50
234.32629977414285
 51
29.648125217486669
  0
LINE
  8
_0-0_
  6
CONTINUOUS
 62
    7
 10
21.329955650673028
 20
-15.444301865431157
 11
23.010252446869643
 21
-17.302512440048616
  0
LINE
  8
_0-0_
  6
CONTINUOUS
 62
    7
 10
21.745087800321599
 20
-15.167547098998767
 11
23.405616398915939
 21
-16.946684883206984
  0
ARC
  8
_0-0_
  6
CONTINUOUS
 62
    7
 10
21.625292522851581
 20
-15.437580678246348
 40
0.2954133416509485
 50
66.076440071959667
 51
181.3036949800015
  0
ARC
  8
_0-0_
  6
CONTINUOUS
 62
    7
 10
23.16901578386323
 20
-17.081355729372731
 40
0.2722427002700338
 50
234.32629977414285
 51
29.648125217486669
  0
LINE
  8
_0-0_
  6
CONTINUOUS
 62
    7
 10
23.484689189325167
 20
-14.890792332566377
 11
25.164985985521781
 21
-16.749002907183851
  0
LINE
  8
_0-0_
  6
CONTINUOUS
 62
    7
 10
23.899821338973737
 20
-14.614037566134002
 11
25.560349937568077
 21
-16.393175350342204
  0
ARC
  8
_0-0_
  6
CONTINUOUS
 62
    7
 10
23.780026061503719
 20
-14.884071145381583
 40
0.2954133416509485
 50
66.076440071959667
 51
181.3036949800015
  0
ARC
  8
_0-0_
  6
CONTINUOUS
 62
    7
 10
25.323749322515397
 20
-16.527846196507952
 40
0.2722427002700338
 50
234.32629977414285
 51
29.648125217486669
  0
LINE
  8
_0-0_
  6
CONTINUOUS
 62
    7
 10
25.52081354236347
 20
-14.100064428473843
 11
27.201110338560085
 21
-15.958275003091316
  0
LINE
  8
_0-0_
  6
CONTINUOUS
 62
    7
 10
25.935945692012041
 20
-13.823309662041467
 11
27.59647429060638
 21
-15.60244744624967
  0
ARC
  8
_0-0_
  6
CONTINUOUS
 62
    7
 10
25.816150414542022
 20
-14.093343241289048
 40
0.2954133416509485
 50
66.076440071959667
 51
181.3036949800015
  0
ARC
  8
_0-0_
  6
CONTINUOUS
 62
    7
 10
27.359873675553644
 20
-15.737118292415417
 40
0.2722427002700338
 50
234.32629977414285
 51
29.648125217486669
  0
LINE
  8
_0-0_
  6
CONTINUOUS
 62
    7
 10
27.102269350548539
 20
-12.953508967539662
 11
28.782566146745154
 21
-14.811719542157135
  0
LINE
  8
_0-0_
  6
CONTINUOUS
 62
    7
 10
27.51740150019711
 20
-12.676754201107286
 11
29.17793009879145
 21
-14.455891985315489
  0
ARC
  8
_0-0_
  6
CONTINUOUS
 62
    7
 10
27.397606222727092
 20
-12.946787780354867
 40
0.2954133416509485
 50
66.076440071959667
 51
181.3036949800015
  0
ARC
  8
_0-0_
  6
CONTINUOUS
 62
    7
 10
28.94132948373877
 20
-14.590562831481236
 40
0.2722427002700338
 50
234.32629977414285
 51
29.648125217486669
  0
LINE
  8
_0-0_
  6
CONTINUOUS
 62
    7
 10
28.565115973119731
 20
-11.787185309003178
 11
30.245412769316346
 21
-13.645395883620637
  0
LINE
  8
_0-0_
  6
CONTINUOUS
 62
    7
 10
28.980248122768302
 20
-11.510430542570788
 11
30.640776721362641
 21
-13.289568326778991
  0
ARC
  8
_0-0_
  6
CONTINUOUS
 62
    7
 10
28.860452845298283
 20
-11.780464121818369
 40
0.2954133416509485
 50
66.076440071959667
 51
181.3036949800015
  0
ARC
  8
_0-0_
  6
CONTINUOUS
 62
    7
 10
30.404176106309961
 20
-13.424239172944752
 40
0.2722427002700338
 50
234.32629977414285
 51
29.648125217486669
  0
LINE
  8
_0-0_
  6
CONTINUOUS
 62
    7
 10
29.296539284405327
 20
-9.8894383391810834
 11
30.976836080601942
 21
-11.747648913798557
  0
LINE
  8
_0-0_
  6
CONTINUOUS
 62
    7
 10
29.711671434053898
 20
-9.6126835727487077
 11
31.372200032648237
 21
-11.39182135695691
  0
ARC
  8
_0-0_
  6
CONTINUOUS
 62
    7
 10
29.591876156583879
 20
-9.8827171519962889
 40
0.2954133416509485
 50
66.076440071959667
 51
181.3036949800015
  0
ARC
  8
_0-0_
  6
CONTINUOUS
 62
    7
 10
31.135599417595557
 20
-11.526492203122658
 40
0.2722427002700338
 50
234.32629977414285
 51
29.648125217486669
  0
ARC
  8
_0-0_
  6
CONTINUOUS
 62
    7
 10
13.014576558880051
 20
7.5129897752334784
 40
19.778568469557445
 50
286.16763700362344
 51
318.18583211876228
  0
LINE
  8
_0-0_
  6
CONTINUOUS
 62
    7
 10
13.712583813581162
 20
8.215568799128441
 11
27.755764354084107
 21
-5.6737138724374887
  0
LINE
  8
_0-0_
  6
CONTINUOUS
 62
    7
 10
18.945111357439785
 20
-1.3645735422009722
 11
23.061879351505027
 21
-5.2889692000949395
  0
LINE
  8
_0-0_
  6
CONTINUOUS
 62
    7
 10
7.1719243837578546
 20
-7.0587946928706486
 11
18.945111357439785
 21
-1.3645735422009722
  0
ARC
  8
_0-0_
  6
CONTINUOUS
 62
    7
 10
-92.126619134392925
 20
206.58561960226177
 40
233.74116791591774
 50
294.4848534930079
 51
298.7583698106082
  0
ARC
  8
_0-0_
  6
CONTINUOUS
 62
    7
 10
-112.22658934006316
 20
151.10449361657214
 40
195.97818438810936
 50
305.71277627970346
 51
306.64646461613933
  0
LINE
  8
_0-0_
  6
CONTINUOUS
 62
    7
 10
-2.4466924248057893
 20
-1.8262671490120255
 11
10.095983893561211
 21
-13.330132852054149
  0
LINE
  8
_0-0_
  6
CONTINUOUS
 62
    7
 10
37.060280785184915
 20
-21.166153231239136
 11
51.755425722140586
 21
-35.404454284144379
  0
LINE
  8
_0-0_
  6
CONTINUOUS
 62
    7
 10
23.061879351505027
 20
-5.2889692000949395
 11
10.942422172714814
 21
-10.636920145656333
  0
LINE
  8
_0-0_
  6
CONTINUOUS
 62
    7
 10
37.438363636206759
 20
-4.698062517586493
 11
42.466266746448383
 21
-11.420150371496518
  0
LINE
  8
_0-0_
  6
CONTINUOUS
 62
    7
 10
7.7027016265512316
 20
-13.541688812624777
 11
14.141945935321402
 21
-19.034215105670441
  0
LINE
  8
_0-0_
  6
CONTINUOUS
 62
    7
 10
-1.3385931188713016
 20
-0.7531637624555713
 11
12.890312085239742
 21
6.9984039979929804
  0
LINE
  8
_0-0_
  6
CONTINUOUS
 62
    7
 10
-0.7014779604782575
 20
-1.3053302330628611
 11
13.315055524168429
 21
5.9790197445641269
  0
LINE
  8
_0-0_
  6
CONTINUOUS
 62
    7
 10
14.100830886186515
 20
5.5330391336890017
 11
-0.5528177568532157
 21
-2.0273940792416312
  0
LINE
  8
_0-0_
  6
CONTINUOUS
 62
    7
 10
-1.2536444310855472
 20
-2.8131694412597028
 11
1.8257455011474235
 21
-5.4890531065104327
  0
LINE
  8
_0-0_
  6
CONTINUOUS
 62
    7
 10
17.498778397616007
 20
1.7740596991701238
 11
3.5884307727014857
 21
-5.1280211834210476
  0
LINE
  8
_0-0_
  6
CONTINUOUS
 62
    7
 10
-0.6165292726925315
 20
-2.6432720656882296
 11
2.2292517681296715
 21
-5.2554442150996579
  0
LINE
  8
_0-0_
  6
CONTINUOUS
 62
    7
 10
3.9494626957908849
 20
-5.4465787626175697
 11
18.581874166884148
 21
1.3705534321878616
  0
ARC
  8
_0-0_
  6
CONTINUOUS
 62
    7
 10
-0.3942712835291217
 20
-1.5427227585560175
 40
1.2309131313895225
 50
140.10059330463665
 51
199.99815331946135
  0
ARC
  8
_0-0_
  6
CONTINUOUS
 62
    7
 10
-0.1382594922255862
 20
-2.280289790073148
 40
1.2361408837524597
 50
150.2214805315526
 51
205.5363266751238
  0
ARC
  8
_0-0_
  6
CONTINUOUS
 62
    7
 10
17.997851938191189
 20
-28.244682846879243
 40
32.793195298884925
 50
124.76555584621393
 51
125.85687103305494
  0
ARC
  8
_0-0_
  6
CONTINUOUS
 62
    7
 10
-0.0760432466565248
 20
-1.8638678552542913
 40
1.478295192971929
 50
183.87156496596677
 51
208.01922683587998
  0
ARC
  8
_0-0_
  6
CONTINUOUS
 62
    7
 10
-0.4090719401249032
 20
-2.3534987526009346
 40
0.3563805800175847
 50
113.78771991213451
 51
234.39999786032161
  0
ARC
  8
_0-0_
  6
CONTINUOUS
 62
    7
 10
2.8512397530017211
 20
-3.6495986611916251
 40
2.1059988406903973
 50
240.86037135410365
 51
301.43115432224579
  0
ARC
  8
_0-0_
  6
CONTINUOUS
 62
    7
 10
2.7507877022757725
 20
-4.3565400717515601
 40
1.0392441433724846
 50
239.8780863566306
 51
292.14008744650926
  0
ARC
  8
_0-0_
  6
CONTINUOUS
 62
    7
 10
4.0344113835766677
 20
-6.7845205952430661
 40
1.7154850645351873
 50
105.06848815949296
 51
121.32869286780364
  0
LINE
  8
_0-0_
  6
CONTINUOUS
 62
    7
 10
14.992792107936737
 20
5.3206674142246726
 11
18.093419212116174
 21
2.3687005136702766
  0
ARC
  8
_0-0_
  6
CONTINUOUS
 62
    7
 10
13.553234439922107
 20
6.1884343894536471
 40
1.0466693914961829
 50
66.331861655557375
 51
129.29872543797515
  0
ARC
  8
_0-0_
  6
CONTINUOUS
 62
    7
 10
16.872281825196183
 20
-0.1797601199019069
 40
7.1122730807861876
 50
113.11996471383746
 51
120.01013764031789
  0
ARC
  8
_0-0_
  6
CONTINUOUS
 62
    7
 10
14.450803618075582
 20
5.685620723835342
 40
0.770924247488979
 50
45.328803401920517
 51
118.78425297689972
  0
ARC
  8
_0-0_
  6
CONTINUOUS
 62
    7
 10
14.419388465383008
 20
4.8916765409067153
 40
0.7161179418810597
 50
36.801931153982153
 51
116.4130733385134
  0
ARC
  8
_0-0_
  6
CONTINUOUS
 62
    7
 10
17.828729642053872
 20
2.1960903606603921
 40
0.3159981541431305
 50
271.78508207795556
 51
33.109294768609722
  0
ARC
  8
_0-0_
  6
CONTINUOUS
 62
    7
 10
16.4475383862667
 20
5.73479226718284
 40
4.0978662785379214
 50
284.86447171426335
 51
289.8435775582584
  0
ARC
  8
_0-0_
  6
CONTINUOUS
 62
    7
 10
18.399293480289089
 20
1.9766977148257041
 40
0.6330454948043293
 50
286.76317041302195
 51
26.839648559679528
  0
LINE
  8
_0-0_
  6
CONTINUOUS
 62
    7
 10
3.2911103654514022
 20
-5.7226619979212145
 11
4.3317317908266944
 21
-6.2535912965820728
  0
ARC
  8
_0-0_
  6
CONTINUOUS
 62
    7
 10
1.6097055428923284
 20
-1.3866106820578707
 40
0.9359143360344398
 50
230.84364936906653
 51
325.16580834552013
  0
ARC
  8
_0-0_
  6
CONTINUOUS
 62
    7
 10
3.1424501618263605
 20
-1.0292469977592162
 40
0.9359143360344398
 50
230.84364936906653
 51
325.16580834552013
  0
ARC
  8
_0-0_
  6
CONTINUOUS
 62
    7
 10
4.565340682237462
 20
-0.3071831515804461
 40
0.9359143360344398
 50
230.84364936906653
 51
325.16580834552013
  0
ARC
  8
_0-0_
  6
CONTINUOUS
 62
    7
 10
6.0519427184878793
 20
0.2662204909732821
 40
0.9359143360344398
 50
230.84364936906653
 51
325.16580834552013
  0
ARC
  8
_0-0_
  6
CONTINUOUS
 62
    7
 10
8.2181342570241895
 20
1.4342649480271774
 40
0.9359143360344398
 50
230.84364936906653
 51
325.16580834552013
  0
ARC
  8
_0-0_
  6
CONTINUOUS
 62
    7
 10
9.9383451846853745
 20
2.4324120295095923
 40
0.9359143360344398
 50
230.84364936906653
 51
325.16580834552013
  0
ARC
  8
_0-0_
  6
CONTINUOUS
 62
    7
 10
11.552370252614367
 20
3.260661735420527
 40
0.9359143360344398
 50
230.84364936906653
 51
325.16580834552013
  0
ARC
  8
_0-0_
  6
CONTINUOUS
 62
    7
 10
13.357529868061306
 20
3.9614884096528584
 40
0.9359143360344398
 50
230.84364936906653
 51
325.16580834552013
  0
ARC
  8
_0-0_
  6
CONTINUOUS
 62
    7
 10
15.566195750490465
 20
3.5579821426706104
 40
0.9359143360344398
 50
230.84364936906653
 51
325.16580834552013
  0
ARC
  8
_0-0_
  6
CONTINUOUS
 62
    7
 10
15.587432922436903
 20
1.9864314186344671
 40
0.9359143360344398
 50
230.84364936906653
 51
325.16580834552013
  0
ARC
  8
_0-0_
  6
CONTINUOUS
 62
    7
 10
13.909696338668596
 20
1.1794188846699711
 40
0.9359143360344398
 50
230.84364936906653
 51
325.16580834552013
  0
ARC
  8
_0-0_
  6
CONTINUOUS
 62
    7
 10
12.38061995852533
 20
0.4148806945983238
 40
0.9359143360344398
 50
230.84364936906653
 51
325.16580834552013
  0
ARC
  8
_0-0_
  6
CONTINUOUS
 62
    7
 10
10.596697515024829
 20
-0.2859459796340146
 40
0.9359143360344398
 50
230.84364936906653
 51
325.16580834552013
  0
ARC
  8
_0-0_
  6
CONTINUOUS
 62
    7
 10
8.1331855692384352
 20
-1.7088365000451162
 40
0.9359143360344398
 50
230.84364936906653
 51
325.16580834552013
  0
ARC
  8
_0-0_
  6
CONTINUOUS
 62
    7
 10
6.795243736613088
 20
-2.2397657987059745
 40
0.9359143360344398
 50
230.84364936906653
 51
325.16580834552013
  0
ARC
  8
_0-0_
  6
CONTINUOUS
 62
    7
 10
5.2449301845233549
 20
-3.0892526765633477
 40
0.9359143360344398
 50
230.84364936906653
 51
325.16580834552013
  0
ARC
  8
_0-0_
  6
CONTINUOUS
 62
    7
 10
3.6096679446479243
 20
-3.7688421788492477
 40
0.9359143360344398
 50
230.84364936906653
 51
325.16580834552013
  0
ARC
  8
_0-0_
  6
CONTINUOUS
 62
    7
 10
1.8045083292009849
 20
-3.259150052134828
 40
0.9359143360344398
 50
230.84364936906653
 51
325.16580834552013
  0
LINE
  8
_0-0_
  6
CONTINUOUS
 62
    7
 10
8.8456401515229288
 20
12.006384222752295
 11
12.816991305506178
 21
8.0350330687690459
  0
LINE
  8
_0-0_
  6
CONTINUOUS
 62
    7
 10
14.992792107936737
 20
6.2338658079213474
 11
18.964143261919986
 21
2.262514653938112
  0
LINE
  8
_0-0_
  6
CONTINUOUS
 62
    7
 10
13.973407854507911
 20
7.1470642016180221
 11
14.460409457632892
 21
6.9815722670964675
  0
ARC
  8
_0-0_
  6
CONTINUOUS
 62
    7
 10
2.2309623381201646
 20
17.041012817187479
 40
1.0466693914961829
 50
66.331861655557375
 51
129.29872543797515
  0
LINE
  8
_0-0_
  6
CONTINUOUS
 62
    7
 10
5.5732073748326627
 20
26.18236574076947
 11
35.042981704710968
 21
-2.0387584974456487
  0
ARC
  8
_0-0_
  6
CONTINUOUS
 62
    7
 10
26.713219366760285
 20
-11.950313638561866
 40
12.946963579238547
 50
34.066222477651067
 51
49.955996633325448
  0
LINE
  8
_0-0_
  6
CONTINUOUS
 62
    7
 10
-2.4466924248057893
 20
-1.8262671490120255
 11
-14.910234448377381
 21
9.4788084165543935
  0
LINE
  8
_0-0_
  6
CONTINUOUS
 62
    7
 10
-12.487749402821692
 20
10.156789496668971
 11
1.7411558012893664
 21
17.908357257117515
  0
LINE
  8
_0-0_
  6
CONTINUOUS
 62
    7
 10
-11.850634244428647
 20
9.6046230260616809
 11
2.1658992402180246
 21
16.888973003688655
  0
LINE
  8
_0-0_
  6
CONTINUOUS
 62
    7
 10
2.9516746022361389
 20
16.44299239281353
 11
-11.701974040803606
 21
8.8825591798829109
  0
LINE
  8
_0-0_
  6
CONTINUOUS
 62
    7
 10
-12.402800715035937
 20
8.0967838178648392
 11
-9.3234107828029664
 21
5.4209001526141165
  0
LINE
  8
_0-0_
  6
CONTINUOUS
 62
    7
 10
-13.846928407393477
 20
9.3285397907580361
 11
-12.912492841750378
 21
9.5833858541152424
  0
LINE
  8
_0-0_
  6
CONTINUOUS
 62
    7
 10
6.3496221136656317
 20
12.684012958294666
 11
-7.5607255112489042
 21
5.7819320757034873
  0
LINE
  8
_0-0_
  6
CONTINUOUS
 62
    7
 10
-11.765685556642921
 20
8.2666811934363196
 11
-8.9199045158207184
 21
5.6545090440248842
  0
LINE
  8
_0-0_
  6
CONTINUOUS
 62
    7
 10
-7.199693588159505
 20
5.4633744965069653
 11
7.4327178829337726
 21
12.280506691312404
  0
ARC
  8
_0-0_
  6
CONTINUOUS
 62
    7
 10
-11.543427567479512
 20
9.3672305005685317
 40
1.2309131313895225
 50
140.10059330463665
 51
199.99815331946135
  0
ARC
  8
_0-0_
  6
CONTINUOUS
 62
    7
 10
-11.287415776175976
 20
8.6296634690514011
 40
1.2361408837524597
 50
150.2214805315526
 51
205.5363266751238
  0
ARC
  8
_0-0_
  6
CONTINUOUS
 62
    7
 10
6.8486956542408137
 20
-17.334729587754701
 40
32.793195298884925
 50
124.76555584621393
 51
125.85687103305494
  0
ARC
  8
_0-0_
  6
CONTINUOUS
 62
    7
 10
-11.225199530606915
 20
9.0460854038702578
 40
1.478295192971929
 50
183.87156496596677
 51
208.01922683587998
  0
ARC
  8
_0-0_
  6
CONTINUOUS
 62
    7
 10
-11.558228224075293
 20
8.5564545065236146
 40
0.3563805800175847
 50
113.78771991213451
 51
234.39999786032161
  0
ARC
  8
_0-0_
  6
CONTINUOUS
 62
    7
 10
-8.2979165309486689
 20
7.260354597932924
 40
2.1059988406903973
 50
240.86037135410365
 51
301.43115432224579
  0
ARC
  8
_0-0_
  6
CONTINUOUS
 62
    7
 10
-8.3983685816746174
 20
6.5534131873729748
 40
1.0392441433724846
 50
239.8780863566306
 51
292.14008744650926
  0
ARC
  8
_0-0_
  6
CONTINUOUS
 62
    7
 10
-7.1147449003737222
 20
4.125432663881476
 40
1.7154850645351873
 50
105.06848815949296
 51
121.32869286780364
  0
LINE
  8
_0-0_
  6
CONTINUOUS
 62
    7
 10
3.8436358239863324
 20
16.2306206733492
 11
6.9442629281657986
 21
13.278653772794804
  0
ARC
  8
_0-0_
  6
CONTINUOUS
 62
    7
 10
5.7231255412457784
 20
10.730193139222628
 40
7.1122730807861876
 50
113.11996471383746
 51
120.01013764031789
  0
ARC
  8
_0-0_
  6
CONTINUOUS
 62
    7
 10
3.3016473341252066
 20
16.595573982959884
 40
0.770924247488979
 50
45.328803401920517
 51
118.78425297689972
  0
ARC
  8
_0-0_
  6
CONTINUOUS
 62
    7
 10
3.2702321814326041
 20
15.801629800031243
 40
0.7161179418810597
 50
36.801931153982153
 51
116.4130733385134
  0
ARC
  8
_0-0_
  6
CONTINUOUS
 62
    7
 10
6.6795733581034682
 20
13.10604361978492
 40
0.3159981541431305
 50
271.78508207795556
 51
33.109294768609722
  0
ARC
  8
_0-0_
  6
CONTINUOUS
 62
    7
 10
5.2983821023163244
 20
16.644745526307368
 40
4.0978662785379214
 50
284.86447171426335
 51
289.8435775582584
  0
ARC
  8
_0-0_
  6
CONTINUOUS
 62
    7
 10
7.2501371963386845
 20
12.886650973950246
 40
0.6330454948043293
 50
286.76317041302195
 51
26.839648559679528
  0
ARC
  8
_0-0_
  6
CONTINUOUS
 62
    7
 10
-9.5394507410580616
 20
9.5233425770666784
 40
0.9359143360344398
 50
230.84364936906653
 51
325.16580834552013
  0
ARC
  8
_0-0_
  6
CONTINUOUS
 62
    7
 10
-8.0067061221240294
 20
9.8807062613653258
 40
0.9359143360344398
 50
230.84364936906653
 51
325.16580834552013
  0
ARC
  8
_0-0_
  6
CONTINUOUS
 62
    7
 10
-6.5838156017129279
 20
10.602770107544096
 40
0.9359143360344398
 50
230.84364936906653
 51
325.16580834552013
  0
ARC
  8
_0-0_
  6
CONTINUOUS
 62
    7
 10
-5.0972135654625106
 20
11.176173750097824
 40
0.9359143360344398
 50
230.84364936906653
 51
325.16580834552013
  0
ARC
  8
_0-0_
  6
CONTINUOUS
 62
    7
 10
-2.9310220269262004
 20
12.344218207151719
 40
0.9359143360344398
 50
230.84364936906653
 51
325.16580834552013
  0
ARC
  8
_0-0_
  6
CONTINUOUS
 62
    7
 10
-1.2108110992650154
 20
13.34236528863412
 40
0.9359143360344398
 50
230.84364936906653
 51
325.16580834552013
  0
ARC
  8
_0-0_
  6
CONTINUOUS
 62
    7
 10
0.4032139686639766
 20
14.170614994545055
 40
0.9359143360344398
 50
230.84364936906653
 51
325.16580834552013
  0
ARC
  8
_0-0_
  6
CONTINUOUS
 62
    7
 10
2.2083735841109018
 20
14.871441668777386
 40
0.9359143360344398
 50
230.84364936906653
 51
325.16580834552013
  0
ARC
  8
_0-0_
  6
CONTINUOUS
 62
    7
 10
4.4170394665400607
 20
14.467935401795138
 40
0.9359143360344398
 50
230.84364936906653
 51
325.16580834552013
  0
ARC
  8
_0-0_
  6
CONTINUOUS
 62
    7
 10
4.4382766384864993
 20
12.896384677759009
 40
0.9359143360344398
 50
230.84364936906653
 51
325.16580834552013
  0
ARC
  8
_0-0_
  6
CONTINUOUS
 62
    7
 10
2.7605400547181915
 20
12.089372143794513
 40
0.9359143360344398
 50
230.84364936906653
 51
325.16580834552013
  0
ARC
  8
_0-0_
  6
CONTINUOUS
 62
    7
 10
1.2314636745749539
 20
11.324833953722866
 40
0.9359143360344398
 50
230.84364936906653
 51
325.16580834552013
  0
ARC
  8
_0-0_
  6
CONTINUOUS
 62
    7
 10
-0.5524587689255611
 20
10.62400727949052
 40
0.9359143360344398
 50
230.84364936906653
 51
325.16580834552013
  0
ARC
  8
_0-0_
  6
CONTINUOUS
 62
    7
 10
-3.0159707147119548
 20
9.2011167590794187
 40
0.9359143360344398
 50
230.84364936906653
 51
325.16580834552013
  0
ARC
  8
_0-0_
  6
CONTINUOUS
 62
    7
 10
-4.3539125473373019
 20
8.6701874604185676
 40
0.9359143360344398
 50
230.84364936906653
 51
325.16580834552013
  0
ARC
  8
_0-0_
  6
CONTINUOUS
 62
    7
 10
-5.904226099427035
 20
7.8207005825611944
 40
0.9359143360344398
 50
230.84364936906653
 51
325.16580834552013
  0
ARC
  8
_0-0_
  6
CONTINUOUS
 62
    7
 10
-7.5394883393024656
 20
7.1411110802753015
 40
0.9359143360344398
 50
230.84364936906653
 51
325.16580834552013
  0
ARC
  8
_0-0_
  6
CONTINUOUS
 62
    7
 10
-9.344647954749405
 20
7.6508032069897141
 40
0.9359143360344398
 50
230.84364936906653
 51
325.16580834552013
  0
LINE
  8
_0-0_
  6
CONTINUOUS
 62
    7
 10
3.8436358239863324
 20
17.143819067045897
 11
7.8149869779696104
 21
13.17246791306264
  0
ARC
  8
_0-0_
  6
CONTINUOUS
 62
    7
 10
-10.778871389413212
 20
14.549397598963395
 40
20.194766734820497
 50
131.95528941571723
 51
148.99944804194081
  0
ARC
  8
_0-0_
  6
CONTINUOUS
 62
    7
 10
-5.227153830806742
 20
7.4960902650494745
 40
29.157587007220073
 50
110.3231658443453
 51
130.80200059321004
  0
ARC
  8
_0-0_
  6
CONTINUOUS
 62
    7
 10
-10.619324970167156
 20
23.818556088258546
 40
11.994087916883499
 50
83.009691348456471
 51
113.25051335985556
  0
ARC
  8
_0-0_
  6
CONTINUOUS
 62
    7
 10
-9.6477979102098743
 20
21.64482744706828
 40
14.087122522714111
 50
56.387180269451768
 51
88.014091673044774
  0
ARC
  8
_0-0_
  6
CONTINUOUS
 62
    7
 10
-4.645825841892588
 20
28.704685157049866
 40
5.4448000930205858
 50
34.233277234148083
 51
59.097324541027966
  0
ARC
  8
_0-0_
  6
CONTINUOUS
 62
    7
 10
-7.7673144933953893
 20
8.5291777857467821
 40
26.47899904756995
 50
101.32830538984837
 51
120.1998314126991
  0
ARC
  8
_0-0_
  6
CONTINUOUS
 62
    7
 10
-10.361079682519033
 20
16.587688034110997
 40
18.093493397277872
 50
83.623725867586685
 51
98.285956640157849
  0
ARC
  8
_0-0_
  6
CONTINUOUS
 62
    7
 10
-9.8075933334819467
 20
28.685945866764868
 40
6.0607803399141282
 50
45.790409531283025
 51
76.100382270562079
  0
ARC
  8
_0-0_
  6
CONTINUOUS
 62
    7
 10
-20.124850162915408
 20
19.333365923106271
 40
19.977846271804079
 50
32.894343973238591
 51
43.283201788711928
  0
ARC
  8
_0-0_
  6
CONTINUOUS
 62
    7
 10
11.742563649378667
 20
41.131705226387382
 40
18.689928759593908
 50
217.32853967303643
 51
229.53275071746572
  0
ARC
  8
_0-0_
  6
CONTINUOUS
 62
    7
 10
-8.0563597783806529
 20
15.105306970110689
 40
14.117685748389706
 50
90.886213860859328
 51
108.54028818902123
  0
ARC
  8
_0-0_
  6
CONTINUOUS
 62
    7
 10
-8.863561283782758
 20
14.185763727650325
 40
15.047066563764098
 50
66.921521330474704
 51
87.757232829007748
  0
ARC
  8
_0-0_
  6
CONTINUOUS
 62
    7
 10
-11.838245944122093
 20
11.564619188572266
 40
18.702748207712052
 50
50.283068290529236
 51
61.678231729817512
  0
ARC
  8
_0-0_
  6
CONTINUOUS
 62
    7
 10
-14.932934556698854
 20
44.775676116953903
 40
22.963182863457885
 50
298.74794101046859
 51
308.93217125946626
  0
ARC
  8
_0-0_
  6
CONTINUOUS
 62
    7
 10
-3.8728854352878557
 20
30.762031531095104
 40
5.1159845472782326
 50
311.2025075370384
 51
355.66739010880593
  0
ARC
  8
_0-0_
  6
CONTINUOUS
 62
    7
 10
-92.897167466102374
 20
168.52879997591697
 40
169.19128056976166
 50
297.7486290497298
 51
301.74113354415471
  0
ARC
  8
_0-0_
  6
CONTINUOUS
 62
    7
 10
-47.396835020802087
 20
72.030561211619656
 40
62.779085861945809
 50
293.73728115266692
 51
302.00662390013974
  0
LINE
  8
_0-0_
  6
CONTINUOUS
 62
    7
 10
-19.791046592034874
 20
11.992526816623077
 11
-27.935167011474761
 21
20.295227603958196
  0
ARC
  8
_0-0_
  6
CONTINUOUS
 62
    7
 10
-3.317895572807771
 20
-0.6839143814621095
 40
30.5108921124875
 50
108.89710423870361
 51
133.49575270004982
  0
ARC
  8
_0-0_
  6
CONTINUOUS
 62
    7
 10
-20.525557646137969
 20
18.350629797256744
 40
5.1313788274873575
 50
150.0708885356803
 51
186.22310312883084
  0
ARC
  8
_0-0_
  6
CONTINUOUS
 62
    7
 10
-21.722113373994972
 20
22.830866840951174
 40
6.7105515304167991
 50
161.58567275918557
 51
202.20109893230676
  0
LINE
  8
_0-0_
  6
CONTINUOUS
 62
    7
 10
-19.791046592034874
 20
11.992526816623077
 11
-14.073523513186188
 21
6.4071607909108934
  0
LINE
  8
_0-0_
  6
CONTINUOUS
 62
    7
 10
-0.144315704016023
 20
31.767731766481631
 11
5.5732073748326627
 21
26.18236574076947
  0
LINE
  8
_0-0_
  6
CONTINUOUS
 62
    7
 10
11.357452698954717
 20
15.315616529894378
 11
1.0168293374827186
 21
25.500839882570759
  0
LINE
  8
_0-0_
  6
CONTINUOUS
 62
    7
 10
-14.910234448377381
 20
9.4788084165543935
 11
-20.982469388052365
 21
15.204656467422062
  0
LINE
  8
_0-0_
  6
CONTINUOUS
 62
    7
 10
-13.633379134474495
 20
10.429529644620345
 11
0.3163323915433551
 21
18.672956989680657
  0
ARC
  8
_0-0_
  6
CONTINUOUS
 62
    7
 10
-4.3421406961702758
 20
22.782972738426096
 40
1.0466693914961829
 50
68.331861655557375
 51
131.29872543797515
  0
LINE
  8
_0-0_
  6
CONTINUOUS
 62
    7
 10
-18.81163026653212
 20
15.389267468880888
 11
-4.8619187405142554
 21
23.6326948139412
  0
LINE
  8
_0-0_
  6
CONTINUOUS
 62
    7
 10
-18.155632889559115
 20
14.859672361537903
 11
-4.4018580464212675
 21
22.628754874102981
  0
LINE
  8
_0-0_
  6
CONTINUOUS
 62
    7
 10
-3.6009968586641463
 20
22.21046910722167
 11
-17.981863580894739
 21
14.143236543430916
  0
LINE
  8
_0-0_
  6
CONTINUOUS
 62
    7
 10
-18.654840165797168
 20
13.333481356326061
 11
-15.483939121556887
 21
10.766696925889931
  0
LINE
  8
_0-0_
  6
CONTINUOUS
 62
    7
 10
-20.14107579809783
 20
14.514087647124072
 11
-19.21610346470149
 21
14.801389796087051
  0
LINE
  8
_0-0_
  6
CONTINUOUS
 62
    7
 10
-0.073932794669389
 20
18.572366199380497
 11
-13.734927462653459
 21
11.189025746908655
  0
LINE
  8
_0-0_
  6
CONTINUOUS
 62
    7
 10
-18.024042453642892
 20
13.525510233376266
 11
-15.088831492425584
 21
11.014245674709926
  0
LINE
  8
_0-0_
  6
CONTINUOUS
 62
    7
 10
-13.362997971272122
 20
10.883262056791594
 11
1.0225853475543687
 21
18.206905234741768
  0
ARC
  8
_0-0_
  6
CONTINUOUS
 62
    7
 10
-17.840328474956479
 20
14.633145807566322
 40
1.2309131313895225
 50
142.10059330463665
 51
201.99815331946135
  0
ARC
  8
_0-0_
  6
CONTINUOUS
 62
    7
 10
-17.55873192093469
 20
13.904962764622809
 40
1.2361408837524597
 50
152.22148053155263
 51
207.53632667512383
  0
ARC
  8
_0-0_
  6
CONTINUOUS
 62
    7
 10
1.4724757302884655
 20
-11.410672324405496
 40
32.793195298884925
 50
126.76555584621393
 51
127.85687103305494
  0
ARC
  8
_0-0_
  6
CONTINUOUS
 62
    7
 10
-17.511086491762455
 20
14.323302342107397
 40
1.478295192971929
 50
185.87156496596677
 51
210.01922683587998
  0
ARC
  8
_0-0_
  6
CONTINUOUS
 62
    7
 10
-17.826824441261522
 20
13.822347180884492
 40
0.3563805800175847
 50
115.78771991213449
 51
236.39999786032163
  0
ARC
  8
_0-0_
  6
CONTINUOUS
 62
    7
 10
-14.523265607441701
 20
12.640820058522067
 40
2.1059988406903973
 50
242.86037135410365
 51
303.43115432224579
  0
ARC
  8
_0-0_
  6
CONTINUOUS
 62
    7
 10
-14.598984566065781
 20
11.930803571555444
 40
1.0392441433724846
 50
241.8780863566306
 51
294.14008744650926
  0
ARC
  8
_0-0_
  6
CONTINUOUS
 62
    7
 10
-13.231407535355856
 20
9.549099928629829
 40
1.7154850645351873
 50
107.06848815949297
 51
123.32869286780364
  0
LINE
  8
_0-0_
  6
CONTINUOUS
 62
    7
 10
-2.7021673294671018
 20
22.029355756587975
 11
0.4995931155684161
 21
19.187397439907912
  0
ARC
  8
_0-0_
  6
CONTINUOUS
 62
    7
 10
-0.6318603939717064
 20
16.59787217948849
 40
7.1122730807861876
 50
115.11996471383746
 51
122.01013764031789
  0
ARC
  8
_0-0_
  6
CONTINUOUS
 62
    7
 10
-3.2565623414095768
 20
22.375171620988453
 40
0.770924247488979
 50
47.328803401920517
 51
120.78425297689972
  0
ARC
  8
_0-0_
  6
CONTINUOUS
 62
    7
 10
-3.2602501044458734
 20
21.580614714386584
 40
0.7161179418810597
 50
38.80193115398216
 51
118.41307333851341
  0
ARC
  8
_0-0_
  6
CONTINUOUS
 62
    7
 10
0.241088794706286
 20
19.00565490356189
 40
0.3159981541431305
 50
273.78508207795556
 51
35.109294768609729
  0
ARC
  8
_0-0_
  6
CONTINUOUS
 62
    7
 10
-1.262759992204181
 20
22.493998248818556
 40
4.0978662785379214
 50
286.86447171426335
 51
291.8435775582584
  0
ARC
  8
_0-0_
  6
CONTINUOUS
 62
    7
 10
0.8189617537872209
 20
18.806308296590331
 40
0.6330454948043293
 50
288.76317041302195
 51
28.839648559679532
  0
ARC
  8
_0-0_
  6
CONTINUOUS
 62
    7
 10
-15.84302064997101
 20
14.859100567451065
 40
0.9359143360344398
 50
232.84364936906653
 51
327.16580834552013
  0
ARC
  8
_0-0_
  6
CONTINUOUS
 62
    7
 10
-14.32368155036724
 20
15.269738571223144
 40
0.9359143360344398
 50
232.84364936906653
 51
327.16580834552013
  0
ARC
  8
_0-0_
  6
CONTINUOUS
 62
    7
 10
-12.926857481234663
 20
16.041020718641448
 40
0.9359143360344398
 50
232.84364936906653
 51
327.16580834552013
  0
ARC
  8
_0-0_
  6
CONTINUOUS
 62
    7
 10
-11.461172541310589
 20
16.665956722051021
 40
0.9359143360344398
 50
232.84364936906653
 51
327.16580834552013
  0
ARC
  8
_0-0_
  6
CONTINUOUS
 62
    7
 10
-9.3370647518083558
 20
17.908888632437325
 40
0.9359143360344398
 50
232.84364936906653
 51
327.16580834552013
  0
ARC
  8
_0-0_
  6
CONTINUOUS
 62
    7
 10
-7.652736560944561
 20
18.966462165284227
 40
0.9359143360344398
 50
232.84364936906653
 51
327.16580834552013
  0
ARC
  8
_0-0_
  6
CONTINUOUS
 62
    7
 10
-6.0686002113577331
 20
19.850535986388834
 40
0.9359143360344398
 50
232.84364936906653
 51
327.16580834552013
  0
ARC
  8
_0-0_
  6
CONTINUOUS
 62
    7
 10
-4.2889987485811503
 20
20.613934897993701
 40
0.9359143360344398
 50
232.84364936906653
 51
327.16580834552013
  0
ARC
  8
_0-0_
  6
CONTINUOUS
 62
    7
 10
-2.0675961600974233
 20
20.287755763807681
 40
0.9359143360344398
 50
232.84364936906653
 51
327.16580834552013
  0
ARC
  8
_0-0_
  6
CONTINUOUS
 62
    7
 10
-1.9915255959510176
 20
18.717903552623071
 40
0.9359143360344398
 50
232.84364936906653
 51
327.16580834552013
  0
ARC
  8
_0-0_
  6
CONTINUOUS
 62
    7
 10
-3.6400758166554539
 20
17.852830466516636
 40
0.9359143360344398
 50
232.84364936906653
 51
327.16580834552013
  0
ARC
  8
_0-0_
  6
CONTINUOUS
 62
    7
 10
-5.1415387267388155
 20
17.035394016366567
 40
0.9359143360344398
 50
232.84364936906653
 51
327.16580834552013
  0
ARC
  8
_0-0_
  6
CONTINUOUS
 62
    7
 10
-6.8999159546803241
 20
16.272736271374001
 40
0.9359143360344398
 50
232.84364936906653
 51
327.16580834552013
  0
ARC
  8
_0-0_
  6
CONTINUOUS
 62
    7
 10
-9.3122690325261033
 20
14.764737210394173
 40
0.9359143360344398
 50
232.84364936906653
 51
327.16580834552013
  0
ARC
  8
_0-0_
  6
CONTINUOUS
 62
    7
 10
-10.630866661829117
 20
14.18743784294098
 40
0.9359143360344398
 50
232.84364936906653
 51
327.16580834552013
  0
ARC
  8
_0-0_
  6
CONTINUOUS
 62
    7
 10
-12.150589140298393
 20
13.284363286838243
 40
0.9359143360344398
 50
232.84364936906653
 51
327.16580834552013
  0
ARC
  8
_0-0_
  6
CONTINUOUS
 62
    7
 10
-13.761137891006513
 20
12.548117942966982
 40
0.9359143360344398
 50
232.84364936906653
 51
327.16580834552013
  0
ARC
  8
_0-0_
  6
CONTINUOUS
 62
    7
 10
-15.582985850685077
 20
12.994500416962453
 40
0.9359143360344398
 50
232.84364936906653
 51
327.16580834552013
  0
LINE
  8
_0-0_
  6
CONTINUOUS
 62
    7
 10
-2.7340374937966487
 20
22.941997854497032
 11
1.3734925768688413
 21
19.111664096837373
  0
LINE
  8
_0-0_
  6
CONTINUOUS
 62
    7
 10
11.357452698954717
 20
15.315616529894378
 11
34.752500693795895
 21
-7.8566214840435293
  0
LINE
  8
_0-0_
  6
CONTINUOUS
 62
    7
 10
13.712583813581162
 20
8.215568799128441
 11
-3.4119679382720847
 21
24.962562606914432
  0
ENDBLK
  0
ENDSEC
  0
SECTION
  2
ENTITIES
  0
LINE
  8
_0-0_
  6
CONTINUOUS
 62
    7
 10
-1244.420826261083
 20
-1127.4836411798831
 11
1755.579173738917
 21
-1127.4836411798831
  0
LINE
  8
_0-0_
  6
CONTINUOUS
 62
    7
 10
1755.579173738917
 20
-1127.4836411798831
 11
1755.579173738917
 21
1392.5163588201169
  0
LINE
  8
_0-0_
  6
CONTINUOUS
 62
    7
 10
1755.579173738917
 20
1392.5163588201169
 11
-1244.420826261083
 21
1392.5163588201169
  0
LINE
  8
_0-0_
  6
CONTINUOUS
 62
    7
 10
-1244.420826261083
 20
1392.5163588201169
 11
-1244.420826261083
 21
-1127.4836411798831
  0
LINE
  8
_0-0_
  6
CONTINUOUS
 62
    7
 10
-1215.1881720287051
 20
-1099.7116744577415
 11
1784.8118279712949
 21
-1099.7116744577415
  0
LINE
  8
_0-0_
  6
CONTINUOUS
 62
    7
 10
1784.8118279712949
 20
-1099.7116744577415
 11
1784.8118279712949
 21
1420.2883255422585
  0
LINE
  8
_0-0_
  6
CONTINUOUS
 62
    7
 10
1784.8118279712949
 20
1420.2883255422585
 11
-1215.1881720287051
 21
1420.2883255422585
  0
LINE
  8
_0-0_
  6
CONTINUOUS
 62
    7
 10
-1215.1881720287051
 20
1420.2883255422585
 11
-1215.1881720287051
 21
-1099.7116744577415
  0
INSERT
  2
-010-555
  8
_0-0_
 10
133.34693877551021
 20
104.66326530612244
 41
1
 42
1
 50
0
  0
ENDSEC
  0
EOF
