  0
SECTION
  2
HEADER
  9
$ACADVER
  1
AC1009
  9
$INSBASE
 10
0
 20
0
 30
0
  9
$EXTMIN
 10
0
 20
0
  9
$EXTMAX
 10
297
 20
210
  9
$LIMMIN
 10
0
 20
0
  9
$LIMMAX
 10
297
 20
210
  9
$LTSCALE
 40
1
  0
ENDSEC
  0
SECTION
  2
TABLES
  0
TABLE
  2
LTYPE
 70
     9
  0
LTYPE
  2
CONTINUOUS
 70
    64
  3
実線
 72
    65
 73
     0
 40
0.0
  0
LTYPE
  2
DASHED1
 70
    64
  3
--  --  --  --  --  --  --  --  
 72
    65
 73
     2
 40
2.5
 49
1.25
 49
-1.25
  0
LTYPE
  2
DASHED2
 70
    64
  3
----    ----    ----    ----    
 72
    65
 73
     2
 40
5.0
 49
2.5
 49
-2.5
  0
LTYPE
  2
DASHED3
 70
    64
  3
------  ------  ------  ------  
 72
    65
 73
     2
 40
5.0
 49
3.75
 49
-1.25
  0
LTYPE
  2
CENTER1
 70
    64
  3
----- - ----- - ----- - ----- - 
 72
    65
 73
     4
 40
10.0
 49
6.25
 49
-1.25
 49
1.25
 49
-1.25
  0
LTYPE
  2
CENTER2
 70
    64
  3
----------  --  ----------  --  
 72
    65
 73
     4
 40
20.0
 49
12.5
 49
-2.5
 49
2.5
 49
-2.5
  0
LTYPE
  2
PHANTOM1
 70
    64
  3
--- - - --- - - --- - - --- - - 
 72
    65
 73
     6
 40
10.0
 49
3.25
 49
-1.25
 49
1.25
 49
-1.25
 49
1.25
 49
-1.25
  0
LTYPE
  2
PHANTOM2
 70
    64
  3
--------  -  -  --------  -  -  
 72
    65
 73
     6
 40
20.0
 49
10.0
 49
-2.5
 49
1.25
 49
-2.5
 49
1.25
 49
-2.5
  0
LTYPE
  2
DOT
 70
    64
  3
-   -   -   -   -   -   -   -   
 72
    65
 73
     2
 40
2.5
 49
0.625
 49
-1.875
  0
LTYPE
  2
DUMMY
 70
    64
  3
ダミー
 72
    65
 73
     0
 40
0.0
  0
LTYPE
  2
RAND1
 70
    64
  3
ランダム線1
 72
    65
 73
     4
 40
10.0
 49
1.0
 49
-2.0
 49
3.0
 49
-4.0
  0
LTYPE
  2
RAND2
 70
    64
  3
ランダム線2
 72
    65
 73
     4
 40
14.0
 49
2.0
 49
-3.0
 49
4.0
 49
-5.0
  0
LTYPE
  2
RAND3
 70
    64
  3
ランダム線3
 72
    65
 73
     4
 40
18.0
 49
3.0
 49
-4.0
 49
5.0
 49
-6.0
  0
LTYPE
  2
RAND4
 70
    64
  3
ランダム線4
 72
    65
 73
     4
 40
22.0
 49
4.0
 49
-5.0
 49
6.0
 49
-7.0
  0
LTYPE
  2
RAND5
 70
    64
  3
ランダム線5
 72
    65
 73
     4
 40
26.0
 49
5.0
 49
-6.0
 49
7.0
 49
-8.0
  0
LTYPE
  2
LONG1
 70
    64
  3
----------  --  ----------  --  
 72
    65
 73
     4
 40
40.0
 49
32.5
 49
-2.5
 49
2.5
 49
-2.5
  0
LTYPE
  2
LONG2
 70
    64
  3
--------  -  -  --------  -  -  
 72
    65
 73
     6
 40
40.0
 49
30.0
 49
-2.5
 49
1.25
 49
-2.5
 49
1.25
 49
-2.5
  0
LTYPE
  2
LONG3
 70
    64
  3
+++++++++++++++..+++++++++++++++
 72
    65
 73
     2
 40
40.0
 49
37.5
 49
-2.5
  0
LTYPE
  2
LONG4
 70
    64
  3
+++++++++++++++..+++++++++++++++
 72
    65
 73
     2
 40
80.0
 49
75.0
 49
-5.0
  0
LTYPE
  2
LONG5
 70
    64
  3
----------  --  ----------  --  
 72
    65
 73
     4
 40
60.0
 49
37.5
 49
-7.5
 49
7.5
 49
-7.5
  0
LTYPE
  2
dashed
 70
   64
  3
-------   -------------   ------
 72
   65
 73
    2
 40
7.5
 49
6
 49
-1.5
  0
LTYPE
  2
dashed_spaced
 70
   64
  3
----        --------        ----
 72
   65
 73
    2
 40
12
 49
6
 49
-6
  0
LTYPE
  2
long_dashed_dotted
 70
   64
  3
------------- --- --------------
 72
   65
 73
    4
 40
15.25
 49
12
 49
-1.5
 49
0.25
 49
-1.5
  0
LTYPE
  2
long_dashed_double-dotted
 70
   64
  3
----------- --- --- ------------
 72
   65
 73
    6
 40
17
 49
12
 49
-1.5
 49
0.25
 49
-1.5
 49
0.25
 49
-1.5
  0
LTYPE
  2
long_dashed_triplicate-dotted
 70
   64
  3
--------- --- --- --- ----------
 72
   65
 73
    8
 40
18.75
 49
12
 49
-1.5
 49
0.25
 49
-1.5
 49
0.25
 49
-1.5
 49
0.25
 49
-1.5
  0
LTYPE
  2
dotted
 70
   64
  3
   -       -       -       -    
 72
   65
 73
    2
 40
1.75
 49
0.25
 49
-1.5
  0
LTYPE
  2
chain
 70
   64
  3
-------------- -- --------------
 72
   65
 73
    4
 40
18.5
 49
12
 49
-1.5
 49
3.5
 49
-1.5
  0
LTYPE
  2
chain_double_dash
 70
   64
  3
------------ -- -- -------------
 72
   65
 73
    6
 40
23.5
 49
12
 49
-1.5
 49
3.5
 49
-1.5
 49
3.5
 49
-1.5
  0
LTYPE
  2
dashed_dotted
 70
   64
  3
-----------     -     ----------
 72
   65
 73
    4
 40
9.25
 49
6
 49
-1.5
 49
0.25
 49
-1.5
  0
LTYPE
  2
double-dashed_dotted
 70
   64
  3
------   -----------   -   -----
 72
   65
 73
    6
 40
16.75
 49
6
 49
-1.5
 49
6
 49
-1.5
 49
0.25
 49
-1.5
  0
LTYPE
  2
dashed_double-dotted
 70
   64
  3
---------    -    -    ---------
 72
   65
 73
    6
 40
11
 49
6
 49
-1.5
 49
0.25
 49
-1.5
 49
0.25
 49
-1.5
  0
LTYPE
  2
double-dashed_double-dotted
 70
   64
  3
-----   ---------   -   -   ----
 72
   65
 73
    8
 40
18.5
 49
6
 49
-1.5
 49
6
 49
-1.5
 49
0.25
 49
-1.5
 49
0.25
 49
-1.5
  0
LTYPE
  2
dashed_triplicate-dotted
 70
   64
  3
-------    -    -    -    ------
 72
   65
 73
    8
 40
12.75
 49
6
 49
-1.5
 49
0.25
 49
-1.5
 49
0.25
 49
-1.5
 49
0.25
 49
-1.5
  0
LTYPE
  2
double-dashed_triplicate-dotted
 70
   64
  3
-----  ---------  -  -  -  -----
 72
   65
 73
   10
 40
20.25
 49
6
 49
-1.5
 49
6
 49
-1.5
 49
0.25
 49
-1.5
 49
0.25
 49
-1.5
 49
0.25
 49
-1.5
  0
LTYPE
  2
undefined
 70
   64
  3
--------------------------------
 72
   65
 73
    0
 40
0
  0
LTYPE
  2
_
 70
   64
  3
                                
 72
   65
 73
    0
 40
0
  0
LTYPE
  2
__18
 70
   64
  3
                                
 72
   65
 73
    0
 40
0
  0
LTYPE
  2
__19
 70
   64
  3
                                
 72
   65
 73
    0
 40
0
  0
LTYPE
  2
__20
 70
   64
  3
                                
 72
   65
 73
    0
 40
0
  0
LTYPE
  2
__21
 70
   64
  3
                                
 72
   65
 73
    0
 40
0
  0
LTYPE
  2
__22
 70
   64
  3
                                
 72
   65
 73
    0
 40
0
  0
LTYPE
  2
__23
 70
   64
  3
                                
 72
   65
 73
    0
 40
0
  0
LTYPE
  2
__24
 70
   64
  3
                                
 72
   65
 73
    0
 40
0
  0
LTYPE
  2
__25
 70
   64
  3
                                
 72
   65
 73
    0
 40
0
  0
LTYPE
  2
__26
 70
   64
  3
                                
 72
   65
 73
    0
 40
0
  0
LTYPE
  2
__27
 70
   64
  3
                                
 72
   65
 73
    0
 40
0
  0
LTYPE
  2
__28
 70
   64
  3
                                
 72
   65
 73
    0
 40
0
  0
LTYPE
  2
__29
 70
   64
  3
                                
 72
   65
 73
    0
 40
0
  0
LTYPE
  2
__30
 70
   64
  3
                                
 72
   65
 73
    0
 40
0
  0
LTYPE
  2
__31
 70
   64
  3
                                
 72
   65
 73
    0
 40
0
  0
LTYPE
  2
__32
 70
   64
  3
                                
 72
   65
 73
    0
 40
0
  0
ENDTAB
  0
TABLE
  2
STYLE
  5
3
100
AcDbSymbolTable
 70
     1
  0
STYLE
  5
10
100
AcDbSymbolTableRecord
100
AcDbTextStyleTableRecord
  2
STANDARD
 70
     0
 40
0.0
 41
1.0
 50
0.0
 71
     0
 42
0.2
  3
txt
  4
bigfont.shx
  0
STYLE
  5
26
100
AcDbSymbolTableRecord
100
AcDbTextStyleTableRecord
  2
TATEGAKI
 70
    68
 40
0.0
 41
1.0
 50
0.0
 71
     0
 42
1.0
  3
txt
  4
bigfont.shx
  0
ENDTAB
  0
TABLE
  2
LAYER
 70
    2
  0
LAYER
  2
_0-0_
 70
   64
 62
    7
  6
CONTINUOUS
  0
LAYER
  2
ADD_LINE
 70
   64
 62
    7
  6
CONTINUOUS
  0
ENDTAB
  0
ENDSEC
  0
SECTION
  2
BLOCKS
  0
BLOCK
  2
-009-2223
 70
   64
 10
0
 20
0
 30
0
  0
LINE
  8
_0-0_
  6
CONTINUOUS
 62
    7
 10
9.048438638988813
 20
19.11696550128223
 11
25.037974580754053
 21
3.2797108542004878
  0
LINE
  8
_0-0_
  6
CONTINUOUS
 62
    7
 10
-16.382537573152092
 20
10.208509762298746
 11
5.3936875665853279
 21
-9.7403398412369242
  0
LINE
  8
_0-0_
  6
CONTINUOUS
 62
    7
 10
-9.794759135251013
 20
8.8207036237632224
 11
4.4341460688600307
 21
16.572271384211767
  0
LINE
  8
_0-0_
  6
CONTINUOUS
 62
    7
 10
-9.1576439768579689
 20
8.2685371531559326
 11
4.8588895077887173
 21
15.552887130782914
  0
LINE
  8
_0-0_
  6
CONTINUOUS
 62
    7
 10
5.6446648698068032
 20
15.106906519907788
 11
-9.0089837732329272
 21
7.5464733069771626
  0
LINE
  8
_0-0_
  6
CONTINUOUS
 62
    7
 10
-9.7098104474652587
 20
6.7606979449590909
 11
-6.6304205152322879
 21
4.0848142797083611
  0
LINE
  8
_0-0_
  6
CONTINUOUS
 62
    7
 10
-11.153938139822799
 20
7.9924539178522878
 11
-10.2195025741797
 21
8.247299981209494
  0
LINE
  8
_0-0_
  6
CONTINUOUS
 62
    7
 10
9.042612381236296
 20
11.347927085388918
 11
-4.8677352436782257
 21
4.4458462027977461
  0
LINE
  8
_0-0_
  6
CONTINUOUS
 62
    7
 10
-9.072695289072243
 20
6.9305953205305642
 11
-6.2269142482500399
 21
4.3184231711191359
  0
LINE
  8
_0-0_
  6
CONTINUOUS
 62
    7
 10
-4.5067033205888265
 20
4.1272886236012241
 11
10.125708150504437
 21
10.944420818406655
  0
ARC
  8
_0-0_
  6
CONTINUOUS
 62
    7
 10
-8.8504372999088332
 20
8.0311446276627763
 40
1.2309131313895225
 50
140.10059330463665
 51
199.99815331946135
  0
ARC
  8
_0-0_
  6
CONTINUOUS
 62
    7
 10
-8.5944255086052976
 20
7.2935775961456457
 40
1.2361408837524597
 50
150.2214805315526
 51
205.5363266751238
  0
ARC
  8
_0-0_
  6
CONTINUOUS
 62
    7
 10
9.541685921811478
 20
-18.67081546066045
 40
32.793195298884925
 50
124.76555584621393
 51
125.85687103305494
  0
ARC
  8
_0-0_
  6
CONTINUOUS
 62
    7
 10
-8.5322092630362363
 20
7.7099995309645024
 40
1.478295192971929
 50
183.87156496596677
 51
208.01922683587998
  0
ARC
  8
_0-0_
  6
CONTINUOUS
 62
    7
 10
-8.8652379565046147
 20
7.2203686336178592
 40
0.3563805800175847
 50
113.78771991213451
 51
234.39999786032161
  0
ARC
  8
_0-0_
  6
CONTINUOUS
 62
    7
 10
-5.6049262633779904
 20
5.9242687250271686
 40
2.1059988406903973
 50
240.86037135410365
 51
301.43115432224579
  0
ARC
  8
_0-0_
  6
CONTINUOUS
 62
    7
 10
-5.7053783141039389
 20
5.2173273144672336
 40
1.0392441433724846
 50
239.8780863566306
 51
292.14008744650926
  0
ARC
  8
_0-0_
  6
CONTINUOUS
 62
    7
 10
-4.4217546328030437
 20
2.7893467909757277
 40
1.7154850645351873
 50
105.06848815949296
 51
121.32869286780364
  0
LINE
  8
_0-0_
  6
CONTINUOUS
 62
    7
 10
6.5366260915570251
 20
14.894534800443459
 11
9.6372531957364629
 21
11.942567899889063
  0
ARC
  8
_0-0_
  6
CONTINUOUS
 62
    7
 10
8.4161158088164711
 20
9.3941072663168868
 40
7.1122730807861876
 50
113.11996471383746
 51
120.01013764031789
  0
ARC
  8
_0-0_
  6
CONTINUOUS
 62
    7
 10
5.9946376016958709
 20
15.259488110054143
 40
0.770924247488979
 50
45.328803401920517
 51
118.78425297689972
  0
ARC
  8
_0-0_
  6
CONTINUOUS
 62
    7
 10
5.9632224490032968
 20
14.465543927125502
 40
0.7161179418810597
 50
36.801931153982153
 51
116.4130733385134
  0
ARC
  8
_0-0_
  6
CONTINUOUS
 62
    7
 10
9.3725636256741609
 20
11.769957746879179
 40
0.3159981541431305
 50
271.78508207795556
 51
33.109294768609722
  0
ARC
  8
_0-0_
  6
CONTINUOUS
 62
    7
 10
7.9913723698869887
 20
15.308659653401627
 40
4.0978662785379214
 50
284.86447171426335
 51
289.8435775582584
  0
ARC
  8
_0-0_
  6
CONTINUOUS
 62
    7
 10
9.9431274639093772
 20
11.550565101044498
 40
0.6330454948043293
 50
286.76317041302195
 51
26.839648559679528
  0
LINE
  8
_0-0_
  6
CONTINUOUS
 62
    7
 10
-5.1650556509283092
 20
3.8512053882975792
 11
-4.1244342255530171
 21
3.3202760896367209
  0
ARC
  8
_0-0_
  6
CONTINUOUS
 62
    7
 10
-6.8464604734873831
 20
8.187256704160923
 40
0.9359143360344398
 50
230.84364936906653
 51
325.16580834552013
  0
ARC
  8
_0-0_
  6
CONTINUOUS
 62
    7
 10
-5.3137158545533509
 20
8.5446203884595775
 40
0.9359143360344398
 50
230.84364936906653
 51
325.16580834552013
  0
ARC
  8
_0-0_
  6
CONTINUOUS
 62
    7
 10
-3.8908253341422494
 20
9.2666842346383476
 40
0.9359143360344398
 50
230.84364936906653
 51
325.16580834552013
  0
ARC
  8
_0-0_
  6
CONTINUOUS
 62
    7
 10
-2.4042232978918321
 20
9.8400878771920759
 40
0.9359143360344398
 50
230.84364936906653
 51
325.16580834552013
  0
ARC
  8
_0-0_
  6
CONTINUOUS
 62
    7
 10
-0.2380317593555219
 20
11.008132334245971
 40
0.9359143360344398
 50
230.84364936906653
 51
325.16580834552013
  0
ARC
  8
_0-0_
  6
CONTINUOUS
 62
    7
 10
1.4821791683056631
 20
12.006279415728379
 40
0.9359143360344398
 50
230.84364936906653
 51
325.16580834552013
  0
ARC
  8
_0-0_
  6
CONTINUOUS
 62
    7
 10
3.0962042362346551
 20
12.834529121639314
 40
0.9359143360344398
 50
230.84364936906653
 51
325.16580834552013
  0
ARC
  8
_0-0_
  6
CONTINUOUS
 62
    7
 10
4.9013638516815945
 20
13.535355795871645
 40
0.9359143360344398
 50
230.84364936906653
 51
325.16580834552013
  0
ARC
  8
_0-0_
  6
CONTINUOUS
 62
    7
 10
7.1100297341107535
 20
13.131849528889397
 40
0.9359143360344398
 50
230.84364936906653
 51
325.16580834552013
  0
ARC
  8
_0-0_
  6
CONTINUOUS
 62
    7
 10
7.131266906057192
 20
11.560298804853261
 40
0.9359143360344398
 50
230.84364936906653
 51
325.16580834552013
  0
ARC
  8
_0-0_
  6
CONTINUOUS
 62
    7
 10
5.4535303222888842
 20
10.753286270888765
 40
0.9359143360344398
 50
230.84364936906653
 51
325.16580834552013
  0
ARC
  8
_0-0_
  6
CONTINUOUS
 62
    7
 10
3.9244539421456182
 20
9.9887480808171176
 40
0.9359143360344398
 50
230.84364936906653
 51
325.16580834552013
  0
ARC
  8
_0-0_
  6
CONTINUOUS
 62
    7
 10
2.1405314986451174
 20
9.287921406584779
 40
0.9359143360344398
 50
230.84364936906653
 51
325.16580834552013
  0
ARC
  8
_0-0_
  6
CONTINUOUS
 62
    7
 10
-0.3229804471412762
 20
7.8650308861736775
 40
0.9359143360344398
 50
230.84364936906653
 51
325.16580834552013
  0
ARC
  8
_0-0_
  6
CONTINUOUS
 62
    7
 10
-1.6609222797666234
 20
7.3341015875128193
 40
0.9359143360344398
 50
230.84364936906653
 51
325.16580834552013
  0
ARC
  8
_0-0_
  6
CONTINUOUS
 62
    7
 10
-3.2112358318563565
 20
6.4846147096554461
 40
0.9359143360344398
 50
230.84364936906653
 51
325.16580834552013
  0
ARC
  8
_0-0_
  6
CONTINUOUS
 62
    7
 10
-4.8464980717317871
 20
5.8050252073695461
 40
0.9359143360344398
 50
230.84364936906653
 51
325.16580834552013
  0
ARC
  8
_0-0_
  6
CONTINUOUS
 62
    7
 10
-6.6516576871787265
 20
6.3147173340839657
 40
0.9359143360344398
 50
230.84364936906653
 51
325.16580834552013
  0
LINE
  8
_0-0_
  6
CONTINUOUS
 62
    7
 10
29.802124648005972
 20
-20.867274037571292
 11
40.614096570532922
 21
-31.755386607440002
  0
LINE
  8
_0-0_
  6
CONTINUOUS
 62
    7
 10
34.903548019902487
 20
-21.171836626938259
 11
41.147081101925096
 21
-27.186947766935649
  0
LINE
  8
_0-0_
  6
CONTINUOUS
 62
    7
 10
42.441472106734693
 20
-28.93818265579565
 11
44.497269584961657
 21
-30.993980134022614
  0
ARC
  8
_0-0_
  6
CONTINUOUS
 62
    7
 10
17.828805781735767
 20
10.918646614920277
 40
4.8333441692957306
 50
317.75699071519409
 51
11.732771878690762
  0
ARC
  8
_0-0_
  6
CONTINUOUS
 62
    7
 10
8.6823756165018295
 20
23.604144819232367
 40
20.391995987128478
 50
297.25581373010277
 51
308.60864835259042
  0
ARC
  8
_0-0_
  6
CONTINUOUS
 62
    7
 10
5.801762764439431
 20
19.673713950792994
 40
29.269897961964464
 50
273.88902529467856
 51
290.83595953675001
  0
ARC
  8
_0-0_
  6
CONTINUOUS
 62
    7
 10
-1389.6025773346923
 20
-1495.4443568194206
 40
2063.0197458256916
 50
46.443981180080129
 51
46.815874590688182
  0
ARC
  8
_0-0_
  6
CONTINUOUS
 62
    7
 10
66.213083566341879
 20
29.949445310457939
 40
45.753835427052145
 50
221.50651674219537
 51
227.8807000132704
  0
ARC
  8
_0-0_
  6
CONTINUOUS
 62
    7
 10
-47.000671508083954
 20
-91.671771425902591
 40
120.41258066562203
 50
44.792876529851739
 51
46.734920392007744
  0
ARC
  8
_0-0_
  6
CONTINUOUS
 62
    7
 10
23.686543418146854
 20
-20.000251379592399
 40
19.781343054137828
 50
32.886438926449358
 51
41.721457629517161
  0
ARC
  8
_0-0_
  6
CONTINUOUS
 62
    7
 10
35.558709061572245
 20
-11.916062516959641
 40
5.4329920922349935
 50
1.2369724485275346
 51
29.273264957588534
  0
ARC
  8
_0-0_
  6
CONTINUOUS
 62
    7
 10
22.236443504854307
 20
-3.9261264484891143
 40
15.364745899214027
 50
227.38234590475923
 51
244.55787372930723
  0
ARC
  8
_0-0_
  6
CONTINUOUS
 62
    7
 10
21.326788767199488
 20
-8.1431708047576308
 40
11.209705063852185
 50
239.49007948718449
 51
272.77054763580554
  0
ARC
  8
_0-0_
  6
CONTINUOUS
 62
    7
 10
23.031304473118965
 20
65.01127357832155
 40
84.359059306452579
 50
269.21029530661878
 51
273.55041284027004
  0
ARC
  8
_0-0_
  6
CONTINUOUS
 62
    7
 10
71.748309603332814
 20
19.27163648080343
 40
58.056994151511006
 50
221.48390432164334
 51
223.73871778995277
  0
ARC
  8
_0-0_
  6
CONTINUOUS
 62
    7
 10
30.218715833143236
 20
-15.855570536746157
 40
4.7530906736555991
 50
259.72809545914021
 51
287.90005420944061
  0
ARC
  8
_0-0_
  6
CONTINUOUS
 62
    7
 10
29.689500928527579
 20
-14.930441298628608
 40
5.8002418019895101
 50
290.06638260712174
 51
337.94667968031297
  0
ARC
  8
_0-0_
  6
CONTINUOUS
 62
    7
 10
31.749340359642858
 20
-6.8960801844183095
 40
10.737063187157426
 50
287.98929335946457
 51
319.17902759172131
  0
ARC
  8
_0-0_
  6
CONTINUOUS
 62
    7
 10
36.352524613532182
 20
-10.705536398583561
 40
4.7650172371548498
 50
317.66063707984358
 51
21.100052367846306
  0
ARC
  8
_0-0_
  6
CONTINUOUS
 62
    7
 10
36.547157334744156
 20
-10.141145124537744
 40
4.4039761934880577
 50
15.150513115384562
 51
34.941681203594683
  0
ARC
  8
_0-0_
  6
CONTINUOUS
 62
    7
 10
36.116586641106551
 20
-11.800365426677374
 40
4.5799977854271923
 50
351.32305517935743
 51
52.977420677343986
  0
ARC
  8
_0-0_
  6
CONTINUOUS
 62
    7
 10
19.972320454073426
 20
-27.758141976948206
 40
27.477448873472575
 50
49.344865792511648
 51
61.36177429534748
  0
ARC
  8
_0-0_
  6
CONTINUOUS
 62
    7
 10
35.20552409046428
 20
0.2684643829142459
 40
4.4218574015755552
 50
221.82575671445451
 51
242.17677840053688
  0
ARC
  8
_0-0_
  6
CONTINUOUS
 62
    7
 10
29.956184174368545
 20
-13.758334871820011
 40
9.939019420347833
 50
13.87117199979699
 51
60.094641852891968
  0
ARC
  8
_0-0_
  6
CONTINUOUS
 62
    7
 10
36.45044792311478
 20
-12.779876361960831
 40
3.4143244608877903
 50
343.30075576600757
 51
16.699244233992445
  0
ARC
  8
_0-0_
  6
CONTINUOUS
 62
    7
 10
23.506537875019248
 20
-12.881558882508543
 40
12.6135780556376
 50
17.053168334048074
 51
37.404190020134301
  0
ARC
  8
_0-0_
  6
CONTINUOUS
 62
    7
 10
28.814973921091919
 20
-8.9453884016508027
 40
7.0090499154227972
 50
301.59962096209608
 51
354.90980419319334
  0
ARC
  8
_0-0_
  6
CONTINUOUS
 62
    7
 10
28.437600694418862
 20
-11.51184423026578
 40
5.2901047525364504
 50
271.36026848843471
 51
319.95826054550002
  0
ARC
  8
_0-0_
  6
CONTINUOUS
 62
    7
 10
23.593563455668331
 20
-2.7465902954284473
 40
14.906653300079141
 50
281.03602335380947
 51
289.47421405230659
  0
ARC
  8
_0-0_
  6
CONTINUOUS
 62
    7
 10
20.990582535522222
 20
17.700146216261849
 40
35.499577101591065
 50
266.26042431564588
 51
278.84176586235594
  0
ARC
  8
_0-0_
  6
CONTINUOUS
 62
    7
 10
19.455231008253165
 20
-8.7042951343868964
 40
9.053213057261269
 50
238.40667960390306
 51
265.05750798161461
  0
ARC
  8
_0-0_
  6
CONTINUOUS
 62
    7
 10
-5.5444330630727308
 20
-43.444026747660367
 40
41.45724269667982
 50
36.471093556106617
 51
38.48126556661505
  0
ARC
  8
_0-0_
  6
CONTINUOUS
 62
    7
 10
34.526724561402276
 20
-11.115855654079269
 40
5.9943741625926519
 50
253.97883277955574
 51
271.47115730466612
  0
LINE
  8
_0-0_
  6
CONTINUOUS
 62
    7
 10
8.63340811274891
 20
-6.8355711742684804
 11
4.8629103237919509
 21
-3.2574457214827959
  0
LINE
  8
_0-0_
  6
CONTINUOUS
 62
    7
 10
14.224540563525565
 20
-12.337174928466041
 11
15.90483735972218
 21
-14.1953855030835
  0
LINE
  8
_0-0_
  6
CONTINUOUS
 62
    7
 10
14.639672713174136
 20
-12.060420162033651
 11
16.300201311768475
 21
-13.839557946241868
  0
ARC
  8
_0-0_
  6
CONTINUOUS
 62
    7
 10
14.519877435704117
 20
-12.330453741281232
 40
0.2954133416509485
 50
66.076440071959667
 51
181.3036949800015
  0
ARC
  8
_0-0_
  6
CONTINUOUS
 62
    7
 10
16.063600696715767
 20
-13.974228792407615
 40
0.2722427002700338
 50
234.32629977414285
 51
29.648125217486669
  0
LINE
  8
_0-0_
  6
CONTINUOUS
 62
    7
 10
16.787135261645702
 20
-12.018548648487254
 11
18.467432057842316
 21
-13.876759223104727
  0
LINE
  8
_0-0_
  6
CONTINUOUS
 62
    7
 10
17.202267411294272
 20
-11.741793882054878
 11
18.862796009888612
 21
-13.520931666263081
  0
ARC
  8
_0-0_
  6
CONTINUOUS
 62
    7
 10
17.082472133824254
 20
-12.01182746130246
 40
0.2954133416509485
 50
66.076440071959667
 51
181.3036949800015
  0
ARC
  8
_0-0_
  6
CONTINUOUS
 62
    7
 10
18.626195394835904
 20
-13.655602512428828
 40
0.2722427002700338
 50
234.32629977414285
 51
29.648125217486669
  0
LINE
  8
_0-0_
  6
CONTINUOUS
 62
    7
 10
19.020941590707125
 20
-11.642952894043304
 11
20.701238386903739
 21
-13.501163468660764
  0
LINE
  8
_0-0_
  6
CONTINUOUS
 62
    7
 10
19.436073740355695
 20
-11.366198127610915
 11
21.096602338950035
 21
-13.145335911819132
  0
ARC
  8
_0-0_
  6
CONTINUOUS
 62
    7
 10
19.316278462885677
 20
-11.636231706858496
 40
0.2954133416509485
 50
66.076440071959667
 51
181.3036949800015
  0
ARC
  8
_0-0_
  6
CONTINUOUS
 62
    7
 10
20.860001723897327
 20
-13.280006757984879
 40
0.2722427002700338
 50
234.32629977414285
 51
29.648125217486669
  0
LINE
  8
_0-0_
  6
CONTINUOUS
 62
    7
 10
21.175675129359277
 20
-11.089443361178525
 11
22.855971925555892
 21
-12.947653935795998
  0
LINE
  8
_0-0_
  6
CONTINUOUS
 62
    7
 10
21.590807279007848
 20
-10.812688594746149
 11
23.251335877602187
 21
-12.591826378954352
  0
ARC
  8
_0-0_
  6
CONTINUOUS
 62
    7
 10
21.471012001537829
 20
-11.08272217399373
 40
0.2954133416509485
 50
66.076440071959667
 51
181.3036949800015
  0
ARC
  8
_0-0_
  6
CONTINUOUS
 62
    7
 10
23.014735262549479
 20
-12.726497225120099
 40
0.2722427002700338
 50
234.32629977414285
 51
29.648125217486669
  0
LINE
  8
_0-0_
  6
CONTINUOUS
 62
    7
 10
23.211799482397552
 20
-10.29871545708599
 11
24.892096278594167
 21
-12.156926031703463
  0
LINE
  8
_0-0_
  6
CONTINUOUS
 62
    7
 10
23.626931632046123
 20
-10.021960690653614
 11
25.287460230640463
 21
-11.801098474861817
  0
ARC
  8
_0-0_
  6
CONTINUOUS
 62
    7
 10
23.507136354576105
 20
-10.291994269901195
 40
0.2954133416509485
 50
66.076440071959667
 51
181.3036949800015
  0
ARC
  8
_0-0_
  6
CONTINUOUS
 62
    7
 10
25.050859615587754
 20
-11.935769321027564
 40
0.2722427002700338
 50
234.32629977414285
 51
29.648125217486669
  0
LINE
  8
_0-0_
  6
CONTINUOUS
 62
    7
 10
24.79325529058265
 20
-9.1521599961518092
 11
26.473552086779264
 21
-11.010370570769282
  0
LINE
  8
_0-0_
  6
CONTINUOUS
 62
    7
 10
25.20838744023122
 20
-8.8754052297194335
 11
26.86891603882556
 21
-10.654543013927636
  0
ARC
  8
_0-0_
  6
CONTINUOUS
 62
    7
 10
25.088592162761202
 20
-9.1454388089670147
 40
0.2954133416509485
 50
66.076440071959667
 51
181.3036949800015
  0
ARC
  8
_0-0_
  6
CONTINUOUS
 62
    7
 10
26.632315423772852
 20
-10.789213860093383
 40
0.2722427002700338
 50
234.32629977414285
 51
29.648125217486669
  0
LINE
  8
_0-0_
  6
CONTINUOUS
 62
    7
 10
26.256101913153842
 20
-7.985836337615325
 11
27.936398709350456
 21
-9.8440469122327841
  0
LINE
  8
_0-0_
  6
CONTINUOUS
 62
    7
 10
26.671234062802412
 20
-7.709081571182935
 11
28.331762661396752
 21
-9.4882193553911378
  0
ARC
  8
_0-0_
  6
CONTINUOUS
 62
    7
 10
26.551438785332394
 20
-7.9791151504305162
 40
0.2954133416509485
 50
66.076440071959667
 51
181.3036949800015
  0
ARC
  8
_0-0_
  6
CONTINUOUS
 62
    7
 10
28.095162046344043
 20
-9.6228902015568991
 40
0.2722427002700338
 50
234.32629977414285
 51
29.648125217486669
  0
LINE
  8
_0-0_
  6
CONTINUOUS
 62
    7
 10
26.987525224439437
 20
-6.0880893677932306
 11
28.667822020636052
 21
-7.9462999424107039
  0
LINE
  8
_0-0_
  6
CONTINUOUS
 62
    7
 10
27.402657374088008
 20
-5.8113346013608549
 11
29.063185972682348
 21
-7.5904723855690577
  0
ARC
  8
_0-0_
  6
CONTINUOUS
 62
    7
 10
27.28286209661799
 20
-6.0813681806084361
 40
0.2954133416509485
 50
66.076440071959667
 51
181.3036949800015
  0
ARC
  8
_0-0_
  6
CONTINUOUS
 62
    7
 10
28.826585357629639
 20
-7.7251432317348048
 40
0.2722427002700338
 50
234.32629977414285
 51
29.648125217486669
  0
ARC
  8
_0-0_
  6
CONTINUOUS
 62
    7
 10
10.705562498914148
 20
11.314338746621331
 40
19.778568469557445
 50
286.16763700362344
 51
318.18583211876228
  0
LINE
  8
_0-0_
  6
CONTINUOUS
 62
    7
 10
11.403569753615258
 20
12.016917770516294
 11
25.446750294118189
 21
-1.8723649010496359
  0
LINE
  8
_0-0_
  6
CONTINUOUS
 62
    7
 10
16.636097297473881
 20
2.4367754291868806
 11
20.752865291539123
 21
-1.4876202287070868
  0
LINE
  8
_0-0_
  6
CONTINUOUS
 62
    7
 10
4.8629103237919509
 20
-3.2574457214827959
 11
16.636097297473881
 21
2.4367754291868806
  0
ARC
  8
_0-0_
  6
CONTINUOUS
 62
    7
 10
-94.435633194358829
 20
210.38696857364963
 40
233.74116791591774
 50
294.4848534930079
 51
298.7583698106082
  0
ARC
  8
_0-0_
  6
CONTINUOUS
 62
    7
 10
-114.53560340002907
 20
154.90584258796
 40
195.97818438810936
 50
305.71277627970346
 51
306.64646461613933
  0
LINE
  8
_0-0_
  6
CONTINUOUS
 62
    7
 10
-4.755706484771693
 20
1.9750818223758273
 11
7.7869698335953075
 21
-9.5287838806662961
  0
LINE
  8
_0-0_
  6
CONTINUOUS
 62
    7
 10
34.751266725219025
 20
-17.364804259851283
 11
49.446411662174683
 21
-31.603105312756526
  0
LINE
  8
_0-0_
  6
CONTINUOUS
 62
    7
 10
20.752865291539123
 20
-1.4876202287070868
 11
8.63340811274891
 21
-6.8355711742684804
  0
LINE
  8
_0-0_
  6
CONTINUOUS
 62
    7
 10
35.129349576240855
 20
-0.8967135461986401
 11
40.157252686482479
 21
-7.6188014001086657
  0
LINE
  8
_0-0_
  6
CONTINUOUS
 62
    7
 10
5.3936875665853279
 20
-9.7403398412369242
 11
11.832931875355499
 21
-15.232866134282588
  0
LINE
  8
_0-0_
  6
CONTINUOUS
 62
    7
 10
-3.6476071788372053
 20
3.0481852089322814
 11
10.581298025273838
 21
10.799752969380833
  0
LINE
  8
_0-0_
  6
CONTINUOUS
 62
    7
 10
-3.0104920204441612
 20
2.4960187383249917
 11
11.006041464202525
 21
9.7803687159519797
  0
LINE
  8
_0-0_
  6
CONTINUOUS
 62
    7
 10
11.791816826220611
 20
9.3343881050768545
 11
-2.8618318168191195
 21
1.7739548921462216
  0
LINE
  8
_0-0_
  6
CONTINUOUS
 62
    7
 10
-3.5626584910514509
 20
0.9881795301281499
 11
-0.4832685588184801
 21
-1.6877041351225799
  0
LINE
  8
_0-0_
  6
CONTINUOUS
 62
    7
 10
15.189764337650104
 20
5.5754086705579766
 11
1.279416712735582
 21
-1.3266722120331949
  0
LINE
  8
_0-0_
  6
CONTINUOUS
 62
    7
 10
-2.9255433326584352
 20
1.1580769056996232
 11
-0.0797622918362321
 21
-1.4540952437118051
  0
LINE
  8
_0-0_
  6
CONTINUOUS
 62
    7
 10
1.6404486358249812
 20
-1.6452297912297169
 11
16.272860106918245
 21
5.1719024035757144
  0
ARC
  8
_0-0_
  6
CONTINUOUS
 62
    7
 10
-2.7032853434950255
 20
2.2586262128318353
 40
1.2309131313895225
 50
140.10059330463665
 51
199.99815331946135
  0
ARC
  8
_0-0_
  6
CONTINUOUS
 62
    7
 10
-2.4472735521914899
 20
1.5210591813147047
 40
1.2361408837524597
 50
150.2214805315526
 51
205.5363266751238
  0
ARC
  8
_0-0_
  6
CONTINUOUS
 62
    7
 10
15.688837878225286
 20
-24.44333387549139
 40
32.793195298884925
 50
124.76555584621393
 51
125.85687103305494
  0
ARC
  8
_0-0_
  6
CONTINUOUS
 62
    7
 10
-2.3850573066224285
 20
1.9374811161335614
 40
1.478295192971929
 50
183.87156496596677
 51
208.01922683587998
  0
ARC
  8
_0-0_
  6
CONTINUOUS
 62
    7
 10
-2.7180860000908069
 20
1.4478502187869182
 40
0.3563805800175847
 50
113.78771991213451
 51
234.39999786032161
  0
ARC
  8
_0-0_
  6
CONTINUOUS
 62
    7
 10
0.5422256930358173
 20
0.1517503101962276
 40
2.1059988406903973
 50
240.86037135410365
 51
301.43115432224579
  0
ARC
  8
_0-0_
  6
CONTINUOUS
 62
    7
 10
0.4417736423098688
 20
-0.5551911003637073
 40
1.0392441433724846
 50
239.8780863566306
 51
292.14008744650926
  0
ARC
  8
_0-0_
  6
CONTINUOUS
 62
    7
 10
1.725397323610764
 20
-2.9831716238552133
 40
1.7154850645351873
 50
105.06848815949296
 51
121.32869286780364
  0
LINE
  8
_0-0_
  6
CONTINUOUS
 62
    7
 10
12.683778047970833
 20
9.1220163856125254
 11
15.784405152150271
 21
6.1700494850581293
  0
ARC
  8
_0-0_
  6
CONTINUOUS
 62
    7
 10
11.244220379956204
 20
9.9897833608414999
 40
1.0466693914961829
 50
66.331861655557375
 51
129.29872543797515
  0
ARC
  8
_0-0_
  6
CONTINUOUS
 62
    7
 10
14.563267765230279
 20
3.6215888514859458
 40
7.1122730807861876
 50
113.11996471383746
 51
120.01013764031789
  0
ARC
  8
_0-0_
  6
CONTINUOUS
 62
    7
 10
12.141789558109679
 20
9.4869696952231948
 40
0.770924247488979
 50
45.328803401920517
 51
118.78425297689972
  0
ARC
  8
_0-0_
  6
CONTINUOUS
 62
    7
 10
12.110374405417105
 20
8.6930255122945681
 40
0.7161179418810597
 50
36.801931153982153
 51
116.4130733385134
  0
ARC
  8
_0-0_
  6
CONTINUOUS
 62
    7
 10
15.519715582087969
 20
5.9974393320482449
 40
0.3159981541431305
 50
271.78508207795556
 51
33.109294768609722
  0
ARC
  8
_0-0_
  6
CONTINUOUS
 62
    7
 10
14.138524326300796
 20
9.5361412385706927
 40
4.0978662785379214
 50
284.86447171426335
 51
289.8435775582584
  0
ARC
  8
_0-0_
  6
CONTINUOUS
 62
    7
 10
16.090279420323185
 20
5.7780466862135569
 40
0.6330454948043293
 50
286.76317041302195
 51
26.839648559679528
  0
LINE
  8
_0-0_
  6
CONTINUOUS
 62
    7
 10
0.9820963054854985
 20
-1.9213130265333618
 11
2.0227177308607907
 21
-2.45224232519422
  0
ARC
  8
_0-0_
  6
CONTINUOUS
 62
    7
 10
-0.6993085170735753
 20
2.414738289329982
 40
0.9359143360344398
 50
230.84364936906653
 51
325.16580834552013
  0
ARC
  8
_0-0_
  6
CONTINUOUS
 62
    7
 10
0.8334361018604568
 20
2.7721019736286365
 40
0.9359143360344398
 50
230.84364936906653
 51
325.16580834552013
  0
ARC
  8
_0-0_
  6
CONTINUOUS
 62
    7
 10
2.2563266222715583
 20
3.4941658198074066
 40
0.9359143360344398
 50
230.84364936906653
 51
325.16580834552013
  0
ARC
  8
_0-0_
  6
CONTINUOUS
 62
    7
 10
3.7429286585219756
 20
4.0675694623611349
 40
0.9359143360344398
 50
230.84364936906653
 51
325.16580834552013
  0
ARC
  8
_0-0_
  6
CONTINUOUS
 62
    7
 10
5.9091201970582858
 20
5.2356139194150302
 40
0.9359143360344398
 50
230.84364936906653
 51
325.16580834552013
  0
ARC
  8
_0-0_
  6
CONTINUOUS
 62
    7
 10
7.6293311247194708
 20
6.2337610008974451
 40
0.9359143360344398
 50
230.84364936906653
 51
325.16580834552013
  0
ARC
  8
_0-0_
  6
CONTINUOUS
 62
    7
 10
9.2433561926484629
 20
7.0620107068083797
 40
0.9359143360344398
 50
230.84364936906653
 51
325.16580834552013
  0
ARC
  8
_0-0_
  6
CONTINUOUS
 62
    7
 10
11.048515808095402
 20
7.7628373810407112
 40
0.9359143360344398
 50
230.84364936906653
 51
325.16580834552013
  0
ARC
  8
_0-0_
  6
CONTINUOUS
 62
    7
 10
13.257181690524561
 20
7.3593311140584632
 40
0.9359143360344398
 50
230.84364936906653
 51
325.16580834552013
  0
ARC
  8
_0-0_
  6
CONTINUOUS
 62
    7
 10
13.278418862471
 20
5.7877803900223199
 40
0.9359143360344398
 50
230.84364936906653
 51
325.16580834552013
  0
ARC
  8
_0-0_
  6
CONTINUOUS
 62
    7
 10
11.600682278702692
 20
4.9807678560578239
 40
0.9359143360344398
 50
230.84364936906653
 51
325.16580834552013
  0
ARC
  8
_0-0_
  6
CONTINUOUS
 62
    7
 10
10.071605898559426
 20
4.2162296659861767
 40
0.9359143360344398
 50
230.84364936906653
 51
325.16580834552013
  0
ARC
  8
_0-0_
  6
CONTINUOUS
 62
    7
 10
8.2876834550589251
 20
3.5154029917538381
 40
0.9359143360344398
 50
230.84364936906653
 51
325.16580834552013
  0
ARC
  8
_0-0_
  6
CONTINUOUS
 62
    7
 10
5.8241715092725315
 20
2.0925124713427365
 40
0.9359143360344398
 50
230.84364936906653
 51
325.16580834552013
  0
ARC
  8
_0-0_
  6
CONTINUOUS
 62
    7
 10
4.4862296766471843
 20
1.5615831726818783
 40
0.9359143360344398
 50
230.84364936906653
 51
325.16580834552013
  0
ARC
  8
_0-0_
  6
CONTINUOUS
 62
    7
 10
2.9359161245574512
 20
0.712096294824505
 40
0.9359143360344398
 50
230.84364936906653
 51
325.16580834552013
  0
ARC
  8
_0-0_
  6
CONTINUOUS
 62
    7
 10
1.3006538846820206
 20
0.0325067925386051
 40
0.9359143360344398
 50
230.84364936906653
 51
325.16580834552013
  0
ARC
  8
_0-0_
  6
CONTINUOUS
 62
    7
 10
-0.5045057307649187
 20
0.5421989192530247
 40
0.9359143360344398
 50
230.84364936906653
 51
325.16580834552013
  0
LINE
  8
_0-0_
  6
CONTINUOUS
 62
    7
 10
6.5366260915570251
 20
15.807733194140148
 11
10.507977245540275
 21
11.836382040156899
  0
LINE
  8
_0-0_
  6
CONTINUOUS
 62
    7
 10
12.683778047970833
 20
10.0352147793092
 11
16.655129201954082
 21
6.0638636253259648
  0
LINE
  8
_0-0_
  6
CONTINUOUS
 62
    7
 10
11.664393794542008
 20
10.948413173005875
 11
12.151395397666988
 21
10.78292123848432
  0
ARC
  8
_0-0_
  6
CONTINUOUS
 62
    7
 10
-7.3703623705304295
 20
12.765380544639065
 40
20.194766734820497
 50
131.95528941571723
 51
148.99944804194081
  0
ARC
  8
_0-0_
  6
CONTINUOUS
 62
    7
 10
-1.81864481192396
 20
5.7120732107251442
 40
29.157587007220073
 50
110.3231658443453
 51
130.80200059321004
  0
ARC
  8
_0-0_
  6
CONTINUOUS
 62
    7
 10
-7.2108159512843741
 20
22.03453903393423
 40
11.994087916883499
 50
83.009691348456471
 51
113.25051335985556
  0
ARC
  8
_0-0_
  6
CONTINUOUS
 62
    7
 10
-6.2392888913270923
 20
19.86081039274395
 40
14.087122522714111
 50
56.387180269451768
 51
88.014091673044774
  0
ARC
  8
_0-0_
  6
CONTINUOUS
 62
    7
 10
-1.2373168230098059
 20
26.92066810272555
 40
5.4448000930205858
 50
34.233277234148083
 51
59.097324541027966
  0
ARC
  8
_0-0_
  6
CONTINUOUS
 62
    7
 10
-4.3588054745126072
 20
6.7451607314224518
 40
26.47899904756995
 50
101.32830538984837
 51
120.1998314126991
  0
ARC
  8
_0-0_
  6
CONTINUOUS
 62
    7
 10
-6.9525706636362514
 20
14.803670979786666
 40
18.093493397277872
 50
83.623725867586685
 51
98.285956640157849
  0
ARC
  8
_0-0_
  6
CONTINUOUS
 62
    7
 10
-6.3990843145991647
 20
26.901928812440552
 40
6.0607803399141282
 50
45.790409531283025
 51
76.100382270562079
  0
ARC
  8
_0-0_
  6
CONTINUOUS
 62
    7
 10
-16.716341144032626
 20
17.549348868781941
 40
19.977846271804079
 50
32.894343973238591
 51
43.283201788711928
  0
ARC
  8
_0-0_
  6
CONTINUOUS
 62
    7
 10
15.151072668261449
 20
39.347688172063066
 40
18.689928759593908
 50
217.32853967303643
 51
229.53275071746572
  0
ARC
  8
_0-0_
  6
CONTINUOUS
 62
    7
 10
-4.6478507594978709
 20
13.321289915786359
 40
14.117685748389706
 50
90.886213860859328
 51
108.54028818902123
  0
ARC
  8
_0-0_
  6
CONTINUOUS
 62
    7
 10
-5.455052264899976
 20
12.401746673325995
 40
15.047066563764098
 50
66.921521330474704
 51
87.757232829007748
  0
ARC
  8
_0-0_
  6
CONTINUOUS
 62
    7
 10
-8.4297369252393111
 20
9.7806021342479355
 40
18.702748207712052
 50
50.283068290529236
 51
61.678231729817512
  0
ARC
  8
_0-0_
  6
CONTINUOUS
 62
    7
 10
-11.524425537816072
 20
42.991659062629587
 40
22.963182863457885
 50
298.74794101046859
 51
308.93217125946626
  0
ARC
  8
_0-0_
  6
CONTINUOUS
 62
    7
 10
-0.4643764164050736
 20
28.978014476770788
 40
5.1159845472782326
 50
311.2025075370384
 51
355.66739010880593
  0
ARC
  8
_0-0_
  6
CONTINUOUS
 62
    7
 10
-0.078051721845739
 20
20.842361788575339
 40
1.0466693914961829
 50
66.331861655557375
 51
129.29872543797515
  0
ARC
  8
_0-0_
  6
CONTINUOUS
 62
    7
 10
-18.31360435511219
 20
21.046849786626858
 40
6.7105515304167991
 50
161.58567275918557
 51
202.20109893230676
  0
ARC
  8
_0-0_
  6
CONTINUOUS
 62
    7
 10
-17.117048627255187
 20
16.566612742932413
 40
5.1313788274873575
 50
150.0708885356803
 51
186.22310312883084
  0
ARC
  8
_0-0_
  6
CONTINUOUS
 62
    7
 10
0.0906134460750109
 20
-2.4679314357864399
 40
30.5108921124875
 50
108.89710423870361
 51
133.49575270004982
  0
ARC
  8
_0-0_
  6
CONTINUOUS
 62
    7
 10
-43.988326001919305
 20
70.246544157295318
 40
62.779085861945809
 50
293.73728115266692
 51
302.00662390013974
  0
ARC
  8
_0-0_
  6
CONTINUOUS
 62
    7
 10
-89.488658447219592
 20
166.74478292159264
 40
169.19128056976166
 50
297.7486290497298
 51
301.74113354415471
  0
LINE
  8
_0-0_
  6
CONTINUOUS
 62
    7
 10
3.264193314866759
 20
29.983714712157315
 11
32.733967644745078
 21
1.762590473942204
  0
ARC
  8
_0-0_
  6
CONTINUOUS
 62
    7
 10
24.404205306794367
 20
-8.1489646671740132
 40
12.946963579238547
 50
34.066222477651067
 51
49.955996633325448
  0
LINE
  8
_0-0_
  6
CONTINUOUS
 62
    7
 10
-16.382537573152092
 20
10.208509762298746
 11
-24.526657992591979
 21
18.511210549633866
  0
LINE
  8
_0-0_
  6
CONTINUOUS
 62
    7
 10
-4.755706484771693
 20
1.9750818223758273
 11
-17.219248508343284
 21
13.280157387942246
  0
LINE
  8
_0-0_
  6
CONTINUOUS
 62
    7
 10
11.403569753615258
 20
12.016917770516294
 11
-0.0237502872038533
 21
23.192291043716033
  0
LINE
  8
_0-0_
  6
CONTINUOUS
 62
    7
 10
-14.796763462787595
 20
13.958138468056823
 11
-0.5678582586765372
 21
21.709706228505361
  0
LINE
  8
_0-0_
  6
CONTINUOUS
 62
    7
 10
-14.159648304394551
 20
13.405971997449534
 11
-0.1431148197478791
 21
20.690321975076507
  0
LINE
  8
_0-0_
  6
CONTINUOUS
 62
    7
 10
0.6426605422702351
 20
20.244341364201382
 11
-14.010988100769509
 21
12.683908151270764
  0
LINE
  8
_0-0_
  6
CONTINUOUS
 62
    7
 10
-14.711814775001841
 20
11.898132789252692
 11
-11.63242484276887
 21
9.2222491240019693
  0
LINE
  8
_0-0_
  6
CONTINUOUS
 62
    7
 10
-16.155942467359381
 20
13.129888762145889
 11
-15.221506901716282
 21
13.384734825503095
  0
LINE
  8
_0-0_
  6
CONTINUOUS
 62
    7
 10
4.040608053699728
 20
16.485361929682519
 11
-9.8697395712148079
 21
9.5832810470913401
  0
LINE
  8
_0-0_
  6
CONTINUOUS
 62
    7
 10
-14.074699616608825
 20
12.068030164824172
 11
-11.228918575786622
 21
9.455858015412737
  0
LINE
  8
_0-0_
  6
CONTINUOUS
 62
    7
 10
-9.5087076481254087
 20
9.264723467894818
 11
5.1237038229678689
 21
16.081855662700256
  0
ARC
  8
_0-0_
  6
CONTINUOUS
 62
    7
 10
-13.852441627445415
 20
13.168579471956384
 40
1.2309131313895225
 50
140.10059330463665
 51
199.99815331946135
  0
ARC
  8
_0-0_
  6
CONTINUOUS
 62
    7
 10
-13.59642983614188
 20
12.431012440439254
 40
1.2361408837524597
 50
150.2214805315526
 51
205.5363266751238
  0
ARC
  8
_0-0_
  6
CONTINUOUS
 62
    7
 10
4.53968159427491
 20
-13.533380616366848
 40
32.793195298884925
 50
124.76555584621393
 51
125.85687103305494
  0
ARC
  8
_0-0_
  6
CONTINUOUS
 62
    7
 10
-13.534213590572818
 20
12.847434375258111
 40
1.478295192971929
 50
183.87156496596677
 51
208.01922683587998
  0
ARC
  8
_0-0_
  6
CONTINUOUS
 62
    7
 10
-13.867242284041197
 20
12.357803477911467
 40
0.3563805800175847
 50
113.78771991213451
 51
234.39999786032161
  0
ARC
  8
_0-0_
  6
CONTINUOUS
 62
    7
 10
-10.606930590914573
 20
11.061703569320777
 40
2.1059988406903973
 50
240.86037135410365
 51
301.43115432224579
  0
ARC
  8
_0-0_
  6
CONTINUOUS
 62
    7
 10
-10.707382641640521
 20
10.354762158760828
 40
1.0392441433724846
 50
239.8780863566306
 51
292.14008744650926
  0
ARC
  8
_0-0_
  6
CONTINUOUS
 62
    7
 10
-9.4237589603396259
 20
7.9267816352693288
 40
1.7154850645351873
 50
105.06848815949296
 51
121.32869286780364
  0
LINE
  8
_0-0_
  6
CONTINUOUS
 62
    7
 10
1.5346217640204287
 20
20.031969644737053
 11
4.6352488681998949
 21
17.080002744182657
  0
ARC
  8
_0-0_
  6
CONTINUOUS
 62
    7
 10
3.4141114812798747
 20
14.531542110610481
 40
7.1122730807861876
 50
113.11996471383746
 51
120.01013764031789
  0
ARC
  8
_0-0_
  6
CONTINUOUS
 62
    7
 10
0.9926332741593029
 20
20.396922954347737
 40
0.770924247488979
 50
45.328803401920517
 51
118.78425297689972
  0
ARC
  8
_0-0_
  6
CONTINUOUS
 62
    7
 10
0.9612181214667003
 20
19.602978771419096
 40
0.7161179418810597
 50
36.801931153982153
 51
116.4130733385134
  0
ARC
  8
_0-0_
  6
CONTINUOUS
 62
    7
 10
4.3705592981375645
 20
16.907392591172773
 40
0.3159981541431305
 50
271.78508207795556
 51
33.109294768609722
  0
ARC
  8
_0-0_
  6
CONTINUOUS
 62
    7
 10
2.9893680423504208
 20
20.446094497695221
 40
4.0978662785379214
 50
284.86447171426335
 51
289.8435775582584
  0
ARC
  8
_0-0_
  6
CONTINUOUS
 62
    7
 10
4.9411231363727808
 20
16.687999945338099
 40
0.6330454948043293
 50
286.76317041302195
 51
26.839648559679528
  0
ARC
  8
_0-0_
  6
CONTINUOUS
 62
    7
 10
-11.848464801023965
 20
13.324691548454531
 40
0.9359143360344398
 50
230.84364936906653
 51
325.16580834552013
  0
ARC
  8
_0-0_
  6
CONTINUOUS
 62
    7
 10
-10.315720182089933
 20
13.682055232753179
 40
0.9359143360344398
 50
230.84364936906653
 51
325.16580834552013
  0
ARC
  8
_0-0_
  6
CONTINUOUS
 62
    7
 10
-8.8928296616788316
 20
14.404119078931949
 40
0.9359143360344398
 50
230.84364936906653
 51
325.16580834552013
  0
ARC
  8
_0-0_
  6
CONTINUOUS
 62
    7
 10
-7.4062276254284143
 20
14.977522721485677
 40
0.9359143360344398
 50
230.84364936906653
 51
325.16580834552013
  0
ARC
  8
_0-0_
  6
CONTINUOUS
 62
    7
 10
-5.2400360868921041
 20
16.145567178539572
 40
0.9359143360344398
 50
230.84364936906653
 51
325.16580834552013
  0
ARC
  8
_0-0_
  6
CONTINUOUS
 62
    7
 10
-3.5198251592309191
 20
17.143714260021973
 40
0.9359143360344398
 50
230.84364936906653
 51
325.16580834552013
  0
ARC
  8
_0-0_
  6
CONTINUOUS
 62
    7
 10
-1.9058000913019271
 20
17.971963965932908
 40
0.9359143360344398
 50
230.84364936906653
 51
325.16580834552013
  0
ARC
  8
_0-0_
  6
CONTINUOUS
 62
    7
 10
-0.1006404758550019
 20
18.672790640165239
 40
0.9359143360344398
 50
230.84364936906653
 51
325.16580834552013
  0
ARC
  8
_0-0_
  6
CONTINUOUS
 62
    7
 10
2.108025406574157
 20
18.269284373182991
 40
0.9359143360344398
 50
230.84364936906653
 51
325.16580834552013
  0
ARC
  8
_0-0_
  6
CONTINUOUS
 62
    7
 10
2.1292625785205956
 20
16.697733649146862
 40
0.9359143360344398
 50
230.84364936906653
 51
325.16580834552013
  0
ARC
  8
_0-0_
  6
CONTINUOUS
 62
    7
 10
0.4515259947522878
 20
15.890721115182366
 40
0.9359143360344398
 50
230.84364936906653
 51
325.16580834552013
  0
ARC
  8
_0-0_
  6
CONTINUOUS
 62
    7
 10
-1.0775503853909498
 20
15.126182925110719
 40
0.9359143360344398
 50
230.84364936906653
 51
325.16580834552013
  0
ARC
  8
_0-0_
  6
CONTINUOUS
 62
    7
 10
-2.8614728288914648
 20
14.425356250878373
 40
0.9359143360344398
 50
230.84364936906653
 51
325.16580834552013
  0
ARC
  8
_0-0_
  6
CONTINUOUS
 62
    7
 10
-5.3249847746778585
 20
13.002465730467271
 40
0.9359143360344398
 50
230.84364936906653
 51
325.16580834552013
  0
ARC
  8
_0-0_
  6
CONTINUOUS
 62
    7
 10
-6.6629266073032056
 20
12.47153643180642
 40
0.9359143360344398
 50
230.84364936906653
 51
325.16580834552013
  0
ARC
  8
_0-0_
  6
CONTINUOUS
 62
    7
 10
-8.2132401593929387
 20
11.622049553949047
 40
0.9359143360344398
 50
230.84364936906653
 51
325.16580834552013
  0
ARC
  8
_0-0_
  6
CONTINUOUS
 62
    7
 10
-9.8485023992683693
 20
10.942460051663154
 40
0.9359143360344398
 50
230.84364936906653
 51
325.16580834552013
  0
ARC
  8
_0-0_
  6
CONTINUOUS
 62
    7
 10
-11.653662014715309
 20
11.452152178377567
 40
0.9359143360344398
 50
230.84364936906653
 51
325.16580834552013
  0
LINE
  8
_0-0_
  6
CONTINUOUS
 62
    7
 10
1.5346217640204287
 20
20.945168038433742
 11
5.5059729180037067
 21
16.973816884450493
  0
ENDBLK
  0
ENDSEC
  0
SECTION
  2
ENTITIES
  0
LINE
  8
_0-0_
  6
CONTINUOUS
 62
    7
 10
-1244.420826261083
 20
-1127.4836411798831
 11
1755.579173738917
 21
-1127.4836411798831
  0
LINE
  8
_0-0_
  6
CONTINUOUS
 62
    7
 10
1755.579173738917
 20
-1127.4836411798831
 11
1755.579173738917
 21
1392.5163588201169
  0
LINE
  8
_0-0_
  6
CONTINUOUS
 62
    7
 10
1755.579173738917
 20
1392.5163588201169
 11
-1244.420826261083
 21
1392.5163588201169
  0
LINE
  8
_0-0_
  6
CONTINUOUS
 62
    7
 10
-1244.420826261083
 20
1392.5163588201169
 11
-1244.420826261083
 21
-1127.4836411798831
  0
LINE
  8
_0-0_
  6
CONTINUOUS
 62
    7
 10
-1215.1881720287051
 20
-1099.7116744577415
 11
1784.8118279712949
 21
-1099.7116744577415
  0
LINE
  8
_0-0_
  6
CONTINUOUS
 62
    7
 10
1784.8118279712949
 20
-1099.7116744577415
 11
1784.8118279712949
 21
1420.2883255422585
  0
LINE
  8
_0-0_
  6
CONTINUOUS
 62
    7
 10
1784.8118279712949
 20
1420.2883255422585
 11
-1215.1881720287051
 21
1420.2883255422585
  0
LINE
  8
_0-0_
  6
CONTINUOUS
 62
    7
 10
-1215.1881720287051
 20
1420.2883255422585
 11
-1215.1881720287051
 21
-1099.7116744577415
  0
INSERT
  2
-009-2223
  8
_0-0_
 10
134.52551020408163
 20
102.47448979591837
 41
1
 42
1
 50
0
  0
ENDSEC
  0
EOF
