  0
SECTION
  2
HEADER
  9
$ACADVER
  1
AC1009
  9
$INSBASE
 10
0
 20
0
 30
0
  9
$EXTMIN
 10
0
 20
0
  9
$EXTMAX
 10
297
 20
210
  9
$LIMMIN
 10
0
 20
0
  9
$LIMMAX
 10
297
 20
210
  9
$LTSCALE
 40
1
  0
ENDSEC
  0
SECTION
  2
TABLES
  0
TABLE
  2
LTYPE
 70
     9
  0
LTYPE
  2
CONTINUOUS
 70
    64
  3
実線
 72
    65
 73
     0
 40
0.0
  0
LTYPE
  2
DASHED1
 70
    64
  3
--  --  --  --  --  --  --  --  
 72
    65
 73
     2
 40
2.5
 49
1.25
 49
-1.25
  0
LTYPE
  2
DASHED2
 70
    64
  3
----    ----    ----    ----    
 72
    65
 73
     2
 40
5.0
 49
2.5
 49
-2.5
  0
LTYPE
  2
DASHED3
 70
    64
  3
------  ------  ------  ------  
 72
    65
 73
     2
 40
5.0
 49
3.75
 49
-1.25
  0
LTYPE
  2
CENTER1
 70
    64
  3
----- - ----- - ----- - ----- - 
 72
    65
 73
     4
 40
10.0
 49
6.25
 49
-1.25
 49
1.25
 49
-1.25
  0
LTYPE
  2
CENTER2
 70
    64
  3
----------  --  ----------  --  
 72
    65
 73
     4
 40
20.0
 49
12.5
 49
-2.5
 49
2.5
 49
-2.5
  0
LTYPE
  2
PHANTOM1
 70
    64
  3
--- - - --- - - --- - - --- - - 
 72
    65
 73
     6
 40
10.0
 49
3.25
 49
-1.25
 49
1.25
 49
-1.25
 49
1.25
 49
-1.25
  0
LTYPE
  2
PHANTOM2
 70
    64
  3
--------  -  -  --------  -  -  
 72
    65
 73
     6
 40
20.0
 49
10.0
 49
-2.5
 49
1.25
 49
-2.5
 49
1.25
 49
-2.5
  0
LTYPE
  2
DOT
 70
    64
  3
-   -   -   -   -   -   -   -   
 72
    65
 73
     2
 40
2.5
 49
0.625
 49
-1.875
  0
LTYPE
  2
DUMMY
 70
    64
  3
ダミー
 72
    65
 73
     0
 40
0.0
  0
LTYPE
  2
RAND1
 70
    64
  3
ランダム線1
 72
    65
 73
     4
 40
10.0
 49
1.0
 49
-2.0
 49
3.0
 49
-4.0
  0
LTYPE
  2
RAND2
 70
    64
  3
ランダム線2
 72
    65
 73
     4
 40
14.0
 49
2.0
 49
-3.0
 49
4.0
 49
-5.0
  0
LTYPE
  2
RAND3
 70
    64
  3
ランダム線3
 72
    65
 73
     4
 40
18.0
 49
3.0
 49
-4.0
 49
5.0
 49
-6.0
  0
LTYPE
  2
RAND4
 70
    64
  3
ランダム線4
 72
    65
 73
     4
 40
22.0
 49
4.0
 49
-5.0
 49
6.0
 49
-7.0
  0
LTYPE
  2
RAND5
 70
    64
  3
ランダム線5
 72
    65
 73
     4
 40
26.0
 49
5.0
 49
-6.0
 49
7.0
 49
-8.0
  0
LTYPE
  2
LONG1
 70
    64
  3
----------  --  ----------  --  
 72
    65
 73
     4
 40
40.0
 49
32.5
 49
-2.5
 49
2.5
 49
-2.5
  0
LTYPE
  2
LONG2
 70
    64
  3
--------  -  -  --------  -  -  
 72
    65
 73
     6
 40
40.0
 49
30.0
 49
-2.5
 49
1.25
 49
-2.5
 49
1.25
 49
-2.5
  0
LTYPE
  2
LONG3
 70
    64
  3
+++++++++++++++..+++++++++++++++
 72
    65
 73
     2
 40
40.0
 49
37.5
 49
-2.5
  0
LTYPE
  2
LONG4
 70
    64
  3
+++++++++++++++..+++++++++++++++
 72
    65
 73
     2
 40
80.0
 49
75.0
 49
-5.0
  0
LTYPE
  2
LONG5
 70
    64
  3
----------  --  ----------  --  
 72
    65
 73
     4
 40
60.0
 49
37.5
 49
-7.5
 49
7.5
 49
-7.5
  0
LTYPE
  2
dashed
 70
   64
  3
-------   -------------   ------
 72
   65
 73
    2
 40
7.5
 49
6
 49
-1.5
  0
LTYPE
  2
dashed_spaced
 70
   64
  3
----        --------        ----
 72
   65
 73
    2
 40
12
 49
6
 49
-6
  0
LTYPE
  2
long_dashed_dotted
 70
   64
  3
------------- --- --------------
 72
   65
 73
    4
 40
15.25
 49
12
 49
-1.5
 49
0.25
 49
-1.5
  0
LTYPE
  2
long_dashed_double-dotted
 70
   64
  3
----------- --- --- ------------
 72
   65
 73
    6
 40
17
 49
12
 49
-1.5
 49
0.25
 49
-1.5
 49
0.25
 49
-1.5
  0
LTYPE
  2
long_dashed_triplicate-dotted
 70
   64
  3
--------- --- --- --- ----------
 72
   65
 73
    8
 40
18.75
 49
12
 49
-1.5
 49
0.25
 49
-1.5
 49
0.25
 49
-1.5
 49
0.25
 49
-1.5
  0
LTYPE
  2
dotted
 70
   64
  3
   -       -       -       -    
 72
   65
 73
    2
 40
1.75
 49
0.25
 49
-1.5
  0
LTYPE
  2
chain
 70
   64
  3
-------------- -- --------------
 72
   65
 73
    4
 40
18.5
 49
12
 49
-1.5
 49
3.5
 49
-1.5
  0
LTYPE
  2
chain_double_dash
 70
   64
  3
------------ -- -- -------------
 72
   65
 73
    6
 40
23.5
 49
12
 49
-1.5
 49
3.5
 49
-1.5
 49
3.5
 49
-1.5
  0
LTYPE
  2
dashed_dotted
 70
   64
  3
-----------     -     ----------
 72
   65
 73
    4
 40
9.25
 49
6
 49
-1.5
 49
0.25
 49
-1.5
  0
LTYPE
  2
double-dashed_dotted
 70
   64
  3
------   -----------   -   -----
 72
   65
 73
    6
 40
16.75
 49
6
 49
-1.5
 49
6
 49
-1.5
 49
0.25
 49
-1.5
  0
LTYPE
  2
dashed_double-dotted
 70
   64
  3
---------    -    -    ---------
 72
   65
 73
    6
 40
11
 49
6
 49
-1.5
 49
0.25
 49
-1.5
 49
0.25
 49
-1.5
  0
LTYPE
  2
double-dashed_double-dotted
 70
   64
  3
-----   ---------   -   -   ----
 72
   65
 73
    8
 40
18.5
 49
6
 49
-1.5
 49
6
 49
-1.5
 49
0.25
 49
-1.5
 49
0.25
 49
-1.5
  0
LTYPE
  2
dashed_triplicate-dotted
 70
   64
  3
-------    -    -    -    ------
 72
   65
 73
    8
 40
12.75
 49
6
 49
-1.5
 49
0.25
 49
-1.5
 49
0.25
 49
-1.5
 49
0.25
 49
-1.5
  0
LTYPE
  2
double-dashed_triplicate-dotted
 70
   64
  3
-----  ---------  -  -  -  -----
 72
   65
 73
   10
 40
20.25
 49
6
 49
-1.5
 49
6
 49
-1.5
 49
0.25
 49
-1.5
 49
0.25
 49
-1.5
 49
0.25
 49
-1.5
  0
LTYPE
  2
undefined
 70
   64
  3
--------------------------------
 72
   65
 73
    0
 40
0
  0
LTYPE
  2
_
 70
   64
  3
                                
 72
   65
 73
    0
 40
0
  0
LTYPE
  2
__18
 70
   64
  3
                                
 72
   65
 73
    0
 40
0
  0
LTYPE
  2
__19
 70
   64
  3
                                
 72
   65
 73
    0
 40
0
  0
LTYPE
  2
__20
 70
   64
  3
                                
 72
   65
 73
    0
 40
0
  0
LTYPE
  2
__21
 70
   64
  3
                                
 72
   65
 73
    0
 40
0
  0
LTYPE
  2
__22
 70
   64
  3
                                
 72
   65
 73
    0
 40
0
  0
LTYPE
  2
__23
 70
   64
  3
                                
 72
   65
 73
    0
 40
0
  0
LTYPE
  2
__24
 70
   64
  3
                                
 72
   65
 73
    0
 40
0
  0
LTYPE
  2
__25
 70
   64
  3
                                
 72
   65
 73
    0
 40
0
  0
LTYPE
  2
__26
 70
   64
  3
                                
 72
   65
 73
    0
 40
0
  0
LTYPE
  2
__27
 70
   64
  3
                                
 72
   65
 73
    0
 40
0
  0
LTYPE
  2
__28
 70
   64
  3
                                
 72
   65
 73
    0
 40
0
  0
LTYPE
  2
__29
 70
   64
  3
                                
 72
   65
 73
    0
 40
0
  0
LTYPE
  2
__30
 70
   64
  3
                                
 72
   65
 73
    0
 40
0
  0
LTYPE
  2
__31
 70
   64
  3
                                
 72
   65
 73
    0
 40
0
  0
LTYPE
  2
__32
 70
   64
  3
                                
 72
   65
 73
    0
 40
0
  0
ENDTAB
  0
TABLE
  2
STYLE
  5
3
100
AcDbSymbolTable
 70
     1
  0
STYLE
  5
10
100
AcDbSymbolTableRecord
100
AcDbTextStyleTableRecord
  2
STANDARD
 70
     0
 40
0.0
 41
1.0
 50
0.0
 71
     0
 42
0.2
  3
txt
  4
bigfont.shx
  0
STYLE
  5
26
100
AcDbSymbolTableRecord
100
AcDbTextStyleTableRecord
  2
TATEGAKI
 70
    68
 40
0.0
 41
1.0
 50
0.0
 71
     0
 42
1.0
  3
txt
  4
bigfont.shx
  0
ENDTAB
  0
TABLE
  2
LAYER
 70
    2
  0
LAYER
  2
_0-0_
 70
   64
 62
    7
  6
CONTINUOUS
  0
LAYER
  2
ADD_LINE
 70
   64
 62
    7
  6
CONTINUOUS
  0
ENDTAB
  0
ENDSEC
  0
SECTION
  2
BLOCKS
  0
BLOCK
  2
-003-22
 70
   64
 10
0
 20
0
 30
0
  0
LINE
  8
_0-0_
  6
CONTINUOUS
 62
    7
 10
3.0568602720020124
 20
26.357774906864641
 11
3.0154850785719702
 21
24.413140815652604
  0
LINE
  8
_0-0_
  6
CONTINUOUS
 62
    7
 10
-10.886579913922645
 20
18.0413610274259
 11
3.677488173452673
 21
24.620016782802814
  0
LINE
  8
_0-0_
  6
CONTINUOUS
 62
    7
 10
7.4012555821565797
 20
24.744142363092955
 11
23.123829085573135
 21
18.744739315736631
  0
LINE
  8
_0-0_
  6
CONTINUOUS
 62
    7
 10
23.123829085573135
 20
18.744739315736631
 11
23.41345543958343
 21
0.4155286262273563
  0
LINE
  8
_0-0_
  6
CONTINUOUS
 62
    7
 10
23.082453892143093
 20
0.0845270787870049
 11
7.1530044215763269
 21
1.9050355897089233
  0
LINE
  8
_0-0_
  6
CONTINUOUS
 62
    7
 10
4.2981160749033052
 20
1.9877859765690076
 11
-10.886579913922645
 21
-0.1223488883632128
  0
LINE
  8
_0-0_
  6
CONTINUOUS
 62
    7
 10
-10.886579913922645
 20
-0.1223488883632128
 11
-11.217581461363011
 21
0.1259022722170541
  0
LINE
  8
_0-0_
  6
CONTINUOUS
 62
    7
 10
-11.217581461363011
 20
0.1259022722170541
 11
-11.176206267932969
 21
17.462108319405282
  0
LINE
  8
_0-0_
  6
CONTINUOUS
 62
    7
 10
-10.886579913922645
 20
-0.1223488883632128
 11
2.6431083377015909
 21
-1.2808543044044285
  0
LINE
  8
_0-0_
  6
CONTINUOUS
 62
    7
 10
2.6017331442715488
 20
1.7809100094187968
 11
2.4776075639814223
 21
-37.566898942552598
  0
LINE
  8
_0-0_
  6
CONTINUOUS
 62
    7
 10
24.240959308184301
 20
27.64040590319599
 11
24.240959308184301
 21
-38.394402811153469
  0
ARC
  8
_0-0_
  6
CONTINUOUS
 62
    7
 10
6.340272399761318
 20
25.618353472135929
 40
3.3656409878139257
 50
120.43359735742706
 51
167.30875941809475
  0
ARC
  8
_0-0_
  6
CONTINUOUS
 62
    7
 10
13.073867603989811
 20
13.542055870263418
 40
17.191677822481633
 50
94.002444119618801
 51
119.39604434836845
  0
ARC
  8
_0-0_
  6
CONTINUOUS
 62
    7
 10
14.993895533410921
 20
9.3330170498120921
 40
21.585461291177573
 50
81.04911338766982
 51
98.31071696476674
  0
ARC
  8
_0-0_
  6
CONTINUOUS
 62
    7
 10
16.866196651802483
 20
20.59921226131069
 40
10.165616998167518
 50
56.000678659721721
 51
81.593684052659171
  0
ARC
  8
_0-0_
  6
CONTINUOUS
 62
    7
 10
19.431539992518765
 20
23.500923326933325
 40
6.3455362384182239
 50
40.718683582409817
 51
60.558015252760562
  0
ARC
  8
_0-0_
  6
CONTINUOUS
 62
    7
 10
5.4135772345099156
 20
21.312416504713106
 40
3.7355354137715904
 50
88.056710817951199
 51
117.6940259680413
  0
ARC
  8
_0-0_
  6
CONTINUOUS
 62
    7
 10
5.4299066445171604
 20
18.473793821639269
 40
6.5729359851775842
 50
72.547256832614721
 51
89.038097343466006
  0
ARC
  8
_0-0_
  6
CONTINUOUS
 62
    7
 10
-10.483726831726614
 20
17.477901543814973
 40
0.6926595090706141
 50
125.5633920465452
 51
181.30650559929552
  0
ARC
  8
_0-0_
  6
CONTINUOUS
 62
    7
 10
5.7393080566725416
 20
-4.755073687659042
 40
6.8951570525833255
 50
88.044794253189323
 51
102.06464118894944
  0
ARC
  8
_0-0_
  6
CONTINUOUS
 62
    7
 10
4.664228276381408
 20
-7.6686124157420821
 40
9.8918523459040433
 50
75.427871059378433
 51
82.38790873606014
  0
ARC
  8
_0-0_
  6
CONTINUOUS
 62
    7
 10
4.9986568144780676
 20
-36.417016824983392
 40
2.7709056656146096
 50
204.51832254639055
 51
252.01905334206603
  0
ARC
  8
_0-0_
  6
CONTINUOUS
 62
    7
 10
12.533551168182129
 20
-22.584095539096694
 40
18.482640504106229
 50
243.00232511677564
 51
269.00158230873785
  0
ARC
  8
_0-0_
  6
CONTINUOUS
 62
    7
 10
14.3595751012721
 20
-12.769979175282735
 40
28.375374863585705
 50
265.65842617392076
 51
283.74695133966225
  0
ARC
  8
_0-0_
  6
CONTINUOUS
 62
    7
 10
18.498911516988642
 20
-32.606374600228442
 40
8.1530597573450247
 50
288.62320250241322
 51
314.77151321249721
  0
ARC
  8
_0-0_
  6
CONTINUOUS
 62
    7
 10
18.938624250201116
 20
-34.708713619785236
 40
1.6386589681569532
 50
98.279998003918365
 51
168.78240056731056
  0
ARC
  8
_0-0_
  6
CONTINUOUS
 62
    7
 10
18.617674516861456
 20
-34.589181963206997
 40
1.504447299202863
 50
38.21355624170927
 51
86.7624385105876
  0
ARC
  8
_0-0_
  6
CONTINUOUS
 62
    7
 10
17.798097081945372
 20
-34.24050858626066
 40
2.084524171536644
 50
327.10061105190988
 51
16.211605780023739
  0
ARC
  8
_0-0_
  6
CONTINUOUS
 62
    7
 10
18.302657233248055
 20
-34.003014156068701
 40
1.8514440872231319
 50
267.52361448534828
 51
312.28388458926713
  0
ARC
  8
_0-0_
  6
CONTINUOUS
 62
    7
 10
18.745086870193205
 20
-34.073215168572915
 40
1.8546156697212544
 50
223.50194622566914
 51
253.63892254465247
  0
ARC
  8
_0-0_
  6
CONTINUOUS
 62
    7
 10
18.670761440797662
 20
-34.776686024597318
 40
1.3942058177096299
 50
163.89502515543444
 51
204.27620840451533
  0
ARC
  8
_0-0_
  6
CONTINUOUS
 62
    7
 10
18.996635479751291
 20
-19.828171502027708
 40
1.6386589681569532
 50
98.279998003918365
 51
168.78240056731056
  0
ARC
  8
_0-0_
  6
CONTINUOUS
 62
    7
 10
18.675685746411631
 20
-19.708639845449461
 40
1.504447299202863
 50
38.21355624170927
 51
86.7624385105876
  0
ARC
  8
_0-0_
  6
CONTINUOUS
 62
    7
 10
17.856108311495547
 20
-19.359966468503131
 40
2.084524171536644
 50
327.10061105190988
 51
16.211605780023739
  0
ARC
  8
_0-0_
  6
CONTINUOUS
 62
    7
 10
18.36066846279823
 20
-19.122472038311166
 40
1.8514440872231319
 50
267.52361448534828
 51
312.28388458926713
  0
ARC
  8
_0-0_
  6
CONTINUOUS
 62
    7
 10
18.80309809974338
 20
-19.19267305081538
 40
1.8546156697212544
 50
223.50194622566914
 51
253.63892254465247
  0
ARC
  8
_0-0_
  6
CONTINUOUS
 62
    7
 10
18.728772670347837
 20
-19.896143906839789
 40
1.3942058177096299
 50
163.89502515543444
 51
204.27620840451533
  0
LINE
  8
_0-0_
  6
CONTINUOUS
 62
    7
 10
1.7173602932109588
 20
-30.419303954092562
 11
2.5001570164939437
 21
-30.419303954092562
  0
LINE
  8
_0-0_
  6
CONTINUOUS
 62
    7
 10
1.5589371468322781
 20
-30.260880807713864
 11
2.3230958528942267
 21
-30.242242790492838
  0
LINE
  8
_0-0_
  6
CONTINUOUS
 62
    7
 10
1.4657470607271534
 20
-29.254427877778603
 11
2.2578627926206423
 21
-29.235789860557574
  0
LINE
  8
_0-0_
  6
CONTINUOUS
 62
    7
 10
1.4191520176746053
 20
-28.82575348169506
 11
2.2392247753996344
 21
-28.82575348169506
  0
LINE
  8
_0-0_
  6
CONTINUOUS
 62
    7
 10
1.4191520176746053
 20
-28.82575348169506
 11
1.3632379660115248
 21
-29.254427877778603
  0
LINE
  8
_0-0_
  6
CONTINUOUS
 62
    7
 10
1.3632379660115248
 20
-29.254427877778603
 11
1.3818759832325611
 21
-30.046543609672092
  0
LINE
  8
_0-0_
  6
CONTINUOUS
 62
    7
 10
1.3818759832325611
 20
-30.046543609672092
 11
1.5589371468322781
 21
-30.260880807713864
  0
LINE
  8
_0-0_
  6
CONTINUOUS
 62
    7
 10
1.5589371468322781
 20
-30.260880807713864
 11
1.7173602932109588
 21
-30.419303954092562
  0
LINE
  8
_0-0_
  6
CONTINUOUS
 62
    7
 10
1.5682561554427821
 20
-29.990629558009026
 11
2.2578627926206423
 21
-29.971991540788004
  0
LINE
  8
_0-0_
  6
CONTINUOUS
 62
    7
 10
1.875783439589668
 20
-28.425036111443063
 11
2.3137768442837228
 21
-28.434355120053574
  0
LINE
  8
_0-0_
  6
CONTINUOUS
 62
    7
 10
1.4191520176746053
 20
-28.82575348169506
 11
1.875783439589668
 21
-28.425036111443063
  0
LINE
  8
_0-0_
  6
CONTINUOUS
 62
    7
 10
1.875783439589668
 20
-28.425036111443063
 11
2.1180776634629694
 21
-28.406398094222034
  0
ARC
  8
_0-0_
  6
CONTINUOUS
 62
    7
 10
3.0224140738574761
 20
-29.874141950377627
 40
0.7549542768713786
 50
171.12394031191388
 51
226.22917805306486
  0
ARC
  8
_0-0_
  6
CONTINUOUS
 62
    7
 10
4.3538960306015326
 20
-29.405823823853261
 40
2.1069778397649062
 50
164.54607793235721
 51
189.61247902564313
  0
ARC
  8
_0-0_
  6
CONTINUOUS
 62
    7
 10
6.1392298789042172
 20
-29.836865915937416
 40
3.9430805689096662
 50
157.70825019149356
 51
165.42185216266202
  0
LINE
  8
_0-0_
  6
CONTINUOUS
 62
    7
 10
2.3137768442837228
 20
-28.434355120053574
 11
2.3883289131678112
 21
-28.499588180327152
  0
LINE
  8
_0-0_
  6
CONTINUOUS
 62
    7
 10
2.2392247753996344
 20
-28.82575348169506
 11
2.3137768442837228
 21
-28.779158438642504
  0
LINE
  8
_0-0_
  6
CONTINUOUS
 62
    7
 10
1.7432081138149158
 20
-18.291991286411545
 11
2.5260048370979007
 21
-18.291991286411545
  0
LINE
  8
_0-0_
  6
CONTINUOUS
 62
    7
 10
1.5847849674362351
 20
-18.133568140032843
 11
2.3489436734981837
 21
-18.11493012281182
  0
LINE
  8
_0-0_
  6
CONTINUOUS
 62
    7
 10
1.4915948813311104
 20
-17.127115210097585
 11
2.2837106132245992
 21
-17.108477192876556
  0
LINE
  8
_0-0_
  6
CONTINUOUS
 62
    7
 10
1.4449998382785623
 20
-16.698440814014042
 11
2.2650725960035913
 21
-16.698440814014042
  0
LINE
  8
_0-0_
  6
CONTINUOUS
 62
    7
 10
1.4449998382785623
 20
-16.698440814014042
 11
1.3890857866154818
 21
-17.127115210097585
  0
LINE
  8
_0-0_
  6
CONTINUOUS
 62
    7
 10
1.3890857866154818
 20
-17.127115210097585
 11
1.4077238038365181
 21
-17.919230941991074
  0
LINE
  8
_0-0_
  6
CONTINUOUS
 62
    7
 10
1.4077238038365181
 20
-17.919230941991074
 11
1.5847849674362351
 21
-18.133568140032843
  0
LINE
  8
_0-0_
  6
CONTINUOUS
 62
    7
 10
1.5847849674362351
 20
-18.133568140032843
 11
1.7432081138149158
 21
-18.291991286411545
  0
LINE
  8
_0-0_
  6
CONTINUOUS
 62
    7
 10
1.594103976046739
 20
-17.863316890328008
 11
2.2837106132245992
 21
-17.844678873106986
  0
LINE
  8
_0-0_
  6
CONTINUOUS
 62
    7
 10
1.9016312601936249
 20
-16.297723443762045
 11
2.3396246648876797
 21
-16.307042452372556
  0
LINE
  8
_0-0_
  6
CONTINUOUS
 62
    7
 10
1.4449998382785623
 20
-16.698440814014042
 11
1.9016312601936249
 21
-16.297723443762045
  0
LINE
  8
_0-0_
  6
CONTINUOUS
 62
    7
 10
1.9016312601936249
 20
-16.297723443762045
 11
2.1439254840669264
 21
-16.279085426541016
  0
ARC
  8
_0-0_
  6
CONTINUOUS
 62
    7
 10
3.048261894461433
 20
-17.746829282696609
 40
0.7549542768713786
 50
171.12394031191388
 51
226.22917805306486
  0
ARC
  8
_0-0_
  6
CONTINUOUS
 62
    7
 10
4.3797438512054896
 20
-17.278511156172243
 40
2.1069778397649062
 50
164.54607793235721
 51
189.61247902564313
  0
ARC
  8
_0-0_
  6
CONTINUOUS
 62
    7
 10
6.1650776995081742
 20
-17.709553248256398
 40
3.9430805689096662
 50
157.70825019149356
 51
165.42185216266202
  0
LINE
  8
_0-0_
  6
CONTINUOUS
 62
    7
 10
2.3396246648876797
 20
-16.307042452372556
 11
2.4141767337717681
 21
-16.372275512646134
  0
LINE
  8
_0-0_
  6
CONTINUOUS
 62
    7
 10
2.2650725960035913
 20
-16.698440814014042
 11
2.3396246648876797
 21
-16.651845770961486
  0
LINE
  8
_0-0_
  6
CONTINUOUS
 62
    7
 10
-12.894836512497619
 20
11.406083045280845
 11
-11.914883154615097
 21
12.110424521258899
  0
LINE
  8
_0-0_
  6
CONTINUOUS
 62
    7
 10
-11.914883154615097
 20
12.110424521258899
 11
-11.486153560541482
 21
12.110424521258899
  0
LINE
  8
_0-0_
  6
CONTINUOUS
 62
    7
 10
-11.486153560541482
 20
12.110424521258899
 11
-10.843059169431086
 21
10.303635517663004
  0
LINE
  8
_0-0_
  6
CONTINUOUS
 62
    7
 10
-10.843059169431086
 20
10.303635517663004
 11
-11.363659390806191
 21
8.2212346321626413
  0
LINE
  8
_0-0_
  6
CONTINUOUS
 62
    7
 10
-11.363659390806191
 20
8.2212346321626413
 11
-12.435483375990174
 21
7.76188149565521
  0
LINE
  8
_0-0_
  6
CONTINUOUS
 62
    7
 10
-12.435483375990174
 20
7.76188149565521
 11
-12.80296588519613
 21
8.1293640048611522
  0
LINE
  8
_0-0_
  6
CONTINUOUS
 62
    7
 10
-12.435483375990174
 20
7.76188149565521
 11
-10.873682711864916
 21
7.6393873259198912
  0
LINE
  8
_0-0_
  6
CONTINUOUS
 62
    7
 10
-10.873682711864916
 20
7.6393873259198912
 11
-10.4449531177913
 21
7.9149992078243585
  0
LINE
  8
_0-0_
  6
CONTINUOUS
 62
    7
 10
-10.4449531177913
 20
7.9149992078243585
 11
-9.7406116418132456
 21
9.4767998719496163
  0
LINE
  8
_0-0_
  6
CONTINUOUS
 62
    7
 10
-9.7406116418132456
 20
9.4767998719496163
 11
-9.7099880993794159
 21
10.334259060096834
  0
LINE
  8
_0-0_
  6
CONTINUOUS
 62
    7
 10
-9.7099880993794159
 20
10.334259060096834
 11
-9.8631058115485644
 21
10.946729908773413
  0
LINE
  8
_0-0_
  6
CONTINUOUS
 62
    7
 10
-9.8631058115485644
 20
10.946729908773413
 11
-10.29183540562218
 21
11.742942012052957
  0
LINE
  8
_0-0_
  6
CONTINUOUS
 62
    7
 10
-10.29183540562218
 20
11.742942012052957
 11
-10.751188542129597
 21
11.98793035152358
  0
LINE
  8
_0-0_
  6
CONTINUOUS
 62
    7
 10
-10.751188542129597
 20
11.98793035152358
 11
-11.486153560541482
 21
12.110424521258899
  0
LINE
  8
_0-0_
  6
CONTINUOUS
 62
    7
 10
-10.598070829960449
 20
10.334259060096834
 11
-9.8631058115485644
 21
10.273011975229174
  0
LINE
  8
_0-0_
  6
CONTINUOUS
 62
    7
 10
-11.057423966467894
 20
8.3131052594641304
 11
-10.47557666022513
 21
8.2824817170303007
  0
LINE
  8
_0-0_
  6
CONTINUOUS
 62
    7
 10
-10.567447287526619
 20
7.76188149565521
 11
-9.9549764388500535
 21
7.7312579532213803
  0
LINE
  8
_0-0_
  6
CONTINUOUS
 62
    7
 10
-9.9549764388500535
 20
7.7312579532213803
 11
-9.7712351842470753
 21
7.7925050380890397
  0
LINE
  8
_0-0_
  6
CONTINUOUS
 62
    7
 10
-10.26121186318835
 20
11.651071384751468
 11
-9.8937293539823941
 21
11.834812639354446
  0
LINE
  8
_0-0_
  6
CONTINUOUS
 62
    7
 10
-9.8937293539823941
 20
11.773565554486787
 11
-9.4649997599087783
 21
11.773565554486787
  0
LINE
  8
_0-0_
  6
CONTINUOUS
 62
    7
 10
-1.3803845573779654
 20
15.754626070884534
 11
-0.0635722327233452
 21
15.815873155752193
  0
LINE
  8
_0-0_
  6
CONTINUOUS
 62
    7
 10
-0.0635722327233452
 20
15.815873155752193
 11
0.6713927856885675
 21
13.641601642950341
  0
LINE
  8
_0-0_
  6
CONTINUOUS
 62
    7
 10
0.6713927856885675
 20
13.641601642950341
 11
-0.4923018267969325
 21
11.252965333111696
  0
LINE
  8
_0-0_
  6
CONTINUOUS
 62
    7
 10
-0.4923018267969325
 20
11.252965333111696
 11
-1.9622318636207297
 21
11.038600536074888
  0
LINE
  8
_0-0_
  6
CONTINUOUS
 62
    7
 10
-1.9622318636207297
 20
11.038600536074888
 11
-2.5440791698634655
 21
11.497953672582319
  0
LINE
  8
_0-0_
  6
CONTINUOUS
 62
    7
 10
-1.3803845573779654
 20
15.754626070884534
 11
-2.390961457694317
 21
14.774672713002012
  0
LINE
  8
_0-0_
  6
CONTINUOUS
 62
    7
 10
-0.0635722327233452
 20
15.815873155752193
 11
1.3451107192327925
 21
15.264649391943273
  0
LINE
  8
_0-0_
  6
CONTINUOUS
 62
    7
 10
1.3451107192327925
 20
15.264649391943273
 11
1.9882051103431877
 21
13.396613303479718
  0
LINE
  8
_0-0_
  6
CONTINUOUS
 62
    7
 10
1.9882051103431877
 20
13.396613303479718
 11
1.9269580254755283
 21
12.722895369935479
  0
LINE
  8
_0-0_
  6
CONTINUOUS
 62
    7
 10
1.9269580254755283
 20
12.722895369935479
 11
0.5488986159532487
 21
10.885482823905754
  0
LINE
  8
_0-0_
  6
CONTINUOUS
 62
    7
 10
0.5488986159532487
 20
10.885482823905754
 11
0.1814161067472923
 21
10.732365111736605
  0
LINE
  8
_0-0_
  6
CONTINUOUS
 62
    7
 10
0.1814161067472923
 20
10.732365111736605
 11
-1.5641258119809436
 21
10.762988654170435
  0
LINE
  8
_0-0_
  6
CONTINUOUS
 62
    7
 10
-1.5641258119809436
 20
10.762988654170435
 11
-1.9622318636207297
 21
11.038600536074888
  0
LINE
  8
_0-0_
  6
CONTINUOUS
 62
    7
 10
0.9163811251591766
 20
13.519107473215023
 11
1.7432167708725501
 21
13.274119133744399
  0
LINE
  8
_0-0_
  6
CONTINUOUS
 62
    7
 10
-0.2779370297601531
 20
11.222341790677866
 11
0.4264044462179299
 21
10.946729908773413
  0
LINE
  8
_0-0_
  6
CONTINUOUS
 62
    7
 10
1.3757342616666222
 20
15.264649391943273
 11
2.5394288741521223
 21
14.95841396760499
  0
LINE
  8
_0-0_
  6
CONTINUOUS
 62
    7
 10
0.3039102764826111
 20
10.640494484435116
 11
1.6207226011372597
 21
10.456753229832138
  0
ARC
  8
_0-0_
  6
CONTINUOUS
 62
    7
 10
-9.3233768444699194
 20
9.8665700022965197
 40
3.8891418809124745
 50
156.68106355750893
 51
206.53094242105556
  0
ARC
  8
_0-0_
  6
CONTINUOUS
 62
    7
 10
-10.873338073927584
 20
10.393487551331383
 40
1.6577102845719687
 50
355.83230371154832
 51
56.358544603228196
  0
ARC
  8
_0-0_
  6
CONTINUOUS
 62
    7
 10
-13.088498069578904
 20
10.114287135572049
 40
3.8717415369965309
 50
335.80485027313398
 51
2.3495402871288178
  0
ARC
  8
_0-0_
  6
CONTINUOUS
 62
    7
 10
-13.936036955247104
 20
10.012711864541394
 40
4.624180258052542
 50
331.73779263332023
 51
341.26507601477402
  0
ARC
  8
_0-0_
  6
CONTINUOUS
 62
    7
 10
-9.4803115311260058
 20
7.8996874366072447
 40
1.1606686180788399
 50
188.34389158402581
 51
239.03624346793396
  0
ARC
  8
_0-0_
  6
CONTINUOUS
 62
    7
 10
-10.000024113589689
 20
8.5596469670292734
 40
1.6570354954177742
 50
267.32113498689637
 51
333.60995485202307
  0
ARC
  8
_0-0_
  6
CONTINUOUS
 62
    7
 10
-12.295248372182016
 20
9.7940094552620494
 40
4.2625795609834238
 50
332.4599765107518
 51
11.454235022238255
  0
ARC
  8
_0-0_
  6
CONTINUOUS
 62
    7
 10
-10.064942795771458
 20
10.329155136357919
 40
1.9721097285192433
 50
9.0833551472699163
 51
49.771557659108545
  0
ARC
  8
_0-0_
  6
CONTINUOUS
 62
    7
 10
-9.5370771219786548
 20
10.650577845968179
 40
1.3995080095614791
 50
57.798515690165303
 51
102.18552470695244
  0
ARC
  8
_0-0_
  6
CONTINUOUS
 62
    7
 10
-9.5765569502035532
 20
11.07141147439696
 40
0.9811098469542619
 50
105.12067441438246
 51
136.80683864976152
  0
ARC
  8
_0-0_
  6
CONTINUOUS
 62
    7
 10
-10.639782206723822
 20
10.370690515750859
 40
1.8298011289899923
 50
6.544675209685618
 51
50.05683632232595
  0
ARC
  8
_0-0_
  6
CONTINUOUS
 62
    7
 10
-11.541996490862601
 20
9.8402292652453909
 40
2.7536240449612537
 50
319.94247547581568
 51
2.6340487739854983
  0
ARC
  8
_0-0_
  6
CONTINUOUS
 62
    7
 10
0.8693521135644175
 20
13.200294522519961
 40
3.6205401903030179
 50
154.22449142725631
 51
173.4868310121762
  0
ARC
  8
_0-0_
  6
CONTINUOUS
 62
    7
 10
2.2120175960032498
 20
12.976028268564058
 40
4.9804779848498866
 50
172.67555815921656
 51
197.26392329700437
  0
ARC
  8
_0-0_
  6
CONTINUOUS
 62
    7
 10
1.7939873806970752
 20
14.828129598478604
 40
0.929268520088202
 50
63.916414628760727
 51
135.53874247404281
  0
ARC
  8
_0-0_
  6
CONTINUOUS
 62
    7
 10
1.8832101077128982
 20
14.280321242284479
 40
1.4188428392755299
 50
16.479267425399108
 51
76.992141752456845
  0
ARC
  8
_0-0_
  6
CONTINUOUS
 62
    7
 10
0.9053965936341228
 20
13.268460435685974
 40
2.7328289606258558
 50
325.28983971700899
 51
31.167220802922635
  0
ARC
  8
_0-0_
  6
CONTINUOUS
 62
    7
 10
0.9429600487810034
 20
12.332878555919713
 40
2.294451852685345
 50
287.98323546385183
 51
344.30829021249917
  0
ARC
  8
_0-0_
  6
CONTINUOUS
 62
    7
 10
1.0880890413118891
 20
11.184826088450571
 40
1.1777317977528998
 50
205.86067354698218
 51
298.57154956763384
  0
ARC
  8
_0-0_
  6
CONTINUOUS
 62
    7
 10
-1.6253728968487735
 20
14.52968437353146
 40
5.2082534580568325
 50
308.55458196374127
 51
335.69545073406329
  0
ARC
  8
_0-0_
  6
CONTINUOUS
 62
    7
 10
1.4159276611112261
 20
13.354027439782676
 40
1.960923307831862
 50
330.41986095649861
 51
39.107422424954393
  0
ARC
  8
_0-0_
  6
CONTINUOUS
 62
    7
 10
1.2685518631471098
 20
13.381301532261922
 40
2.0612396807750435
 50
35.933497260185547
 51
48.613880751996525
  0
ARC
  8
_0-0_
  6
CONTINUOUS
 62
    7
 10
-1.5353396820933369
 20
13.783082408994765
 40
4.1054177286266134
 50
309.38202497518927
 51
340.10525759888503
  0
ARC
  8
_0-0_
  6
CONTINUOUS
 62
    7
 10
0.9749261327533531
 20
13.235389359489851
 40
1.5950777138517267
 50
327.82657434586002
 51
34.183597664648453
  0
ARC
  8
_0-0_
  6
CONTINUOUS
 62
    7
 10
1.5518196306611003
 20
14.544996144748289
 40
0.4692626980464612
 50
354.38241940987336
 51
61.762554461831222
  0
LINE
  8
_0-0_
  6
CONTINUOUS
 62
    7
 10
-1.5028787271132842
 20
14.40719020379607
 11
-1.2272668452088453
 21
14.621555000832863
  0
LINE
  8
_0-0_
  6
CONTINUOUS
 62
    7
 10
-1.2272668452088453
 20
14.621555000832863
 11
-0.951654963304378
 21
14.131578321891602
  0
LINE
  8
_0-0_
  6
CONTINUOUS
 62
    7
 10
-0.951654963304378
 20
14.131578321891602
 11
-0.339184114627784
 21
14.315319576494581
  0
LINE
  8
_0-0_
  6
CONTINUOUS
 62
    7
 10
-0.339184114627784
 20
14.315319576494581
 11
-0.186066402458664
 21
14.039707694590113
  0
LINE
  8
_0-0_
  6
CONTINUOUS
 62
    7
 10
-0.186066402458664
 20
14.039707694590113
 11
-0.6760430813999107
 21
13.304742676178229
  0
LINE
  8
_0-0_
  6
CONTINUOUS
 62
    7
 10
-0.6760430813999107
 20
13.304742676178229
 11
-0.4923018267969325
 21
12.66164828506782
  0
LINE
  8
_0-0_
  6
CONTINUOUS
 62
    7
 10
-0.4923018267969325
 20
12.66164828506782
 11
-0.6760430813999107
 21
12.539154115332501
  0
LINE
  8
_0-0_
  6
CONTINUOUS
 62
    7
 10
-0.6760430813999107
 20
12.539154115332501
 11
-1.2272668452088453
 21
12.722895369935479
  0
LINE
  8
_0-0_
  6
CONTINUOUS
 62
    7
 10
-1.2272668452088453
 20
12.722895369935479
 11
-1.5641258119809436
 21
12.56977765776633
  0
LINE
  8
_0-0_
  6
CONTINUOUS
 62
    7
 10
-1.5641258119809436
 20
12.56977765776633
 11
-1.7478670665839218
 21
12.906636624538457
  0
LINE
  8
_0-0_
  6
CONTINUOUS
 62
    7
 10
-1.7478670665839218
 20
12.906636624538457
 11
-1.3497610149441357
 21
13.304742676178229
  0
LINE
  8
_0-0_
  6
CONTINUOUS
 62
    7
 10
-1.3497610149441357
 20
13.304742676178229
 11
-1.319137472510306
 21
13.82534289755332
  0
LINE
  8
_0-0_
  6
CONTINUOUS
 62
    7
 10
-1.319137472510306
 20
13.82534289755332
 11
-1.5028787271132842
 21
14.40719020379607
  0
LINE
  8
_0-0_
  6
CONTINUOUS
 62
    7
 10
-12.129247951651905
 20
11.130471163376377
 11
-11.945506697048927
 21
11.099847620942548
  0
LINE
  8
_0-0_
  6
CONTINUOUS
 62
    7
 10
-11.945506697048927
 20
11.099847620942548
 11
-11.914883154615097
 21
10.456753229832138
  0
LINE
  8
_0-0_
  6
CONTINUOUS
 62
    7
 10
-11.914883154615097
 20
10.456753229832138
 11
-11.6086477302768
 21
10.395506144964493
  0
LINE
  8
_0-0_
  6
CONTINUOUS
 62
    7
 10
-11.6086477302768
 20
10.395506144964493
 11
-11.578024187842971
 21
9.9974000933247069
  0
LINE
  8
_0-0_
  6
CONTINUOUS
 62
    7
 10
-11.578024187842971
 20
9.9974000933247069
 11
-11.945506697048927
 21
9.6299175841187648
  0
LINE
  8
_0-0_
  6
CONTINUOUS
 62
    7
 10
-11.945506697048927
 20
9.6299175841187648
 11
-11.914883154615097
 21
9.1093173627436741
  0
LINE
  8
_0-0_
  6
CONTINUOUS
 62
    7
 10
-11.914883154615097
 20
9.1093173627436741
 11
-12.129247951651905
 21
9.017446735442185
  0
LINE
  8
_0-0_
  6
CONTINUOUS
 62
    7
 10
-12.129247951651905
 20
9.017446735442185
 11
-12.129247951651905
 21
9.4767998719496163
  0
LINE
  8
_0-0_
  6
CONTINUOUS
 62
    7
 10
-12.129247951651905
 20
9.4767998719496163
 11
-12.527354003291663
 21
9.7524117538540835
  0
LINE
  8
_0-0_
  6
CONTINUOUS
 62
    7
 10
-12.527354003291663
 20
9.7524117538540835
 11
-12.527354003291663
 21
10.089270720626196
  0
LINE
  8
_0-0_
  6
CONTINUOUS
 62
    7
 10
-12.527354003291663
 20
10.089270720626196
 11
-12.221118578953394
 21
10.211764890361515
  0
LINE
  8
_0-0_
  6
CONTINUOUS
 62
    7
 10
-12.221118578953394
 20
10.211764890361515
 11
-12.129247951651905
 21
11.130471163376377
  0
LINE
  8
_0-0_
  6
CONTINUOUS
 62
    7
 10
5.8161479145717863
 20
22.461181863893053
 11
6.1836304237777426
 21
4.8220214220076443
  0
ENDBLK
  0
ENDSEC
  0
SECTION
  2
ENTITIES
  0
LINE
  8
_0-0_
  6
CONTINUOUS
 62
    7
 10
-1244.420826261083
 20
-1127.4836411798831
 11
1755.579173738917
 21
-1127.4836411798831
  0
LINE
  8
_0-0_
  6
CONTINUOUS
 62
    7
 10
1755.579173738917
 20
-1127.4836411798831
 11
1755.579173738917
 21
1392.5163588201169
  0
LINE
  8
_0-0_
  6
CONTINUOUS
 62
    7
 10
1755.579173738917
 20
1392.5163588201169
 11
-1244.420826261083
 21
1392.5163588201169
  0
LINE
  8
_0-0_
  6
CONTINUOUS
 62
    7
 10
-1244.420826261083
 20
1392.5163588201169
 11
-1244.420826261083
 21
-1127.4836411798831
  0
LINE
  8
_0-0_
  6
CONTINUOUS
 62
    7
 10
-1215.1881720287051
 20
-1099.7116744577415
 11
1784.8118279712949
 21
-1099.7116744577415
  0
LINE
  8
_0-0_
  6
CONTINUOUS
 62
    7
 10
1784.8118279712949
 20
-1099.7116744577415
 11
1784.8118279712949
 21
1420.2883255422585
  0
LINE
  8
_0-0_
  6
CONTINUOUS
 62
    7
 10
1784.8118279712949
 20
1420.2883255422585
 11
-1215.1881720287051
 21
1420.2883255422585
  0
LINE
  8
_0-0_
  6
CONTINUOUS
 62
    7
 10
-1215.1881720287051
 20
1420.2883255422585
 11
-1215.1881720287051
 21
-1099.7116744577415
  0
INSERT
  2
-003-22
  8
_0-0_
 10
131.49489795918367
 20
106.85204081632654
 41
1
 42
1
 50
0
  0
ENDSEC
  0
EOF
