  0
SECTION
  2
HEADER
  9
$ACADVER
  1
AC1009
  9
$INSBASE
 10
0
 20
0
 30
0
  9
$EXTMIN
 10
0
 20
0
  9
$EXTMAX
 10
297
 20
210
  9
$LIMMIN
 10
0
 20
0
  9
$LIMMAX
 10
297
 20
210
  9
$LTSCALE
 40
1
  0
ENDSEC
  0
SECTION
  2
TABLES
  0
TABLE
  2
LTYPE
 70
     9
  0
LTYPE
  2
CONTINUOUS
 70
    64
  3
実線
 72
    65
 73
     0
 40
0.0
  0
LTYPE
  2
DASHED1
 70
    64
  3
--  --  --  --  --  --  --  --  
 72
    65
 73
     2
 40
2.5
 49
1.25
 49
-1.25
  0
LTYPE
  2
DASHED2
 70
    64
  3
----    ----    ----    ----    
 72
    65
 73
     2
 40
5.0
 49
2.5
 49
-2.5
  0
LTYPE
  2
DASHED3
 70
    64
  3
------  ------  ------  ------  
 72
    65
 73
     2
 40
5.0
 49
3.75
 49
-1.25
  0
LTYPE
  2
CENTER1
 70
    64
  3
----- - ----- - ----- - ----- - 
 72
    65
 73
     4
 40
10.0
 49
6.25
 49
-1.25
 49
1.25
 49
-1.25
  0
LTYPE
  2
CENTER2
 70
    64
  3
----------  --  ----------  --  
 72
    65
 73
     4
 40
20.0
 49
12.5
 49
-2.5
 49
2.5
 49
-2.5
  0
LTYPE
  2
PHANTOM1
 70
    64
  3
--- - - --- - - --- - - --- - - 
 72
    65
 73
     6
 40
10.0
 49
3.25
 49
-1.25
 49
1.25
 49
-1.25
 49
1.25
 49
-1.25
  0
LTYPE
  2
PHANTOM2
 70
    64
  3
--------  -  -  --------  -  -  
 72
    65
 73
     6
 40
20.0
 49
10.0
 49
-2.5
 49
1.25
 49
-2.5
 49
1.25
 49
-2.5
  0
LTYPE
  2
DOT
 70
    64
  3
-   -   -   -   -   -   -   -   
 72
    65
 73
     2
 40
2.5
 49
0.625
 49
-1.875
  0
LTYPE
  2
DUMMY
 70
    64
  3
ダミー
 72
    65
 73
     0
 40
0.0
  0
LTYPE
  2
RAND1
 70
    64
  3
ランダム線1
 72
    65
 73
     4
 40
10.0
 49
1.0
 49
-2.0
 49
3.0
 49
-4.0
  0
LTYPE
  2
RAND2
 70
    64
  3
ランダム線2
 72
    65
 73
     4
 40
14.0
 49
2.0
 49
-3.0
 49
4.0
 49
-5.0
  0
LTYPE
  2
RAND3
 70
    64
  3
ランダム線3
 72
    65
 73
     4
 40
18.0
 49
3.0
 49
-4.0
 49
5.0
 49
-6.0
  0
LTYPE
  2
RAND4
 70
    64
  3
ランダム線4
 72
    65
 73
     4
 40
22.0
 49
4.0
 49
-5.0
 49
6.0
 49
-7.0
  0
LTYPE
  2
RAND5
 70
    64
  3
ランダム線5
 72
    65
 73
     4
 40
26.0
 49
5.0
 49
-6.0
 49
7.0
 49
-8.0
  0
LTYPE
  2
LONG1
 70
    64
  3
----------  --  ----------  --  
 72
    65
 73
     4
 40
40.0
 49
32.5
 49
-2.5
 49
2.5
 49
-2.5
  0
LTYPE
  2
LONG2
 70
    64
  3
--------  -  -  --------  -  -  
 72
    65
 73
     6
 40
40.0
 49
30.0
 49
-2.5
 49
1.25
 49
-2.5
 49
1.25
 49
-2.5
  0
LTYPE
  2
LONG3
 70
    64
  3
+++++++++++++++..+++++++++++++++
 72
    65
 73
     2
 40
40.0
 49
37.5
 49
-2.5
  0
LTYPE
  2
LONG4
 70
    64
  3
+++++++++++++++..+++++++++++++++
 72
    65
 73
     2
 40
80.0
 49
75.0
 49
-5.0
  0
LTYPE
  2
LONG5
 70
    64
  3
----------  --  ----------  --  
 72
    65
 73
     4
 40
60.0
 49
37.5
 49
-7.5
 49
7.5
 49
-7.5
  0
LTYPE
  2
dashed
 70
   64
  3
-------   -------------   ------
 72
   65
 73
    2
 40
7.5
 49
6
 49
-1.5
  0
LTYPE
  2
dashed_spaced
 70
   64
  3
----        --------        ----
 72
   65
 73
    2
 40
12
 49
6
 49
-6
  0
LTYPE
  2
long_dashed_dotted
 70
   64
  3
------------- --- --------------
 72
   65
 73
    4
 40
15.25
 49
12
 49
-1.5
 49
0.25
 49
-1.5
  0
LTYPE
  2
long_dashed_double-dotted
 70
   64
  3
----------- --- --- ------------
 72
   65
 73
    6
 40
17
 49
12
 49
-1.5
 49
0.25
 49
-1.5
 49
0.25
 49
-1.5
  0
LTYPE
  2
long_dashed_triplicate-dotted
 70
   64
  3
--------- --- --- --- ----------
 72
   65
 73
    8
 40
18.75
 49
12
 49
-1.5
 49
0.25
 49
-1.5
 49
0.25
 49
-1.5
 49
0.25
 49
-1.5
  0
LTYPE
  2
dotted
 70
   64
  3
   -       -       -       -    
 72
   65
 73
    2
 40
1.75
 49
0.25
 49
-1.5
  0
LTYPE
  2
chain
 70
   64
  3
-------------- -- --------------
 72
   65
 73
    4
 40
18.5
 49
12
 49
-1.5
 49
3.5
 49
-1.5
  0
LTYPE
  2
chain_double_dash
 70
   64
  3
------------ -- -- -------------
 72
   65
 73
    6
 40
23.5
 49
12
 49
-1.5
 49
3.5
 49
-1.5
 49
3.5
 49
-1.5
  0
LTYPE
  2
dashed_dotted
 70
   64
  3
-----------     -     ----------
 72
   65
 73
    4
 40
9.25
 49
6
 49
-1.5
 49
0.25
 49
-1.5
  0
LTYPE
  2
double-dashed_dotted
 70
   64
  3
------   -----------   -   -----
 72
   65
 73
    6
 40
16.75
 49
6
 49
-1.5
 49
6
 49
-1.5
 49
0.25
 49
-1.5
  0
LTYPE
  2
dashed_double-dotted
 70
   64
  3
---------    -    -    ---------
 72
   65
 73
    6
 40
11
 49
6
 49
-1.5
 49
0.25
 49
-1.5
 49
0.25
 49
-1.5
  0
LTYPE
  2
double-dashed_double-dotted
 70
   64
  3
-----   ---------   -   -   ----
 72
   65
 73
    8
 40
18.5
 49
6
 49
-1.5
 49
6
 49
-1.5
 49
0.25
 49
-1.5
 49
0.25
 49
-1.5
  0
LTYPE
  2
dashed_triplicate-dotted
 70
   64
  3
-------    -    -    -    ------
 72
   65
 73
    8
 40
12.75
 49
6
 49
-1.5
 49
0.25
 49
-1.5
 49
0.25
 49
-1.5
 49
0.25
 49
-1.5
  0
LTYPE
  2
double-dashed_triplicate-dotted
 70
   64
  3
-----  ---------  -  -  -  -----
 72
   65
 73
   10
 40
20.25
 49
6
 49
-1.5
 49
6
 49
-1.5
 49
0.25
 49
-1.5
 49
0.25
 49
-1.5
 49
0.25
 49
-1.5
  0
LTYPE
  2
undefined
 70
   64
  3
--------------------------------
 72
   65
 73
    0
 40
0
  0
LTYPE
  2
_
 70
   64
  3
                                
 72
   65
 73
    0
 40
0
  0
LTYPE
  2
__18
 70
   64
  3
                                
 72
   65
 73
    0
 40
0
  0
LTYPE
  2
__19
 70
   64
  3
                                
 72
   65
 73
    0
 40
0
  0
LTYPE
  2
__20
 70
   64
  3
                                
 72
   65
 73
    0
 40
0
  0
LTYPE
  2
__21
 70
   64
  3
                                
 72
   65
 73
    0
 40
0
  0
LTYPE
  2
__22
 70
   64
  3
                                
 72
   65
 73
    0
 40
0
  0
LTYPE
  2
__23
 70
   64
  3
                                
 72
   65
 73
    0
 40
0
  0
LTYPE
  2
__24
 70
   64
  3
                                
 72
   65
 73
    0
 40
0
  0
LTYPE
  2
__25
 70
   64
  3
                                
 72
   65
 73
    0
 40
0
  0
LTYPE
  2
__26
 70
   64
  3
                                
 72
   65
 73
    0
 40
0
  0
LTYPE
  2
__27
 70
   64
  3
                                
 72
   65
 73
    0
 40
0
  0
LTYPE
  2
__28
 70
   64
  3
                                
 72
   65
 73
    0
 40
0
  0
LTYPE
  2
__29
 70
   64
  3
                                
 72
   65
 73
    0
 40
0
  0
LTYPE
  2
__30
 70
   64
  3
                                
 72
   65
 73
    0
 40
0
  0
LTYPE
  2
__31
 70
   64
  3
                                
 72
   65
 73
    0
 40
0
  0
LTYPE
  2
__32
 70
   64
  3
                                
 72
   65
 73
    0
 40
0
  0
ENDTAB
  0
TABLE
  2
STYLE
  5
3
100
AcDbSymbolTable
 70
     1
  0
STYLE
  5
10
100
AcDbSymbolTableRecord
100
AcDbTextStyleTableRecord
  2
STANDARD
 70
     0
 40
0.0
 41
1.0
 50
0.0
 71
     0
 42
0.2
  3
txt
  4
bigfont.shx
  0
STYLE
  5
26
100
AcDbSymbolTableRecord
100
AcDbTextStyleTableRecord
  2
TATEGAKI
 70
    68
 40
0.0
 41
1.0
 50
0.0
 71
     0
 42
1.0
  3
txt
  4
bigfont.shx
  0
ENDTAB
  0
TABLE
  2
LAYER
 70
    2
  0
LAYER
  2
_0-0_
 70
   64
 62
    7
  6
CONTINUOUS
  0
LAYER
  2
ADD_LINE
 70
   64
 62
    7
  6
CONTINUOUS
  0
ENDTAB
  0
ENDSEC
  0
SECTION
  2
BLOCKS
  0
BLOCK
  2
-000-11
 70
   64
 10
0
 20
0
 30
0
  0
LINE
  8
_0-0_
  6
CONTINUOUS
 62
    7
 10
-16.30471599303813
 20
7.612633401205656
 11
15.792509950504495
 21
7.5339637297754081
  0
LINE
  8
_0-0_
  6
CONTINUOUS
 62
    7
 10
16.028518964795239
 20
7.1799502083392781
 11
15.949849293364991
 21
1.8697473867973002
  0
LINE
  8
_0-0_
  6
CONTINUOUS
 62
    7
 10
15.556500936213737
 20
1.3977293582157841
 11
7.9255428074793315
 21
1.2797248510704122
  0
LINE
  8
_0-0_
  6
CONTINUOUS
 62
    7
 10
-6.8250205856928261
 20
1.3583945225006602
 11
-15.990037307317138
 21
1.4370641939309081
  0
LINE
  8
_0-0_
  6
CONTINUOUS
 62
    7
 10
-16.265381157323006
 20
1.6730732082216662
 11
-16.30471599303813
 21
7.612633401205656
  0
LINE
  8
_0-0_
  6
CONTINUOUS
 62
    7
 10
-15.75402829302638
 20
8.0846514297871721
 11
15.084482907632221
 21
8.1239862655022961
  0
LINE
  8
_0-0_
  6
CONTINUOUS
 62
    7
 10
16.539871829091879
 20
6.9046063583333961
 11
16.500536993376755
 21
1.5944035367914182
  0
LINE
  8
_0-0_
  6
CONTINUOUS
 62
    7
 10
15.517166100498613
 20
0.729037151058648
 11
8.6729046860667296
 21
0.8077068224888961
  0
LINE
  8
_0-0_
  6
CONTINUOUS
 62
    7
 10
-8.9097668785944961
 20
0.8077068224888961
 11
-15.911367635886876
 21
0.768371986773772
  0
LINE
  8
_0-0_
  6
CONTINUOUS
 62
    7
 10
-16.776734021619646
 20
1.5944035367914182
 11
-16.737399185904522
 21
7.4552940583451601
  0
ARC
  8
_0-0_
  6
CONTINUOUS
 62
    7
 10
-15.916567068194027
 20
7.2556810702045738
 40
0.8447548227145628
 50
78.906572012720162
 51
166.33191412966593
  0
ARC
  8
_0-0_
  6
CONTINUOUS
 62
    7
 10
-15.533316159291445
 20
2.0307288440759237
 40
1.3177510212987018
 50
199.33638145978441
 51
253.32805824795463
  0
ARC
  8
_0-0_
  6
CONTINUOUS
 62
    7
 10
-16.068706978747386
 20
1.623904663577747
 40
0.2027271030247203
 50
165.96375653206962
 51
292.83365417791759
  0
ARC
  8
_0-0_
  6
CONTINUOUS
 62
    7
 10
15.699792123461677
 20
7.2164754129318851
 40
0.330749794835422
 50
353.65980825409201
 51
73.720326797866164
  0
ARC
  8
_0-0_
  6
CONTINUOUS
 62
    7
 10
15.382303806618111
 20
1.9427977959825853
 40
0.5722274388815138
 50
287.72323661689114
 51
352.66562119857906
  0
ARC
  8
_0-0_
  6
CONTINUOUS
 62
    7
 10
15.150818774643284
 20
2.1367575851686667
 40
1.4546089453087538
 50
284.58717806634615
 51
338.10837637304144
  0
ARC
  8
_0-0_
  6
CONTINUOUS
 62
    7
 10
15.053835093938957
 20
6.6091781134128524
 40
1.5151181558283819
 50
11.243960355418851
 51
88.840941782923466
  0
LINE
  8
_0-0_
  6
CONTINUOUS
 62
    7
 10
-16.422720500183516
 20
1.0043810010645302
 11
-14.770657400148238
 21
-1.3950439775581458
  0
LINE
  8
_0-0_
  6
CONTINUOUS
 62
    7
 10
-14.770657400148238
 20
-1.3950439775581458
 11
-10.443825471484402
 21
-1.3163743061278836
  0
LINE
  8
_0-0_
  6
CONTINUOUS
 62
    7
 10
9.8136149218053674
 20
-1.4343788132732698
 11
13.314415300451572
 21
-1.3557091418430218
  0
LINE
  8
_0-0_
  6
CONTINUOUS
 62
    7
 10
16.185858307655749
 20
1.1223855082099021
 11
14.179781686184327
 21
-1.1590349632673878
  0
ARC
  8
_0-0_
  6
CONTINUOUS
 62
    7
 10
10.846154359324771
 20
11.50678213701427
 40
13.097175037853464
 50
280.86277967437456
 51
284.74575245619985
  0
LINE
  8
_0-0_
  6
CONTINUOUS
 62
    7
 10
-15.24267542872974
 20
4.5445162154258441
 11
-15.046001250154106
 21
1.4370641939309081
  0
LINE
  8
_0-0_
  6
CONTINUOUS
 62
    7
 10
14.337121029044837
 20
4.7821049419943193
 11
14.337121029044837
 21
1.4370641939309081
  0
LINE
  8
_0-0_
  6
CONTINUOUS
 62
    7
 10
-10.404490635769278
 20
-0.6476820989707475
 11
-10.483160307199512
 21
-61.616677457415683
  0
LINE
  8
_0-0_
  6
CONTINUOUS
 62
    7
 10
9.7349452503751337
 20
-61.774016800276186
 11
9.6562755789448858
 21
-0.3330034132497417
  0
ARC
  8
_0-0_
  6
CONTINUOUS
 62
    7
 10
-5.4164875582385577
 20
-5.3513573720942276
 40
6.8559999836966981
 50
101.85556818426869
 51
136.68042224551652
  0
LINE
  8
_0-0_
  6
CONTINUOUS
 62
    7
 10
-8.9097668785944961
 20
0.8077068224888961
 11
-8.4916985397623819
 21
0.8114649278119968
  0
ARC
  8
_0-0_
  6
CONTINUOUS
 62
    7
 10
-0.7636393176594822
 20
-25.043039107205971
 40
27.088300806441694
 50
86.621805627470664
 51
102.93019612104402
  0
ARC
  8
_0-0_
  6
CONTINUOUS
 62
    7
 10
1.7072803885999122
 20
-20.879264943854679
 40
22.894171694928527
 50
76.611727508248734
 51
92.189593818710051
  0
ARC
  8
_0-0_
  6
CONTINUOUS
 62
    7
 10
6.6010149487135692
 20
-2.1266122132432059
 40
3.5428307955722946
 50
30.415316317493236
 51
83.397065374507264
  0
LINE
  8
_0-0_
  6
CONTINUOUS
 62
    7
 10
-12.996020948459602
 20
6.0720930646594127
 11
-12.996020948459602
 21
4.9586973291801542
  0
LINE
  8
_0-0_
  6
CONTINUOUS
 62
    7
 10
-12.996020948459602
 20
4.9586973291801542
 11
-12.934165629821862
 21
4.8040590325858119
  0
LINE
  8
_0-0_
  6
CONTINUOUS
 62
    7
 10
-12.934165629821862
 20
4.8040590325858119
 11
-11.542420960472796
 21
5.0050888181584554
  0
LINE
  8
_0-0_
  6
CONTINUOUS
 62
    7
 10
-11.542420960472796
 20
5.0050888181584554
 11
-9.8568635275944843
 21
4.8349866919046747
  0
LINE
  8
_0-0_
  6
CONTINUOUS
 62
    7
 10
-9.8568635275944843
 20
4.8349866919046747
 11
-9.733152890319019
 21
4.3556079724622236
  0
LINE
  8
_0-0_
  6
CONTINUOUS
 62
    7
 10
-9.733152890319019
 20
4.3556079724622236
 11
-10.166140120783169
 21
4.1391143572301416
  0
LINE
  8
_0-0_
  6
CONTINUOUS
 62
    7
 10
-10.166140120783169
 20
4.1391143572301416
 11
-10.429025224993552
 21
4.1236505275707174
  0
LINE
  8
_0-0_
  6
CONTINUOUS
 62
    7
 10
-12.037263509574686
 20
4.1391143572301416
 11
-12.34654010276337
 21
4.1081866979112789
  0
LINE
  8
_0-0_
  6
CONTINUOUS
 62
    7
 10
-12.34654010276337
 20
4.1081866979112789
 11
-13.011484778119041
 21
4.7267398842886479
  0
LINE
  8
_0-0_
  6
CONTINUOUS
 62
    7
 10
-13.011484778119041
 20
4.7267398842886479
 11
-12.934165629821862
 21
4.8040590325858119
  0
LINE
  8
_0-0_
  6
CONTINUOUS
 62
    7
 10
-12.052727339234124
 20
4.6494207359914697
 11
-12.021799679915247
 21
3.1339654293669383
  0
LINE
  8
_0-0_
  6
CONTINUOUS
 62
    7
 10
-10.429025224993552
 20
4.5875654173537299
 11
-10.413561395334114
 21
3.0721101107291986
  0
LINE
  8
_0-0_
  6
CONTINUOUS
 62
    7
 10
-11.542420960472796
 20
5.0050888181584554
 11
-11.496029471494495
 21
6.2421951909131792
  0
LINE
  8
_0-0_
  6
CONTINUOUS
 62
    7
 10
-9.8568635275944843
 20
4.8349866919046747
 11
-9.8259358682756215
 21
6.1803398722754395
  0
LINE
  8
_0-0_
  6
CONTINUOUS
 62
    7
 10
-9.733152890319019
 20
4.3556079724622236
 11
-9.702225231000142
 21
5.5308590265792077
  0
LINE
  8
_0-0_
  6
CONTINUOUS
 62
    7
 10
-12.934165629821862
 20
6.0411654053405357
 11
-11.604276279110536
 21
6.2731228502320562
  0
LINE
  8
_0-0_
  6
CONTINUOUS
 62
    7
 10
-11.264072026602989
 20
6.3349781688697817
 11
-9.9032550165727855
 21
6.1803398722754395
  0
LINE
  8
_0-0_
  6
CONTINUOUS
 62
    7
 10
-9.733152890319019
 20
5.9947739163622344
 11
-9.702225231000142
 21
5.5927143452169474
  0
ARC
  8
_0-0_
  6
CONTINUOUS
 62
    7
 10
-11.379542144071863
 20
2.7312015890283874
 40
2.0329149029808065
 50
90.758327045393472
 51
109.33815532836246
  0
ARC
  8
_0-0_
  6
CONTINUOUS
 62
    7
 10
-11.183468258602986
 20
1.9517456902767947
 40
2.8210189367720466
 50
79.062449348016017
 51
94.533509485337945
  0
ARC
  8
_0-0_
  6
CONTINUOUS
 62
    7
 10
-10.836648542136032
 20
3.9428893954244018
 40
0.8011077941298585
 50
55.055776061069359
 51
76.39534167005138
  0
ARC
  8
_0-0_
  6
CONTINUOUS
 62
    7
 10
-10.512470807716298
 20
4.6016864218898661
 40
0.1346964777321555
 50
310.20986927763505
 51
359.09777883847192
  0
ARC
  8
_0-0_
  6
CONTINUOUS
 62
    7
 10
-12.040301455819346
 20
4.5783560665692846
 40
0.0721428431566373
 50
99.918083089082501
 51
188.45287833023076
  0
ARC
  8
_0-0_
  6
CONTINUOUS
 62
    7
 10
-12.050683552830122
 20
4.5704025363463501
 40
0.0610346721077345
 50
182.48955292198059
 51
272.48955292202061
  0
ARC
  8
_0-0_
  6
CONTINUOUS
 62
    7
 10
-11.39902874418101
 20
2.2063770592555585
 40
1.1172572768888918
 50
93.373505863405214
 51
123.87690495743057
  0
ARC
  8
_0-0_
  6
CONTINUOUS
 62
    7
 10
-11.202027526944789
 20
1.9694999617184692
 40
1.3774889347533188
 50
71.960962442805382
 51
100.99613080335021
  0
ARC
  8
_0-0_
  6
CONTINUOUS
 62
    7
 10
-11.157272044832169
 20
2.1926081356411089
 40
1.1517939287740138
 50
49.781995889966389
 51
70.640955846330499
  0
ARC
  8
_0-0_
  6
CONTINUOUS
 62
    7
 10
-10.832347162608187
 20
3.4266122969622757
 40
0.548683259189999
 50
294.99697228698653
 51
319.75208299298208
  0
ARC
  8
_0-0_
  6
CONTINUOUS
 62
    7
 10
-11.178348213318145
 20
4.4745674067468855
 40
1.649756658273164
 50
266.12649255486122
 51
290.50375895872185
  0
ARC
  8
_0-0_
  6
CONTINUOUS
 62
    7
 10
-11.276862384879863
 20
4.4921032557054161
 40
1.6635741144137723
 50
248.4112268171485
 51
269.55454994527275
  0
ARC
  8
_0-0_
  6
CONTINUOUS
 62
    7
 10
-11.682821137441152
 20
3.2314355030829347
 40
0.3527135771813483
 50
196.04208880820823
 51
234.23641920981845
  0
ARC
  8
_0-0_
  6
CONTINUOUS
 62
    7
 10
-11.213321678466642
 20
1.7108761015934704
 40
1.779455456822185
 50
70.218545158026785
 51
113.05460892520641
  0
ARC
  8
_0-0_
  6
CONTINUOUS
 62
    7
 10
-11.15092102984876
 20
1.7786634058969355
 40
2.0013464177599718
 50
74.666744517017918
 51
109.85425930526542
  0
ARC
  8
_0-0_
  6
CONTINUOUS
 62
    7
 10
-11.303955398402849
 20
1.5244345484395296
 40
2.5134984063419079
 50
76.001107433674377
 51
101.23151863158793
  0
ARC
  8
_0-0_
  6
CONTINUOUS
 62
    7
 10
-11.538920612359078
 20
1.0022810340587114
 40
3.3142614194617579
 50
74.885357034182462
 51
94.129993851562915
  0
ARC
  8
_0-0_
  6
CONTINUOUS
 62
    7
 10
-11.38564696258959
 20
-0.1305893139195291
 40
4.678438348509256
 50
81.25961212615843
 51
94.089479032291408
  0
LINE
  8
_0-0_
  6
CONTINUOUS
 62
    7
 10
-15.24267542872974
 20
4.5445162154258441
 11
-12.836371655825431
 21
4.5638439565736633
  0
LINE
  8
_0-0_
  6
CONTINUOUS
 62
    7
 10
9.6231327142643579
 20
6.1649771979466976
 11
9.6231327142643579
 21
5.0515814624674391
  0
LINE
  8
_0-0_
  6
CONTINUOUS
 62
    7
 10
9.6231327142643579
 20
5.0515814624674391
 11
9.6849880329020976
 21
4.8969431658730969
  0
LINE
  8
_0-0_
  6
CONTINUOUS
 62
    7
 10
9.6849880329020976
 20
4.8969431658730969
 11
11.076732702251164
 21
5.0979729514457404
  0
LINE
  8
_0-0_
  6
CONTINUOUS
 62
    7
 10
11.076732702251164
 20
5.0979729514457404
 11
12.762290135129476
 21
4.9278708251919596
  0
LINE
  8
_0-0_
  6
CONTINUOUS
 62
    7
 10
12.762290135129476
 20
4.9278708251919596
 11
12.886000772404941
 21
4.4484921057495086
  0
LINE
  8
_0-0_
  6
CONTINUOUS
 62
    7
 10
12.886000772404941
 20
4.4484921057495086
 11
12.453013541940791
 21
4.2319984905174266
  0
LINE
  8
_0-0_
  6
CONTINUOUS
 62
    7
 10
12.453013541940791
 20
4.2319984905174266
 11
12.190128437730408
 21
4.2165346608580023
  0
LINE
  8
_0-0_
  6
CONTINUOUS
 62
    7
 10
10.581890153149274
 20
4.2319984905174266
 11
10.27261355996059
 21
4.2010708311985638
  0
LINE
  8
_0-0_
  6
CONTINUOUS
 62
    7
 10
10.27261355996059
 20
4.2010708311985638
 11
9.6076688846049194
 21
4.8196240175759328
  0
LINE
  8
_0-0_
  6
CONTINUOUS
 62
    7
 10
9.6076688846049194
 20
4.8196240175759328
 11
9.6849880329020976
 21
4.8969431658730969
  0
LINE
  8
_0-0_
  6
CONTINUOUS
 62
    7
 10
10.566426323489836
 20
4.7423048692787546
 11
10.597353982808713
 21
3.2268495626542233
  0
LINE
  8
_0-0_
  6
CONTINUOUS
 62
    7
 10
12.190128437730408
 20
4.6804495506410149
 11
12.205592267389846
 21
3.1649942440164835
  0
LINE
  8
_0-0_
  6
CONTINUOUS
 62
    7
 10
11.076732702251164
 20
5.0979729514457404
 11
11.123124191229465
 21
6.3350793242004642
  0
LINE
  8
_0-0_
  6
CONTINUOUS
 62
    7
 10
12.762290135129476
 20
4.9278708251919596
 11
12.793217794448339
 21
6.2732240055627244
  0
LINE
  8
_0-0_
  6
CONTINUOUS
 62
    7
 10
12.886000772404941
 20
4.4484921057495086
 11
12.916928431723818
 21
5.6237431598664926
  0
LINE
  8
_0-0_
  6
CONTINUOUS
 62
    7
 10
9.6849880329020976
 20
6.1340495386278207
 11
11.014877383613424
 21
6.3660069835193411
  0
LINE
  8
_0-0_
  6
CONTINUOUS
 62
    7
 10
11.355081636120971
 20
6.4278623021570667
 11
12.715898646151174
 21
6.2732240055627244
  0
LINE
  8
_0-0_
  6
CONTINUOUS
 62
    7
 10
12.886000772404941
 20
6.0876580496495194
 11
12.916928431723818
 21
5.6855984785042324
  0
ARC
  8
_0-0_
  6
CONTINUOUS
 62
    7
 10
11.239611518652097
 20
2.8240857223156723
 40
2.0329149029808065
 50
90.758327045393472
 51
109.33815532836246
  0
ARC
  8
_0-0_
  6
CONTINUOUS
 62
    7
 10
11.435685404120974
 20
2.0446298235640796
 40
2.8210189367720466
 50
79.062449348016017
 51
94.533509485337945
  0
ARC
  8
_0-0_
  6
CONTINUOUS
 62
    7
 10
11.782505120587928
 20
4.0357735287116867
 40
0.8011077941298585
 50
55.055776061069359
 51
76.39534167005138
  0
ARC
  8
_0-0_
  6
CONTINUOUS
 62
    7
 10
12.106682855007662
 20
4.694570555177151
 40
0.1346964777321555
 50
310.20986927763505
 51
359.09777883847192
  0
ARC
  8
_0-0_
  6
CONTINUOUS
 62
    7
 10
10.578852206904614
 20
4.6712401998565696
 40
0.0721428431566373
 50
99.918083089082501
 51
188.45287833023076
  0
ARC
  8
_0-0_
  6
CONTINUOUS
 62
    7
 10
10.568470109893838
 20
4.663286669633635
 40
0.0610346721077345
 50
182.48955292198059
 51
272.48955292202061
  0
ARC
  8
_0-0_
  6
CONTINUOUS
 62
    7
 10
11.22012491854295
 20
2.2992611925428434
 40
1.1172572768888918
 50
93.373505863405214
 51
123.87690495743057
  0
ARC
  8
_0-0_
  6
CONTINUOUS
 62
    7
 10
11.417126135779171
 20
2.0623840950057541
 40
1.3774889347533188
 50
71.960962442805382
 51
100.99613080335021
  0
ARC
  8
_0-0_
  6
CONTINUOUS
 62
    7
 10
11.461881617891791
 20
2.2854922689283939
 40
1.1517939287740138
 50
49.781995889966389
 51
70.640955846330499
  0
ARC
  8
_0-0_
  6
CONTINUOUS
 62
    7
 10
11.786806500115773
 20
3.5194964302495606
 40
0.548683259189999
 50
294.99697228698653
 51
319.75208299298208
  0
ARC
  8
_0-0_
  6
CONTINUOUS
 62
    7
 10
11.440805449405815
 20
4.5674515400341704
 40
1.649756658273164
 50
266.12649255486122
 51
290.50375895872185
  0
ARC
  8
_0-0_
  6
CONTINUOUS
 62
    7
 10
11.342291277844097
 20
4.5849873889927011
 40
1.6635741144137723
 50
248.4112268171485
 51
269.55454994527275
  0
ARC
  8
_0-0_
  6
CONTINUOUS
 62
    7
 10
10.936332525282808
 20
3.3243196363702197
 40
0.3527135771813483
 50
196.04208880820823
 51
234.23641920981845
  0
ARC
  8
_0-0_
  6
CONTINUOUS
 62
    7
 10
11.405831984257318
 20
1.8037602348807553
 40
1.779455456822185
 50
70.218545158026785
 51
113.05460892520641
  0
ARC
  8
_0-0_
  6
CONTINUOUS
 62
    7
 10
11.4682326328752
 20
1.8715475391842205
 40
2.0013464177599718
 50
74.666744517017918
 51
109.85425930526542
  0
ARC
  8
_0-0_
  6
CONTINUOUS
 62
    7
 10
11.315198264321111
 20
1.6173186817268146
 40
2.5134984063419079
 50
76.001107433674377
 51
101.23151863158793
  0
ARC
  8
_0-0_
  6
CONTINUOUS
 62
    7
 10
11.080233050364882
 20
1.0951651673459963
 40
3.3142614194617579
 50
74.885357034182462
 51
94.129993851562915
  0
ARC
  8
_0-0_
  6
CONTINUOUS
 62
    7
 10
11.23350670013437
 20
-0.0377051806322441
 40
4.678438348509256
 50
81.25961212615843
 51
94.089479032291408
  0
LINE
  8
_0-0_
  6
CONTINUOUS
 62
    7
 10
-9.7270157658396528
 20
4.588818702677969
 11
9.6881436632903899
 21
4.7447637583336473
  0
LINE
  8
_0-0_
  6
CONTINUOUS
 62
    7
 10
12.894475122903003
 20
4.7705174246759157
 11
14.337121029044837
 21
4.7821049419943193
  0
ARC
  8
_0-0_
  6
CONTINUOUS
 62
    7
 10
-0.6065745183990003
 20
5.3742078323012947
 40
1.1304850537597566
 50
88.246670982746494
 51
137.31814047821649
  0
ARC
  8
_0-0_
  6
CONTINUOUS
 62
    7
 10
-0.0265703389919876
 20
3.5080072055026648
 40
3.0453950370449987
 50
76.522601253823524
 51
100.31705380057747
  0
ARC
  8
_0-0_
  6
CONTINUOUS
 62
    7
 10
0.2604731774267463
 20
4.9532223389263237
 40
1.574136786460157
 50
47.079866531258638
 51
74.42248079564709
  0
ARC
  8
_0-0_
  6
CONTINUOUS
 62
    7
 10
1.0116782200371119
 20
6.0839590563829518
 40
0.3215020990337945
 50
287.31388440805779
 51
3.9254261442573011
  0
ARC
  8
_0-0_
  6
CONTINUOUS
 62
    7
 10
0.3103506242735675
 20
7.3889730283312929
 40
1.7982214483175172
 50
276.93197035352728
 51
296.30954347425666
  0
ARC
  8
_0-0_
  6
CONTINUOUS
 62
    7
 10
-0.1908506597902714
 20
9.0431149225776437
 40
3.513414158417322
 50
256.89459269009888
 51
281.79584650536549
  0
ARC
  8
_0-0_
  6
CONTINUOUS
 62
    7
 10
0.0311964000161565
 20
8.2980994761747127
 40
2.8641702180492339
 50
238.54062686431365
 51
249.16569066452539
  0
ARC
  8
_0-0_
  6
CONTINUOUS
 62
    7
 10
-1.1649500556010111
 20
5.9717940013936186
 40
0.3206965703599341
 50
148.24051991517132
 51
201.37062226935222
  0
LINE
  8
_0-0_
  6
CONTINUOUS
 62
    7
 10
-13.174275878064009
 20
8.106519582907012
 11
-13.223678101566136
 21
9.1933684999539338
  0
LINE
  8
_0-0_
  6
CONTINUOUS
 62
    7
 10
-13.223678101566136
 20
9.1933684999539338
 11
-12.260334743274555
 21
9.8026625898135649
  0
LINE
  8
_0-0_
  6
CONTINUOUS
 62
    7
 10
-12.260334743274555
 20
9.8026625898135649
 11
-10.597126552036073
 21
9.6956244388922812
  0
LINE
  8
_0-0_
  6
CONTINUOUS
 62
    7
 10
-10.597126552036073
 20
9.6956244388922812
 11
-10.234843579687094
 21
9.4650807292156571
  0
LINE
  8
_0-0_
  6
CONTINUOUS
 62
    7
 10
-10.234843579687094
 20
9.4650807292156571
 11
-10.22660987577008
 21
8.1229869907410546
  0
LINE
  8
_0-0_
  6
CONTINUOUS
 62
    7
 10
-13.174275878064009
 20
8.106519582907012
 11
-12.219166223689442
 21
8.4358677395878914
  0
LINE
  8
_0-0_
  6
CONTINUOUS
 62
    7
 10
-12.219166223689442
 20
8.4358677395878914
 11
-10.457153585446704
 21
8.3288295886666077
  0
LINE
  8
_0-0_
  6
CONTINUOUS
 62
    7
 10
-10.457153585446704
 20
8.3288295886666077
 11
-10.243077283604123
 21
8.2547262534134092
  0
LINE
  8
_0-0_
  6
CONTINUOUS
 62
    7
 10
-12.260334743274555
 20
9.8026625898135649
 11
-12.219166223689442
 21
8.4358677395878914
  0
LINE
  8
_0-0_
  6
CONTINUOUS
 62
    7
 10
-10.597126552036073
 20
9.6956244388922812
 11
-10.457153585446704
 21
8.3288295886666077
  0
LINE
  8
_0-0_
  6
CONTINUOUS
 62
    7
 10
-12.136829184519215
 20
9.8191299976476216
 11
-12.087426961017087
 21
9.9920377799050755
  0
LINE
  8
_0-0_
  6
CONTINUOUS
 62
    7
 10
-12.087426961017087
 20
9.9920377799050755
 11
-11.025279155721222
 21
9.9673366681540188
  0
LINE
  8
_0-0_
  6
CONTINUOUS
 62
    7
 10
-11.025279155721222
 20
9.9673366681540188
 11
-10.860605077380782
 21
9.7120918467263238
  0
LINE
  8
_0-0_
  6
CONTINUOUS
 62
    7
 10
9.6473104085711299
 20
8.1159131054796489
 11
9.5979081850690022
 21
9.2027620225265707
  0
LINE
  8
_0-0_
  6
CONTINUOUS
 62
    7
 10
9.5979081850690022
 20
9.2027620225265707
 11
10.561251543360584
 21
9.8120561123862018
  0
LINE
  8
_0-0_
  6
CONTINUOUS
 62
    7
 10
10.561251543360584
 20
9.8120561123862018
 11
12.224459734599066
 21
9.7050179614649181
  0
LINE
  8
_0-0_
  6
CONTINUOUS
 62
    7
 10
12.224459734599066
 20
9.7050179614649181
 11
12.586742706948044
 21
9.4744742517882941
  0
LINE
  8
_0-0_
  6
CONTINUOUS
 62
    7
 10
12.586742706948044
 20
9.4744742517882941
 11
12.594976410865058
 21
8.1323805133136915
  0
LINE
  8
_0-0_
  6
CONTINUOUS
 62
    7
 10
9.6473104085711299
 20
8.1159131054796489
 11
10.602420062945697
 21
8.4452612621605283
  0
LINE
  8
_0-0_
  6
CONTINUOUS
 62
    7
 10
10.602420062945697
 20
8.4452612621605283
 11
12.364432701188434
 21
8.3382231112392446
  0
LINE
  8
_0-0_
  6
CONTINUOUS
 62
    7
 10
12.364432701188434
 20
8.3382231112392446
 11
12.578509003031016
 21
8.2641197759860461
  0
LINE
  8
_0-0_
  6
CONTINUOUS
 62
    7
 10
10.561251543360584
 20
9.8120561123862018
 11
10.602420062945697
 21
8.4452612621605283
  0
LINE
  8
_0-0_
  6
CONTINUOUS
 62
    7
 10
12.224459734599066
 20
9.7050179614649181
 11
12.364432701188434
 21
8.3382231112392446
  0
LINE
  8
_0-0_
  6
CONTINUOUS
 62
    7
 10
10.684757102115924
 20
9.8285235202202585
 11
10.734159325618052
 21
10.001431302477712
  0
LINE
  8
_0-0_
  6
CONTINUOUS
 62
    7
 10
10.734159325618052
 20
10.001431302477712
 11
11.796307130913917
 21
9.9767301907266557
  0
LINE
  8
_0-0_
  6
CONTINUOUS
 62
    7
 10
11.796307130913917
 20
9.9767301907266557
 11
11.960981209254356
 21
9.7214853692989607
  0
ARC
  8
_0-0_
  6
CONTINUOUS
 62
    7
 10
-9.0548065398072879
 20
-61.790094178978606
 40
1.4388425362565471
 50
173.07758820037751
 51
247.26643302518156
  0
ARC
  8
_0-0_
  6
CONTINUOUS
 62
    7
 10
-1.358557344879344
 20
-48.016042545235351
 40
17.208829783650128
 50
241.34477909346123
 51
265.95306452252373
  0
ARC
  8
_0-0_
  6
CONTINUOUS
 62
    7
 10
-2.1368200176080308
 20
-64.154406494147821
 40
1.1163185404104037
 50
246.99740340664277
 51
272.98663699047563
  0
ARC
  8
_0-0_
  6
CONTINUOUS
 62
    7
 10
0.1316608630009311
 20
-48.351954474101646
 40
17.061037333242197
 50
262.55620781612345
 51
288.07288352376611
  0
ARC
  8
_0-0_
  6
CONTINUOUS
 62
    7
 10
0.058671676686103
 20
-48.806518225566926
 40
16.652873002851575
 50
288.79682389728799
 51
300.95148393096741
  0
ARC
  8
_0-0_
  6
CONTINUOUS
 62
    7
 10
5.8067097766785594
 20
-59.57841623987418
 40
4.5001884135717845
 50
308.74937873000579
 51
330.79795548155266
  0
LINE
  8
_0-0_
  6
CONTINUOUS
 62
    7
 10
-2.0495746233176533
 20
-64.803899984976212
 11
-1.264366074704256
 21
1.7934176566785709
  0
LINE
  8
_0-0_
  6
CONTINUOUS
 62
    7
 10
-2.020492825220856
 20
1.0372909061619708
 11
-2.7184559795438759
 21
-52.124236014774681
  0
LINE
  8
_0-0_
  6
CONTINUOUS
 62
    7
 10
-2.6021287871567012
 20
-53.810980304388643
 11
-2.6021287871567012
 21
-63.117155695362243
  0
CIRCLE
  8
_0-0_
  6
CONTINUOUS
 62
    7
 10
0.5880902308950054
 20
-45.154100584934419
 40
1.0783284998743976
  0
CIRCLE
  8
_0-0_
  6
CONTINUOUS
 62
    7
 10
0.5118885026405165
 20
-58.984714263123713
 40
1.1587925434259014
  0
ENDBLK
  0
ENDSEC
  0
SECTION
  2
ENTITIES
  0
LINE
  8
_0-0_
  6
CONTINUOUS
 62
    7
 10
-1244.420826261083
 20
-1127.4836411798831
 11
1755.579173738917
 21
-1127.4836411798831
  0
LINE
  8
_0-0_
  6
CONTINUOUS
 62
    7
 10
1755.579173738917
 20
-1127.4836411798831
 11
1755.579173738917
 21
1392.5163588201169
  0
LINE
  8
_0-0_
  6
CONTINUOUS
 62
    7
 10
1755.579173738917
 20
1392.5163588201169
 11
-1244.420826261083
 21
1392.5163588201169
  0
LINE
  8
_0-0_
  6
CONTINUOUS
 62
    7
 10
-1244.420826261083
 20
1392.5163588201169
 11
-1244.420826261083
 21
-1127.4836411798831
  0
LINE
  8
_0-0_
  6
CONTINUOUS
 62
    7
 10
-1215.1881720287051
 20
-1099.7116744577415
 11
1784.8118279712949
 21
-1099.7116744577415
  0
LINE
  8
_0-0_
  6
CONTINUOUS
 62
    7
 10
1784.8118279712949
 20
-1099.7116744577415
 11
1784.8118279712949
 21
1420.2883255422585
  0
LINE
  8
_0-0_
  6
CONTINUOUS
 62
    7
 10
1784.8118279712949
 20
1420.2883255422585
 11
-1215.1881720287051
 21
1420.2883255422585
  0
LINE
  8
_0-0_
  6
CONTINUOUS
 62
    7
 10
-1215.1881720287051
 20
1420.2883255422585
 11
-1215.1881720287051
 21
-1099.7116744577415
  0
INSERT
  2
-000-11
  8
_0-0_
 10
143.44897959183675
 20
127.39285714285714
 41
1
 42
1
 50
0
  0
ENDSEC
  0
EOF
