  0
SECTION
  2
HEADER
  9
$ACADVER
  1
AC1009
  9
$INSBASE
 10
0
 20
0
 30
0
  9
$EXTMIN
 10
0
 20
0
  9
$EXTMAX
 10
297
 20
210
  9
$LIMMIN
 10
0
 20
0
  9
$LIMMAX
 10
297
 20
210
  9
$LTSCALE
 40
1
  0
ENDSEC
  0
SECTION
  2
TABLES
  0
TABLE
  2
LTYPE
 70
     9
  0
LTYPE
  2
CONTINUOUS
 70
    64
  3
実線
 72
    65
 73
     0
 40
0.0
  0
LTYPE
  2
DASHED1
 70
    64
  3
--  --  --  --  --  --  --  --  
 72
    65
 73
     2
 40
2.5
 49
1.25
 49
-1.25
  0
LTYPE
  2
DASHED2
 70
    64
  3
----    ----    ----    ----    
 72
    65
 73
     2
 40
5.0
 49
2.5
 49
-2.5
  0
LTYPE
  2
DASHED3
 70
    64
  3
------  ------  ------  ------  
 72
    65
 73
     2
 40
5.0
 49
3.75
 49
-1.25
  0
LTYPE
  2
CENTER1
 70
    64
  3
----- - ----- - ----- - ----- - 
 72
    65
 73
     4
 40
10.0
 49
6.25
 49
-1.25
 49
1.25
 49
-1.25
  0
LTYPE
  2
CENTER2
 70
    64
  3
----------  --  ----------  --  
 72
    65
 73
     4
 40
20.0
 49
12.5
 49
-2.5
 49
2.5
 49
-2.5
  0
LTYPE
  2
PHANTOM1
 70
    64
  3
--- - - --- - - --- - - --- - - 
 72
    65
 73
     6
 40
10.0
 49
3.25
 49
-1.25
 49
1.25
 49
-1.25
 49
1.25
 49
-1.25
  0
LTYPE
  2
PHANTOM2
 70
    64
  3
--------  -  -  --------  -  -  
 72
    65
 73
     6
 40
20.0
 49
10.0
 49
-2.5
 49
1.25
 49
-2.5
 49
1.25
 49
-2.5
  0
LTYPE
  2
DOT
 70
    64
  3
-   -   -   -   -   -   -   -   
 72
    65
 73
     2
 40
2.5
 49
0.625
 49
-1.875
  0
LTYPE
  2
DUMMY
 70
    64
  3
ダミー
 72
    65
 73
     0
 40
0.0
  0
LTYPE
  2
RAND1
 70
    64
  3
ランダム線1
 72
    65
 73
     4
 40
10.0
 49
1.0
 49
-2.0
 49
3.0
 49
-4.0
  0
LTYPE
  2
RAND2
 70
    64
  3
ランダム線2
 72
    65
 73
     4
 40
14.0
 49
2.0
 49
-3.0
 49
4.0
 49
-5.0
  0
LTYPE
  2
RAND3
 70
    64
  3
ランダム線3
 72
    65
 73
     4
 40
18.0
 49
3.0
 49
-4.0
 49
5.0
 49
-6.0
  0
LTYPE
  2
RAND4
 70
    64
  3
ランダム線4
 72
    65
 73
     4
 40
22.0
 49
4.0
 49
-5.0
 49
6.0
 49
-7.0
  0
LTYPE
  2
RAND5
 70
    64
  3
ランダム線5
 72
    65
 73
     4
 40
26.0
 49
5.0
 49
-6.0
 49
7.0
 49
-8.0
  0
LTYPE
  2
LONG1
 70
    64
  3
----------  --  ----------  --  
 72
    65
 73
     4
 40
40.0
 49
32.5
 49
-2.5
 49
2.5
 49
-2.5
  0
LTYPE
  2
LONG2
 70
    64
  3
--------  -  -  --------  -  -  
 72
    65
 73
     6
 40
40.0
 49
30.0
 49
-2.5
 49
1.25
 49
-2.5
 49
1.25
 49
-2.5
  0
LTYPE
  2
LONG3
 70
    64
  3
+++++++++++++++..+++++++++++++++
 72
    65
 73
     2
 40
40.0
 49
37.5
 49
-2.5
  0
LTYPE
  2
LONG4
 70
    64
  3
+++++++++++++++..+++++++++++++++
 72
    65
 73
     2
 40
80.0
 49
75.0
 49
-5.0
  0
LTYPE
  2
LONG5
 70
    64
  3
----------  --  ----------  --  
 72
    65
 73
     4
 40
60.0
 49
37.5
 49
-7.5
 49
7.5
 49
-7.5
  0
LTYPE
  2
dashed
 70
   64
  3
-------   -------------   ------
 72
   65
 73
    2
 40
7.5
 49
6
 49
-1.5
  0
LTYPE
  2
dashed_spaced
 70
   64
  3
----        --------        ----
 72
   65
 73
    2
 40
12
 49
6
 49
-6
  0
LTYPE
  2
long_dashed_dotted
 70
   64
  3
------------- --- --------------
 72
   65
 73
    4
 40
15.25
 49
12
 49
-1.5
 49
0.25
 49
-1.5
  0
LTYPE
  2
long_dashed_double-dotted
 70
   64
  3
----------- --- --- ------------
 72
   65
 73
    6
 40
17
 49
12
 49
-1.5
 49
0.25
 49
-1.5
 49
0.25
 49
-1.5
  0
LTYPE
  2
long_dashed_triplicate-dotted
 70
   64
  3
--------- --- --- --- ----------
 72
   65
 73
    8
 40
18.75
 49
12
 49
-1.5
 49
0.25
 49
-1.5
 49
0.25
 49
-1.5
 49
0.25
 49
-1.5
  0
LTYPE
  2
dotted
 70
   64
  3
   -       -       -       -    
 72
   65
 73
    2
 40
1.75
 49
0.25
 49
-1.5
  0
LTYPE
  2
chain
 70
   64
  3
-------------- -- --------------
 72
   65
 73
    4
 40
18.5
 49
12
 49
-1.5
 49
3.5
 49
-1.5
  0
LTYPE
  2
chain_double_dash
 70
   64
  3
------------ -- -- -------------
 72
   65
 73
    6
 40
23.5
 49
12
 49
-1.5
 49
3.5
 49
-1.5
 49
3.5
 49
-1.5
  0
LTYPE
  2
dashed_dotted
 70
   64
  3
-----------     -     ----------
 72
   65
 73
    4
 40
9.25
 49
6
 49
-1.5
 49
0.25
 49
-1.5
  0
LTYPE
  2
double-dashed_dotted
 70
   64
  3
------   -----------   -   -----
 72
   65
 73
    6
 40
16.75
 49
6
 49
-1.5
 49
6
 49
-1.5
 49
0.25
 49
-1.5
  0
LTYPE
  2
dashed_double-dotted
 70
   64
  3
---------    -    -    ---------
 72
   65
 73
    6
 40
11
 49
6
 49
-1.5
 49
0.25
 49
-1.5
 49
0.25
 49
-1.5
  0
LTYPE
  2
double-dashed_double-dotted
 70
   64
  3
-----   ---------   -   -   ----
 72
   65
 73
    8
 40
18.5
 49
6
 49
-1.5
 49
6
 49
-1.5
 49
0.25
 49
-1.5
 49
0.25
 49
-1.5
  0
LTYPE
  2
dashed_triplicate-dotted
 70
   64
  3
-------    -    -    -    ------
 72
   65
 73
    8
 40
12.75
 49
6
 49
-1.5
 49
0.25
 49
-1.5
 49
0.25
 49
-1.5
 49
0.25
 49
-1.5
  0
LTYPE
  2
double-dashed_triplicate-dotted
 70
   64
  3
-----  ---------  -  -  -  -----
 72
   65
 73
   10
 40
20.25
 49
6
 49
-1.5
 49
6
 49
-1.5
 49
0.25
 49
-1.5
 49
0.25
 49
-1.5
 49
0.25
 49
-1.5
  0
LTYPE
  2
undefined
 70
   64
  3
--------------------------------
 72
   65
 73
    0
 40
0
  0
LTYPE
  2
_
 70
   64
  3
                                
 72
   65
 73
    0
 40
0
  0
LTYPE
  2
__18
 70
   64
  3
                                
 72
   65
 73
    0
 40
0
  0
LTYPE
  2
__19
 70
   64
  3
                                
 72
   65
 73
    0
 40
0
  0
LTYPE
  2
__20
 70
   64
  3
                                
 72
   65
 73
    0
 40
0
  0
LTYPE
  2
__21
 70
   64
  3
                                
 72
   65
 73
    0
 40
0
  0
LTYPE
  2
__22
 70
   64
  3
                                
 72
   65
 73
    0
 40
0
  0
LTYPE
  2
__23
 70
   64
  3
                                
 72
   65
 73
    0
 40
0
  0
LTYPE
  2
__24
 70
   64
  3
                                
 72
   65
 73
    0
 40
0
  0
LTYPE
  2
__25
 70
   64
  3
                                
 72
   65
 73
    0
 40
0
  0
LTYPE
  2
__26
 70
   64
  3
                                
 72
   65
 73
    0
 40
0
  0
LTYPE
  2
__27
 70
   64
  3
                                
 72
   65
 73
    0
 40
0
  0
LTYPE
  2
__28
 70
   64
  3
                                
 72
   65
 73
    0
 40
0
  0
LTYPE
  2
__29
 70
   64
  3
                                
 72
   65
 73
    0
 40
0
  0
LTYPE
  2
__30
 70
   64
  3
                                
 72
   65
 73
    0
 40
0
  0
LTYPE
  2
__31
 70
   64
  3
                                
 72
   65
 73
    0
 40
0
  0
LTYPE
  2
__32
 70
   64
  3
                                
 72
   65
 73
    0
 40
0
  0
ENDTAB
  0
TABLE
  2
STYLE
  5
3
100
AcDbSymbolTable
 70
     1
  0
STYLE
  5
10
100
AcDbSymbolTableRecord
100
AcDbTextStyleTableRecord
  2
STANDARD
 70
     0
 40
0.0
 41
1.0
 50
0.0
 71
     0
 42
0.2
  3
txt
  4
bigfont.shx
  0
STYLE
  5
26
100
AcDbSymbolTableRecord
100
AcDbTextStyleTableRecord
  2
TATEGAKI
 70
    68
 40
0.0
 41
1.0
 50
0.0
 71
     0
 42
1.0
  3
txt
  4
bigfont.shx
  0
ENDTAB
  0
TABLE
  2
LAYER
 70
    2
  0
LAYER
  2
_0-0_
 70
   64
 62
    7
  6
CONTINUOUS
  0
LAYER
  2
ADD_LINE
 70
   64
 62
    7
  6
CONTINUOUS
  0
ENDTAB
  0
ENDSEC
  0
SECTION
  2
BLOCKS
  0
BLOCK
  2
-001-66
 70
   64
 10
0
 20
0
 30
0
  0
LINE
  8
_0-0_
  6
CONTINUOUS
 62
    7
 10
-13.439349984161765
 20
27.257769337257898
 11
7.8413750345568189
 21
37.459197973542629
  0
LINE
  8
_0-0_
  6
CONTINUOUS
 62
    7
 10
-7.2337331579351485
 20
25.744204257690427
 11
8.567886272749206
 21
32.706603623700786
  0
LINE
  8
_0-0_
  6
CONTINUOUS
 62
    7
 10
10.051180050725321
 20
36.066718100340552
 11
11.019861701648495
 21
11.51669250975624
  0
LINE
  8
_0-0_
  6
CONTINUOUS
 62
    7
 10
10.535520876186908
 20
11.607506414530292
 11
9.5668392252637204
 21
35.733733782835714
  0
LINE
  8
_0-0_
  6
CONTINUOUS
 62
    7
 10
9.1430410029848304
 20
37.580283179908022
 11
14.955130908523913
 21
34.220168703268257
  0
LINE
  8
_0-0_
  6
CONTINUOUS
 62
    7
 10
15.348657829211447
 20
33.433114861893173
 11
16.438424686500028
 21
9.9123135254147314
  0
LINE
  8
_0-0_
  6
CONTINUOUS
 62
    7
 10
16.347610781725976
 20
11.637777716121647
 11
16.52923859127408
 21
11.607506414530292
  0
LINE
  8
_0-0_
  6
CONTINUOUS
 62
    7
 10
16.52923859127408
 20
11.607506414530292
 11
16.52923859127408
 21
4.1002236198756634
  0
LINE
  8
_0-0_
  6
CONTINUOUS
 62
    7
 10
8.9916844950280961
 20
12.576188065453479
 11
8.9916844950280961
 21
6.3705712392268623
  0
LINE
  8
_0-0_
  6
CONTINUOUS
 62
    7
 10
8.9916844950280961
 20
6.3705712392268623
 11
9.4457540188983273
 21
6.6127416519576485
  0
LINE
  8
_0-0_
  6
CONTINUOUS
 62
    7
 10
9.4457540188983273
 20
6.6127416519576485
 11
9.3852114157156308
 21
12.667001970227517
  0
LINE
  8
_0-0_
  6
CONTINUOUS
 62
    7
 10
9.3852114157156308
 20
12.667001970227517
 11
8.9916844950280961
 21
12.576188065453479
  0
LINE
  8
_0-0_
  6
CONTINUOUS
 62
    7
 10
9.4457540188983273
 20
6.6127416519576485
 11
16.52923859127408
 21
4.1002236198756634
  0
LINE
  8
_0-0_
  6
CONTINUOUS
 62
    7
 10
-8.7334801274343903
 20
23.152698052241632
 11
-9.3281730226037212
 21
6.1570011008233507
  0
LINE
  8
_0-0_
  6
CONTINUOUS
 62
    7
 10
-14.868206835496977
 20
7.1585891347927486
 11
-14.02311693183529
 21
25.907065145657498
  0
ARC
  8
_0-0_
  6
CONTINUOUS
 62
    7
 10
-12.339733458556154
 20
25.981018569258637
 40
1.6850071296500906
 50
130.73706041568377
 51
182.51546743276174
  0
ARC
  8
_0-0_
  6
CONTINUOUS
 62
    7
 10
8.6119596876211801
 20
36.232410136583951
 40
1.4487267183454897
 50
353.43266480355317
 51
122.13424307929512
  0
ARC
  8
_0-0_
  6
CONTINUOUS
 62
    7
 10
7.7657591811216804
 20
35.658117929400589
 40
1.8026666587856519
 50
2.4040721921561348
 51
87.595927807843424
  0
ARC
  8
_0-0_
  6
CONTINUOUS
 62
    7
 10
14.762045754913643
 20
33.631717475603693
 40
0.6193195652364199
 50
341.29602324162425
 51
71.834079112531697
  0
ARC
  8
_0-0_
  6
CONTINUOUS
 62
    7
 10
-4.9858456535957458
 20
22.7135979066055
 40
3.7732708738442753
 50
126.56538626509597
 51
173.31727860179018
  0
ARC
  8
_0-0_
  6
CONTINUOUS
 62
    7
 10
15.462175511624707
 20
11.110482392033973
 40
4.4608473013593901
 50
174.77533979973029
 51
245.08802272165619
  0
ARC
  8
_0-0_
  6
CONTINUOUS
 62
    7
 10
13.973759812336809
 20
9.7727466788105488
 40
2.7360816999678343
 50
261.79233803394669
 51
320.57036096658521
  0
ARC
  8
_0-0_
  6
CONTINUOUS
 62
    7
 10
10.15555786287635
 20
10.116475382066369
 40
6.2861830698049657
 50
340.66307855092208
 51
358.13882764235223
  0
ARC
  8
_0-0_
  6
CONTINUOUS
 62
    7
 10
15.726188869394235
 20
11.560744020604631
 40
5.1908786286324053
 50
179.48383997311814
 51
218.67892944439521
  0
ARC
  8
_0-0_
  6
CONTINUOUS
 62
    7
 10
14.521797663878715
 20
10.577939359410948
 40
3.6364780469162117
 50
218.44975175527699
 51
255.04151509529953
  0
ARC
  8
_0-0_
  6
CONTINUOUS
 62
    7
 10
12.835665893841124
 20
12.749451202442813
 40
3.84788423800144
 50
131.2873829027611
 51
182.5807959867746
  0
ARC
  8
_0-0_
  6
CONTINUOUS
 62
    7
 10
14.703572675556316
 20
12.366672109321343
 40
5.3268343803356775
 50
145.82218347611291
 51
176.76791846033919
  0
LINE
  8
_0-0_
  6
CONTINUOUS
 62
    7
 10
-39.63898640775426
 20
-7.5223549722464327
 11
-27.608077307259137
 21
-4.1308524068249568
  0
LINE
  8
_0-0_
  6
CONTINUOUS
 62
    7
 10
-27.608077307259137
 20
-4.1308524068249568
 11
-27.143976956201456
 21
-2.8456514346652426
  0
LINE
  8
_0-0_
  6
CONTINUOUS
 62
    7
 10
-27.143976956201456
 20
-2.8456514346652426
 11
-21.0392723384428
 21
-0.810749895412357
  0
LINE
  8
_0-0_
  6
CONTINUOUS
 62
    7
 10
-21.0392723384428
 20
-0.810749895412357
 11
-19.718371339278647
 21
-1.0249500574389714
  0
LINE
  8
_0-0_
  6
CONTINUOUS
 62
    7
 10
-21.539072716504919
 20
-1.0606500844434095
 11
-20.396671852362942
 21
-1.2034501924611618
  0
LINE
  8
_0-0_
  6
CONTINUOUS
 62
    7
 10
-20.396671852362942
 20
-1.2034501924611618
 11
-20.289571771349642
 21
-1.988850786558757
  0
LINE
  8
_0-0_
  6
CONTINUOUS
 62
    7
 10
-20.289571771349642
 20
-1.988850786558757
 11
-5.9381609155661295
 21
2.2594524269691902
  0
LINE
  8
_0-0_
  6
CONTINUOUS
 62
    7
 10
-19.718371339278647
 20
-1.0249500574389714
 11
-19.646971285269785
 21
-1.381950327483338
  0
LINE
  8
_0-0_
  6
CONTINUOUS
 62
    7
 10
-19.646971285269785
 20
-1.381950327483338
 11
-18.575970475136685
 21
-1.4176503544877761
  0
LINE
  8
_0-0_
  6
CONTINUOUS
 62
    7
 10
-38.246685354581246
 20
-10.449757186610235
 11
-5.1527603214685342
 21
-1.988850786558757
  0
LINE
  8
_0-0_
  6
CONTINUOUS
 62
    7
 10
-34.926582843168632
 20
-10.913857537667909
 11
-3.4034589982511392
 21
-2.9884515426829807
  0
LINE
  8
_0-0_
  6
CONTINUOUS
 62
    7
 10
-39.995986677798641
 20
-11.270857807712275
 11
-1.1186572699672013
 21
-16.982862128422127
  0
LINE
  8
_0-0_
  6
CONTINUOUS
 62
    7
 10
-34.997982897177508
 20
-11.627858077756642
 11
-2.2967581611136012
 21
-16.447361723355577
  0
LINE
  8
_0-0_
  6
CONTINUOUS
 62
    7
 10
-32.927381330920184
 20
-10.485457213614666
 11
-2.2967581611136012
 21
-15.26926083220917
  0
LINE
  8
_0-0_
  6
CONTINUOUS
 62
    7
 10
2.9868458355430079
 20
-1.8460506785410189
 11
38.222772488921919
 21
-10.699657375641287
  0
LINE
  8
_0-0_
  6
CONTINUOUS
 62
    7
 10
1.2732445393300509
 20
-3.0241515696874188
 11
34.688469815482676
 21
-10.949557564672347
  0
LINE
  8
_0-0_
  6
CONTINUOUS
 62
    7
 10
2.5941455384942032
 20
2.652152724017995
 11
38.9010730020062
 21
-7.3438548372242494
  0
LINE
  8
_0-0_
  6
CONTINUOUS
 62
    7
 10
38.972473056015076
 20
-11.377957888725582
 11
0.9876443232945604
 21
-17.054262182431003
  0
LINE
  8
_0-0_
  6
CONTINUOUS
 62
    7
 10
1.5945447823699794
 20
-16.554461804368884
 11
34.331469545438324
 21
-11.520757996743328
  0
LINE
  8
_0-0_
  6
CONTINUOUS
 62
    7
 10
1.5588447553655413
 20
-15.340660886218046
 11
32.617868249225353
 21
-10.485457213614673
  0
ARC
  8
_0-0_
  6
CONTINUOUS
 62
    7
 10
2.9386507990869148
 20
-24.144287545511574
 40
27.855973699581561
 50
99.490087345252817
 51
108.58239959060025
  0
ARC
  8
_0-0_
  6
CONTINUOUS
 62
    7
 10
-0.72967768813389
 20
-3.9924323812761315
 40
7.381010569429626
 50
73.389036495396766
 51
97.195259015858923
  0
ARC
  8
_0-0_
  6
CONTINUOUS
 62
    7
 10
5.2537975503228438
 20
12.121584886939317
 40
9.835847412002332
 50
246.80823610129536
 51
254.31169424235173
  0
ARC
  8
_0-0_
  6
CONTINUOUS
 62
    7
 10
-0.892612706457541
 20
-14.285174573802976
 40
13.013394498839716
 50
97.46073085474174
 51
109.10900211506257
  0
ARC
  8
_0-0_
  6
CONTINUOUS
 62
    7
 10
-0.6125154397398233
 20
-10.588329659850793
 40
9.4147597743916904
 50
73.517616693662148
 51
102.07718698280611
  0
ARC
  8
_0-0_
  6
CONTINUOUS
 62
    7
 10
15.017754936059376
 20
38.905530147092492
 40
42.490400251974897
 50
252.24249062868108
 51
253.55205143321427
  0
ARC
  8
_0-0_
  6
CONTINUOUS
 62
    7
 10
-1.563717606622518
 20
-8.7659059129009123
 40
6.0633016903352139
 50
83.757910990565492
 51
107.66327528443378
  0
ARC
  8
_0-0_
  6
CONTINUOUS
 62
    7
 10
-1.4239864482948832
 20
-15.145250212090652
 40
12.417571715092839
 50
77.454736093345645
 51
87.602145553469811
  0
ARC
  8
_0-0_
  6
CONTINUOUS
 62
    7
 10
-0.3063066554838798
 20
-8.2472055205424226
 40
8.4382734576925547
 50
256.35627803971954
 51
270.30181661177255
  0
ARC
  8
_0-0_
  6
CONTINUOUS
 62
    7
 10
-0.2374091940416178
 20
-3.8030472365854138
 40
12.882337864346312
 50
269.89126699753456
 51
278.17555514800625
  0
ARC
  8
_0-0_
  6
CONTINUOUS
 62
    7
 10
1.7186251087852185
 20
6.2743217429877376
 40
21.914589956887426
 50
259.4421169294244
 51
264.93989814998423
  0
ARC
  8
_0-0_
  6
CONTINUOUS
 62
    7
 10
-1.17309206950749
 20
-0.1720644680551402
 40
15.412650521964157
 50
273.56672751341398
 51
280.20978904057506
  0
ARC
  8
_0-0_
  6
CONTINUOUS
 62
    7
 10
-39.300298469257868
 20
-8.1751352648528766
 40
0.7354125577512902
 50
117.42204941382384
 51
180.86040013622844
  0
LINE
  8
_0-0_
  6
CONTINUOUS
 62
    7
 10
-39.995986677798641
 20
-11.270857807712275
 11
-40.035628109058337
 21
-8.1861784043161947
  0
ARC
  8
_0-0_
  6
CONTINUOUS
 62
    7
 10
-37.793662917337628
 20
-13.68882844689012
 40
3.2705981039891299
 50
97.96184592789136
 51
132.32772533346625
  0
ARC
  8
_0-0_
  6
CONTINUOUS
 62
    7
 10
-33.917699987506694
 20
-14.423892058339788
 40
3.6521482654400623
 50
106.03614273871661
 51
117.20489846655339
  0
ARC
  8
_0-0_
  6
CONTINUOUS
 62
    7
 10
-34.206071464973959
 20
-4.1629755373528141
 40
7.5067699484186008
 50
260.02946391907057
 51
263.94443078451621
  0
ARC
  8
_0-0_
  6
CONTINUOUS
 62
    7
 10
-35.497369265441463
 20
-11.355515613490958
 40
0.2010316602310044
 50
116.59492384356884
 51
267.59459031045594
  0
ARC
  8
_0-0_
  6
CONTINUOUS
 62
    7
 10
13.498982077903563
 20
110.08576947398649
 40
127.90665548521334
 50
263.43769123148076
 51
263.93552996918589
  0
ARC
  8
_0-0_
  6
CONTINUOUS
 62
    7
 10
0.2385050475051429
 20
-12.18492491029658
 40
4.9266271549943577
 50
267.06178088495733
 51
278.74628254982832
  0
LINE
  8
_0-0_
  6
CONTINUOUS
 62
    7
 10
-35.248766712656149
 20
-6.2394201128436819
 11
-34.981147597018122
 21
-3.1739647882625661
  0
LINE
  8
_0-0_
  6
CONTINUOUS
 62
    7
 10
-34.981147597018122
 20
-3.1739647882625661
 11
-34.007987176516167
 21
-3.1496357777500208
  0
LINE
  8
_0-0_
  6
CONTINUOUS
 62
    7
 10
-33.983658166003622
 20
-2.6630555674990433
 11
-34.275606292154208
 21
-5.9718009972056478
  0
LINE
  8
_0-0_
  6
CONTINUOUS
 62
    7
 10
-33.983658166003622
 20
-2.6630555674990433
 11
-32.548246545763249
 21
-2.6873845780115886
  0
LINE
  8
_0-0_
  6
CONTINUOUS
 62
    7
 10
-32.426601493200508
 20
-2.0548303046853249
 11
-32.791536650888744
 21
-5.5582078184923205
  0
LINE
  8
_0-0_
  6
CONTINUOUS
 62
    7
 10
-32.426601493200508
 20
-2.0548303046853249
 11
-31.96435029346209
 21
-2.0305012941727796
  0
LINE
  8
_0-0_
  6
CONTINUOUS
 62
    7
 10
-31.96435029346209
 20
-2.0305012941727796
 11
-31.477770083211126
 21
-1.5439210839218163
  0
LINE
  8
_0-0_
  6
CONTINUOUS
 62
    7
 10
-31.477770083211126
 20
-1.5439210839218163
 11
-30.772228778347213
 21
-1.5439210839218163
  0
LINE
  8
_0-0_
  6
CONTINUOUS
 62
    7
 10
-30.674912736297017
 20
-0.9113668105955525
 11
-28.874565958368422
 21
-0.0355224321438072
  0
LINE
  8
_0-0_
  6
CONTINUOUS
 62
    7
 10
-28.874565958368422
 20
-0.0355224321438072
 11
-28.971882000418617
 21
-4.4877313559401841
  0
LINE
  8
_0-0_
  6
CONTINUOUS
 62
    7
 10
-30.674912736297017
 20
-0.9113668105955525
 11
-30.674912736297017
 21
-4.9013245346535115
  0
LINE
  8
_0-0_
  6
CONTINUOUS
 62
    7
 10
-28.874565958368422
 20
-0.0355224321438072
 11
-27.609457411715894
 21
-1.4952630628967114
  0
LINE
  8
_0-0_
  6
CONTINUOUS
 62
    7
 10
-27.609457411715894
 20
-1.4952630628967114
 11
-27.171535222490022
 21
-1.4466050418716208
  0
LINE
  8
_0-0_
  6
CONTINUOUS
 62
    7
 10
-27.609457411715894
 20
-1.4952630628967114
 11
-27.70677345376609
 21
-4.1714542192770523
  0
LINE
  8
_0-0_
  6
CONTINUOUS
 62
    7
 10
-27.220193243515126
 20
1.4972052301467613
 11
-27.143976956201456
 21
-2.8456514346652426
  0
LINE
  8
_0-0_
  6
CONTINUOUS
 62
    7
 10
-27.220193243515126
 20
1.4972052301467613
 11
-19.751187016162717
 21
2.4217076296235973
  0
LINE
  8
_0-0_
  6
CONTINUOUS
 62
    7
 10
-19.751187016162717
 20
2.4217076296235973
 11
-19.848503058212913
 21
-0.9843538421331885
  0
LINE
  8
_0-0_
  6
CONTINUOUS
 62
    7
 10
-19.751187016162717
 20
2.4217076296235973
 11
-18.267117374897254
 21
1.0349540304083291
  0
LINE
  8
_0-0_
  6
CONTINUOUS
 62
    7
 10
-18.194130343359603
 20
2.592010703211443
 11
-18.218459353872163
 21
-1.3249599893088799
  0
LINE
  8
_0-0_
  6
CONTINUOUS
 62
    7
 10
-18.194130343359603
 20
2.592010703211443
 11
-17.366943985932963
 21
3.7598032078137749
  0
LINE
  8
_0-0_
  6
CONTINUOUS
 62
    7
 10
-17.366943985932963
 20
3.7598032078137749
 11
-16.369454554918462
 21
3.8084612288388655
  0
LINE
  8
_0-0_
  6
CONTINUOUS
 62
    7
 10
-15.615255229029458
 20
4.2220544075521929
 11
-16.466770596968658
 21
4.1490673760145569
  0
LINE
  8
_0-0_
  6
CONTINUOUS
 62
    7
 10
-16.466770596968658
 20
4.1490673760145569
 11
-16.588415649531399
 21
-0.8627087895704477
  0
LINE
  8
_0-0_
  6
CONTINUOUS
 62
    7
 10
-16.199151481330631
 20
-0.7410637370077068
 11
-16.053177418255331
 21
4.1733963865271022
  0
LINE
  8
_0-0_
  6
CONTINUOUS
 62
    7
 10
-14.868206835496977
 20
7.1585891347927486
 11
-15.663913250054563
 21
5.4871629542047202
  0
LINE
  8
_0-0_
  6
CONTINUOUS
 62
    7
 10
-15.663913250054563
 20
5.4871629542047202
 11
-15.639584239542017
 21
-0.5464316529073158
  0
LINE
  8
_0-0_
  6
CONTINUOUS
 62
    7
 10
-14.934042934678104
 20
-0.424786600344575
 11
-14.885384913653013
 21
4.1247383655019974
  0
LINE
  8
_0-0_
  6
CONTINUOUS
 62
    7
 10
-15.615255229029458
 20
4.2220544075521929
 11
-15.104346008265949
 21
4.7816216493408064
  0
LINE
  8
_0-0_
  6
CONTINUOUS
 62
    7
 10
-14.885384913653013
 20
4.1247383655019974
 11
-14.033869545713813
 21
5.1952148280541337
  0
LINE
  8
_0-0_
  6
CONTINUOUS
 62
    7
 10
-13.37698626187499
 20
3.6624871657635794
 11
-13.401315272387549
 21
0.2077676729816886
  0
LINE
  8
_0-0_
  6
CONTINUOUS
 62
    7
 10
-13.133696156749508
 20
5.6574660277925659
 11
-12.501141883423244
 21
5.6817950383051112
  0
LINE
  8
_0-0_
  6
CONTINUOUS
 62
    7
 10
-12.501141883423244
 20
5.6817950383051112
 11
-12.67144495701109
 21
0.2807547045193246
  0
LINE
  8
_0-0_
  6
CONTINUOUS
 62
    7
 10
-13.182354177774613
 20
0.2807547045193246
 11
-13.133696156749508
 21
5.6574660277925659
  0
LINE
  8
_0-0_
  6
CONTINUOUS
 62
    7
 10
-14.715081840065167
 20
6.8252585323948978
 11
-14.642094808527517
 21
5.4871629542047202
  0
LINE
  8
_0-0_
  6
CONTINUOUS
 62
    7
 10
-14.642094808527517
 20
5.4871629542047202
 11
-13.255341209312249
 21
4.4653445126776887
  0
LINE
  8
_0-0_
  6
CONTINUOUS
 62
    7
 10
-12.501141883423244
 20
5.6817950383051112
 11
-10.627808073957013
 21
3.905777270889061
  0
LINE
  8
_0-0_
  6
CONTINUOUS
 62
    7
 10
-10.627808073957013
 20
3.905777270889061
 11
-10.652137084469558
 21
0.9133089778455882
  0
LINE
  8
_0-0_
  6
CONTINUOUS
 62
    7
 10
-11.698284536509135
 20
5.3655179016419794
 11
-9.9952538006307492
 21
6.0224011854807884
  0
LINE
  8
_0-0_
  6
CONTINUOUS
 62
    7
 10
-9.9952538006307492
 20
6.0224011854807884
 11
-9.3626995273044855
 21
6.1440462380435292
  0
LINE
  8
_0-0_
  6
CONTINUOUS
 62
    7
 10
-9.3626995273044855
 20
6.1440462380435292
 11
-8.4625261383401806
 21
5.3168598806168887
  0
LINE
  8
_0-0_
  6
CONTINUOUS
 62
    7
 10
-8.4625261383401806
 20
5.3168598806168887
 11
-8.1705780121895941
 21
1.6188502827095022
  0
LINE
  8
_0-0_
  6
CONTINUOUS
 62
    7
 10
-10.408846979344062
 20
5.3411888911294341
 11
-10.335859947806426
 21
1.5701922616844115
  0
LINE
  8
_0-0_
  6
CONTINUOUS
 62
    7
 10
-10.068240832168385
 20
1.4972052301467613
 11
-9.1923964537166398
 21
1.4972052301467613
  0
LINE
  8
_0-0_
  6
CONTINUOUS
 62
    7
 10
-8.4625261383401806
 20
5.3168598806168887
 11
-7.6839978019386308
 21
6.1197172275309839
  0
LINE
  8
_0-0_
  6
CONTINUOUS
 62
    7
 10
-7.6839978019386308
 20
6.1197172275309839
 11
-6.9541274865621716
 21
5.6331370172800206
  0
LINE
  8
_0-0_
  6
CONTINUOUS
 62
    7
 10
-6.9541274865621716
 20
5.6331370172800206
 11
-7.0271145180998218
 21
4.5140025337027794
  0
LINE
  8
_0-0_
  6
CONTINUOUS
 62
    7
 10
-7.0271145180998218
 20
4.5140025337027794
 11
-6.5162052973362989
 21
3.8084612288388655
  0
LINE
  8
_0-0_
  6
CONTINUOUS
 62
    7
 10
-6.5162052973362989
 20
3.8084612288388655
 11
-6.4918762868237536
 21
2.1540885139855703
  0
LINE
  8
_0-0_
  6
CONTINUOUS
 62
    7
 10
-6.6378503498990398
 20
3.3705390396129928
 11
-6.248586181698272
 21
3.3705390396129928
  0
LINE
  8
_0-0_
  6
CONTINUOUS
 62
    7
 10
-6.1269411291355169
 20
2.3487205980859613
 11
-6.1026121186229716
 21
6.2656912906062701
  0
LINE
  8
_0-0_
  6
CONTINUOUS
 62
    7
 10
-6.1026121186229716
 20
6.2656912906062701
 11
-5.0807936770959401
 21
6.2656912906062701
  0
LINE
  8
_0-0_
  6
CONTINUOUS
 62
    7
 10
-5.0807936770959401
 20
6.2656912906062701
 11
-4.7888455509453536
 21
5.8520981118929569
  0
LINE
  8
_0-0_
  6
CONTINUOUS
 62
    7
 10
-4.7888455509453536
 20
5.8520981118929569
 11
-4.7888455509453536
 21
2.6406687242365479
  0
LINE
  8
_0-0_
  6
CONTINUOUS
 62
    7
 10
-6.1026121186229716
 20
6.2656912906062701
 11
-5.6890189399096442
 21
5.7061240488176566
  0
LINE
  8
_0-0_
  6
CONTINUOUS
 62
    7
 10
-5.6890189399096442
 20
5.7061240488176566
 11
-5.6646899293970989
 21
2.4703656506487022
  0
LINE
  8
_0-0_
  6
CONTINUOUS
 62
    7
 10
-4.7401875299202487
 20
4.7816216493408206
 11
-4.5212264353073124
 21
3.7354741973012295
  0
LINE
  8
_0-0_
  6
CONTINUOUS
 62
    7
 10
-4.5212264353073124
 20
3.7354741973012295
 11
-3.7670271094183079
 21
3.8084612288388655
  0
LINE
  8
_0-0_
  6
CONTINUOUS
 62
    7
 10
-3.7183690883932172
 20
5.7304530593302019
 11
-3.6940400778806719
 21
2.981274871412225
  0
LINE
  8
_0-0_
  6
CONTINUOUS
 62
    7
 10
-3.7183690883932172
 20
5.7304530593302019
 11
-3.4750789832677356
 21
5.9007561329180476
  0
LINE
  8
_0-0_
  6
CONTINUOUS
 62
    7
 10
-3.4750789832677356
 20
5.9007561329180476
 11
-3.4994079937802809
 21
6.9225745744450933
  0
LINE
  8
_0-0_
  6
CONTINUOUS
 62
    7
 10
-3.4994079937802809
 20
6.9225745744450933
 11
-3.2561178886547992
 21
6.8495875429074431
  0
LINE
  8
_0-0_
  6
CONTINUOUS
 62
    7
 10
-3.2561178886547992
 20
6.8495875429074431
 11
-3.2561178886547992
 21
6.2900203011188296
  0
LINE
  8
_0-0_
  6
CONTINUOUS
 62
    7
 10
-3.2561178886547992
 20
6.2900203011188296
 11
-2.5749055943034307
 21
5.7061240488176566
  0
LINE
  8
_0-0_
  6
CONTINUOUS
 62
    7
 10
-2.5749055943034307
 20
5.7061240488176566
 11
-2.6722216363536262
 21
3.2002359660251614
  0
LINE
  8
_0-0_
  6
CONTINUOUS
 62
    7
 10
-2.6235636153285355
 20
4.295041439089843
 11
-2.2099704366152082
 21
4.0274223234518161
  0
LINE
  8
_0-0_
  6
CONTINUOUS
 62
    7
 10
-2.2099704366152082
 20
4.0274223234518161
 11
-1.5774161632889445
 21
4.1490673760145569
  0
LINE
  8
_0-0_
  6
CONTINUOUS
 62
    7
 10
-1.5774161632889445
 20
4.1490673760145569
 11
-1.4071130897010988
 21
4.2463834180647524
  0
LINE
  8
_0-0_
  6
CONTINUOUS
 62
    7
 10
-1.4071130897010988
 20
4.2463834180647524
 11
-1.4314421002136584
 21
5.2682018595917839
  0
LINE
  8
_0-0_
  6
CONTINUOUS
 62
    7
 10
-1.4314421002136584
 20
5.2682018595917839
 11
-2.5749055943034307
 21
6.2900203011188296
  0
LINE
  8
_0-0_
  6
CONTINUOUS
 62
    7
 10
-2.5749055943034307
 20
6.2900203011188296
 11
-2.4775895522532352
 21
8.8202373944238701
  0
LINE
  8
_0-0_
  6
CONTINUOUS
 62
    7
 10
-2.4775895522532352
 20
8.8202373944238701
 11
-0.8475458479124853
 21
7.6767739003340978
  0
LINE
  8
_0-0_
  6
CONTINUOUS
 62
    7
 10
-0.8475458479124853
 20
7.6767739003340978
 11
-0.2393205850987669
 21
5.7304530593302019
  0
LINE
  8
_0-0_
  6
CONTINUOUS
 62
    7
 10
-0.2393205850987669
 20
5.7304530593302019
 11
0.0769565515643648
 21
5.7304530593302019
  0
LINE
  8
_0-0_
  6
CONTINUOUS
 62
    7
 10
0.0769565515643648
 20
5.7304530593302019
 11
0.1499435831020008
 21
4.7086346178031704
  0
LINE
  8
_0-0_
  6
CONTINUOUS
 62
    7
 10
0.1499435831020008
 20
4.7086346178031704
 11
0.3689046777149371
 21
4.757292638828261
  0
LINE
  8
_0-0_
  6
CONTINUOUS
 62
    7
 10
0.3689046777149371
 20
4.757292638828261
 11
0.3932336882274967
 21
4.3680284706274932
  0
LINE
  8
_0-0_
  6
CONTINUOUS
 62
    7
 10
0.3932336882274967
 20
4.3680284706274932
 11
1.2447490561666825
 21
4.4410155021651292
  0
LINE
  8
_0-0_
  6
CONTINUOUS
 62
    7
 10
1.2447490561666825
 20
4.4410155021651292
 11
1.4393811402670735
 21
6.8495875429074431
  0
LINE
  8
_0-0_
  6
CONTINUOUS
 62
    7
 10
1.4393811402670735
 20
6.8495875429074431
 11
1.9259613505180511
 21
6.8252585323948978
  0
LINE
  8
_0-0_
  6
CONTINUOUS
 62
    7
 10
1.9259613505180511
 20
6.8252585323948978
 11
2.1205934346184421
 21
4.7816216493408206
  0
LINE
  8
_0-0_
  6
CONTINUOUS
 62
    7
 10
2.1205934346184421
 20
4.7816216493408206
 11
3.5560050548588009
 21
4.8059506598533659
  0
LINE
  8
_0-0_
  6
CONTINUOUS
 62
    7
 10
3.5560050548588009
 20
4.8059506598533659
 11
3.5316760443462556
 21
5.9980721749682431
  0
LINE
  8
_0-0_
  6
CONTINUOUS
 62
    7
 10
3.5316760443462556
 20
5.9980721749682431
 11
3.9452692230595829
 21
6.4116653536815704
  0
LINE
  8
_0-0_
  6
CONTINUOUS
 62
    7
 10
3.9452692230595829
 20
6.4116653536815704
 11
4.5048364648481964
 21
6.2656912906062701
  0
LINE
  8
_0-0_
  6
CONTINUOUS
 62
    7
 10
4.5048364648481964
 20
6.2656912906062701
 11
4.5534944858732871
 21
5.3898469121545247
  0
LINE
  8
_0-0_
  6
CONTINUOUS
 62
    7
 10
4.5534944858732871
 20
5.3898469121545247
 11
5.5509839168877875
 21
5.4141759226670843
  0
LINE
  8
_0-0_
  6
CONTINUOUS
 62
    7
 10
5.5509839168877875
 20
5.4141759226670843
 11
6.1835381902140512
 21
6.1197172275309839
  0
LINE
  8
_0-0_
  6
CONTINUOUS
 62
    7
 10
6.1835381902140512
 20
6.1197172275309839
 11
6.7431054320026647
 21
5.7791110803553067
  0
LINE
  8
_0-0_
  6
CONTINUOUS
 62
    7
 10
6.7431054320026647
 20
5.7791110803553067
 11
8.9570453886445875
 21
6.5576394167568566
  0
LINE
  8
_0-0_
  6
CONTINUOUS
 62
    7
 10
1.4393811402670735
 20
6.8495875429074431
 11
1.4880391612921784
 21
3.054261902949861
  0
LINE
  8
_0-0_
  6
CONTINUOUS
 62
    7
 10
1.9259613505180511
 20
6.8252585323948978
 11
1.9746193715431417
 21
2.8353008083369247
  0
LINE
  8
_0-0_
  6
CONTINUOUS
 62
    7
 10
3.9452692230595829
 20
6.4116653536815704
 11
4.1155722966474144
 21
2.2757335665483112
  0
LINE
  8
_0-0_
  6
CONTINUOUS
 62
    7
 10
4.5534944858732871
 20
5.3898469121545247
 11
4.6021525068983919
 21
2.0811014824479201
  0
LINE
  8
_0-0_
  6
CONTINUOUS
 62
    7
 10
7.0350535581532512
 20
5.7061240488176566
 11
7.229685642253628
 21
1.4242181986091111
  0
LINE
  8
_0-0_
  6
CONTINUOUS
 62
    7
 10
6.5484733479022736
 20
5.6817950383051112
 11
6.6701184004650145
 21
1.7161663247596977
  0
LINE
  8
_0-0_
  6
CONTINUOUS
 62
    7
 10
8.9916844950280961
 20
6.3705712392268623
 11
9.1516774727449786
 21
0.9133089778455882
  0
LINE
  8
_0-0_
  6
CONTINUOUS
 62
    7
 10
8.9916844950280961
 20
6.3705712392268623
 11
10.806050187598274
 21
5.5844789962549157
  0
LINE
  8
_0-0_
  6
CONTINUOUS
 62
    7
 10
9.32198054633281
 20
6.0953882170184386
 11
9.4922836199206557
 21
0.8159929357953927
  0
LINE
  8
_0-0_
  6
CONTINUOUS
 62
    7
 10
10.903366229648469
 20
5.9737431644556835
 11
11.04934029272377
 21
0.3294127255444294
  0
LINE
  8
_0-0_
  6
CONTINUOUS
 62
    7
 10
11.268301387336706
 20
5.8520981118929427
 11
11.560249513487278
 21
0.4023997570820654
  0
LINE
  8
_0-0_
  6
CONTINUOUS
 62
    7
 10
13.263280249365678
 20
5.2438728490792386
 11
13.409254312440979
 21
-0.2544835267567435
  0
LINE
  8
_0-0_
  6
CONTINUOUS
 62
    7
 10
12.119816755275906
 20
4.7816216493408064
 11
12.314448839376283
 21
0.0861226204189335
  0
LINE
  8
_0-0_
  6
CONTINUOUS
 62
    7
 10
13.822847491154306
 20
4.9762537334411974
 11
14.163453638329983
 21
-0.5221026423947705
  0
LINE
  8
_0-0_
  6
CONTINUOUS
 62
    7
 10
15.671852290107992
 20
4.5140025337027794
 11
15.817826353183278
 21
-0.9843538421332027
  0
LINE
  8
_0-0_
  6
CONTINUOUS
 62
    7
 10
16.401722605484451
 20
4.0760803444769067
 11
16.572025679072283
 21
-1.1303279052084889
  0
LINE
  8
_0-0_
  6
CONTINUOUS
 62
    7
 10
14.844665932681337
 20
3.6624871657635794
 11
14.917652964218988
 21
-0.351799568806939
  0
LINE
  8
_0-0_
  6
CONTINUOUS
 62
    7
 10
16.474709637022087
 20
3.3705390396129928
 11
16.888302815735415
 21
3.3462100291004475
  0
LINE
  8
_0-0_
  6
CONTINUOUS
 62
    7
 10
16.888302815735415
 20
3.3462100291004475
 11
16.863973805222869
 21
-0.9113668105955525
  0
LINE
  8
_0-0_
  6
CONTINUOUS
 62
    7
 10
16.888302815735415
 20
0.9619669988706931
 11
17.277566983936197
 21
0.6456898622075613
  0
LINE
  8
_0-0_
  6
CONTINUOUS
 62
    7
 10
17.326225004961287
 20
4.3193704496023884
 11
17.472199068036588
 21
-1.4952630628967114
  0
LINE
  8
_0-0_
  6
CONTINUOUS
 62
    7
 10
17.326225004961287
 20
4.3193704496023884
 11
17.83713422572481
 21
4.4896735231902341
  0
LINE
  8
_0-0_
  6
CONTINUOUS
 62
    7
 10
17.83713422572481
 20
4.4896735231902341
 11
18.202069383413033
 21
-1.6655661364845571
  0
LINE
  8
_0-0_
  6
CONTINUOUS
 62
    7
 10
17.885792246749901
 20
2.4946946611612475
 11
18.834623656739296
 21
2.4946946611612475
  0
LINE
  8
_0-0_
  6
CONTINUOUS
 62
    7
 10
18.834623656739296
 20
2.4946946611612475
 11
18.931939698789492
 21
-1.7872111890472979
  0
LINE
  8
_0-0_
  6
CONTINUOUS
 62
    7
 10
18.834623656739296
 20
2.4946946611612475
 11
19.661810014165951
 21
3.4921840921757337
  0
LINE
  8
_0-0_
  6
CONTINUOUS
 62
    7
 10
19.661810014165951
 20
3.4921840921757337
 11
22.119040075933356
 21
3.1759069555126018
  0
LINE
  8
_0-0_
  6
CONTINUOUS
 62
    7
 10
19.661810014165951
 20
3.4921840921757337
 11
19.978087150829083
 21
-2.1521463467355204
  0
LINE
  8
_0-0_
  6
CONTINUOUS
 62
    7
 10
22.119040075933356
 20
3.1759069555126018
 11
22.338001170546306
 21
-2.6630555674990433
  0
LINE
  8
_0-0_
  6
CONTINUOUS
 62
    7
 10
22.192027107471006
 20
2.397378619111052
 11
24.43029607462546
 21
2.5190236716737928
  0
LINE
  8
_0-0_
  6
CONTINUOUS
 62
    7
 10
24.43029607462546
 20
2.5190236716737928
 11
24.454625085138019
 21
-3.3442678618504118
  0
LINE
  8
_0-0_
  6
CONTINUOUS
 62
    7
 10
24.405967064112929
 20
2.0567724719353748
 11
26.157655821016419
 21
1.3755601775840063
  0
LINE
  8
_0-0_
  6
CONTINUOUS
 62
    7
 10
26.157655821016419
 20
1.3755601775840063
 11
26.13332681050386
 21
-3.8065190615888298
  0
LINE
  8
_0-0_
  6
CONTINUOUS
 62
    7
 10
26.20631384204151
 20
-1.4709340523841661
 11
26.765881083830124
 21
-1.5682500944343616
  0
LINE
  8
_0-0_
  6
CONTINUOUS
 62
    7
 10
26.765881083830124
 20
-1.5682500944343616
 11
26.960513167930515
 21
-3.9524931246641231
  0
LINE
  8
_0-0_
  6
CONTINUOUS
 62
    7
 10
26.765881083830124
 20
-1.5682500944343616
 11
28.347266767145783
 21
0.0617936099063882
  0
LINE
  8
_0-0_
  6
CONTINUOUS
 62
    7
 10
28.347266767145783
 20
0.0617936099063882
 11
28.468911819708524
 21
-4.1227961982519616
  0
LINE
  8
_0-0_
  6
CONTINUOUS
 62
    7
 10
28.347266767145783
 20
0.0617936099063882
 11
29.68536234533596
 21
-0.3761285793194844
  0
LINE
  8
_0-0_
  6
CONTINUOUS
 62
    7
 10
29.68536234533596
 20
-0.3761285793194844
 11
30.220600576612014
 21
-1.4709340523841661
  0
LINE
  8
_0-0_
  6
CONTINUOUS
 62
    7
 10
29.61237531379831
 20
-0.8870378000830072
 11
29.709691355848491
 21
-4.1227961982519616
  0
LINE
  8
_0-0_
  6
CONTINUOUS
 62
    7
 10
30.220600576612014
 20
-1.4709340523841661
 11
31.16943198660141
 21
-1.5682500944343616
  0
LINE
  8
_0-0_
  6
CONTINUOUS
 62
    7
 10
31.16943198660141
 20
-1.5682500944343616
 11
31.38839308121436
 21
-5.2419306818291957
  0
LINE
  8
_0-0_
  6
CONTINUOUS
 62
    7
 10
31.16943198660141
 20
-1.5682500944343616
 11
31.631683186339842
 21
-2.1034883257104298
  0
LINE
  8
_0-0_
  6
CONTINUOUS
 62
    7
 10
31.631683186339842
 20
-2.1034883257104298
 11
31.607354175827282
 21
-4.9499825556786092
  0
LINE
  8
_0-0_
  6
CONTINUOUS
 62
    7
 10
31.607354175827282
 20
-2.6873845780116028
 11
33.237397880168032
 21
-2.5900685359614073
  0
LINE
  8
_0-0_
  6
CONTINUOUS
 62
    7
 10
33.237397880168032
 20
-2.5900685359614073
 11
33.407700953755892
 21
-5.7528399025927115
  0
LINE
  8
_0-0_
  6
CONTINUOUS
 62
    7
 10
33.188739859142942
 20
-3.02799072518728
 11
34.332203353232728
 21
-3.1009777567249159
  0
LINE
  8
_0-0_
  6
CONTINUOUS
 62
    7
 10
34.332203353232728
 20
-3.1009777567249159
 11
34.526835437333119
 21
-6.1421040707934935
  0
ARC
  8
_0-0_
  6
CONTINUOUS
 62
    7
 10
-8.4099860208270343
 20
27.393712700147944
 40
0.4550525360576199
 50
115.64856352637938
 51
259.34315175308075
  0
ARC
  8
_0-0_
  6
CONTINUOUS
 62
    7
 10
-8.2971393666324502
 20
28.394920880801351
 40
1.4617475450191191
 50
262.25475015857609
 51
289.16643611642138
  0
ARC
  8
_0-0_
  6
CONTINUOUS
 62
    7
 10
-6.5987915303006588
 20
27.781363435585774
 40
0.8296549532891577
 50
45.000000000002771
 51
112.38013505195818
  0
ARC
  8
_0-0_
  6
CONTINUOUS
 62
    7
 10
-6.6659276070964637
 20
28.017911761265722
 40
0.7416311345635857
 50
316.83914082340999
 51
28.169143897131455
  0
ARC
  8
_0-0_
  6
CONTINUOUS
 62
    7
 10
-1.0270126492501674
 20
30.966677314249438
 40
0.4498489654444111
 50
84.05820501434674
 51
229.54461395835585
  0
ARC
  8
_0-0_
  6
CONTINUOUS
 62
    7
 10
-0.2717626434039459
 20
32.707144221840451
 40
2.3311787111156672
 50
243.30841241311362
 51
269.21905097564058
  0
ARC
  8
_0-0_
  6
CONTINUOUS
 62
    7
 10
-0.4753272836037467
 20
32.551778489174708
 40
2.182368467856513
 50
274.51487145300376
 51
305.82643537069691
  0
ARC
  8
_0-0_
  6
CONTINUOUS
 62
    7
 10
0.2831187109416646
 20
30.974118514719564
 40
0.5532694741364808
 50
339.71744091108371
 51
39.207203504967758
  0
ARC
  8
_0-0_
  6
CONTINUOUS
 62
    7
 10
-0.3333700789751645
 20
29.608767579425802
 40
2.0084729033170872
 50
58.64129251763535
 51
90.436272001480503
  0
ARC
  8
_0-0_
  6
CONTINUOUS
 62
    7
 10
-0.3957814025386596
 20
30.679463920012637
 40
0.9389013826132961
 50
87.123438180457924
 51
128.51433964858728
  0
ARC
  8
_0-0_
  6
CONTINUOUS
 62
    7
 10
6.0918458182525939
 20
34.34738271493508
 40
0.3746457229296262
 50
138.5097445898403
 51
254.4989781736686
  0
ARC
  8
_0-0_
  6
CONTINUOUS
 62
    7
 10
6.5740351471037712
 20
36.418898445809972
 40
2.5012622514454903
 50
256.53751482978566
 51
277.87708043878712
  0
ARC
  8
_0-0_
  6
CONTINUOUS
 62
    7
 10
8.2255200385393863
 20
34.358664535002646
 40
1.160712335956525
 50
62.189584556154195
 51
105.79240352885665
  0
ARC
  8
_0-0_
  6
CONTINUOUS
 62
    7
 10
8.2694352224389434
 20
35.039489742719155
 40
0.6059782527785415
 50
321.62243468217889
 51
34.797744101326387
  0
LINE
  8
_0-0_
  6
CONTINUOUS
 62
    7
 10
-8.6069555023352962
 20
27.803927075721049
 11
-6.914682492193748
 21
28.548527200183329
  0
LINE
  8
_0-0_
  6
CONTINUOUS
 62
    7
 10
-7.8172280976025803
 20
27.014199670988319
 11
-6.1249550874610179
 21
27.510599753963177
  0
LINE
  8
_0-0_
  6
CONTINUOUS
 62
    7
 10
5.8112105440707751
 20
34.595582756422502
 11
7.9096290766462971
 21
35.475564721696117
  0
LINE
  8
_0-0_
  6
CONTINUOUS
 62
    7
 10
8.7444837616494624
 20
34.663273676828169
 11
6.9168289106965801
 21
33.941237192501106
  0
LINE
  8
_0-0_
  6
CONTINUOUS
 62
    7
 10
-12.352519764781945
 20
25.886017664227282
 11
-9.5546283880145779
 21
25.073726619359334
  0
ARC
  8
_0-0_
  6
CONTINUOUS
 62
    7
 10
-25.557931792996911
 20
-3.955878735766106
 40
0.6101162942834222
 50
120.80562440773897
 51
199.45002395377449
  0
ARC
  8
_0-0_
  6
CONTINUOUS
 62
    7
 10
-25.765800029627627
 20
-3.9019073345726554
 40
0.4815583030861326
 50
46.171556452067072
 51
102.54395063351451
  0
ARC
  8
_0-0_
  6
CONTINUOUS
 62
    7
 10
-26.024571438807953
 20
-3.784066358814016
 40
0.6351855863554218
 50
312.09267880434896
 51
21.186884306121215
  0
ARC
  8
_0-0_
  6
CONTINUOUS
 62
    7
 10
-25.834538819479945
 20
-4.0327133068082333
 40
0.3243060945393332
 50
202.92482719861917
 51
316.63083553410945
  0
ARC
  8
_0-0_
  6
CONTINUOUS
 62
    7
 10
-21.917787643912519
 20
-2.9609215881080218
 40
0.6101162942834222
 50
120.80562440773897
 51
199.45002395377449
  0
ARC
  8
_0-0_
  6
CONTINUOUS
 62
    7
 10
-22.125655880543235
 20
-2.9069501869145711
 40
0.4815583030861326
 50
46.171556452067072
 51
102.54395063351451
  0
ARC
  8
_0-0_
  6
CONTINUOUS
 62
    7
 10
-22.384427289723561
 20
-2.7891092111559317
 40
0.6351855863554218
 50
312.09267880434896
 51
21.186884306121215
  0
ARC
  8
_0-0_
  6
CONTINUOUS
 62
    7
 10
-22.194394670395553
 20
-3.037756159150149
 40
0.3243060945393332
 50
202.92482719861917
 51
316.63083553410945
  0
ARC
  8
_0-0_
  6
CONTINUOUS
 62
    7
 10
-19.889849603412188
 20
-8.1526632124009666
 40
0.8448853294567773
 50
235.3508333360657
 51
302.77078477246232
  0
ARC
  8
_0-0_
  6
CONTINUOUS
 62
    7
 10
-29.808482126547887
 20
-10.046705962624799
 40
0.8448853294567773
 50
235.3508333360657
 51
302.77078477246232
  0
ARC
  8
_0-0_
  6
CONTINUOUS
 62
    7
 10
-28.670970389006328
 20
-9.7085267974097391
 40
0.8448853294567773
 50
235.3508333360657
 51
302.77078477246232
  0
ARC
  8
_0-0_
  6
CONTINUOUS
 62
    7
 10
-27.44122797004249
 20
-9.3703476321946866
 40
0.8448853294567773
 50
235.3508333360657
 51
302.77078477246232
  0
ARC
  8
_0-0_
  6
CONTINUOUS
 62
    7
 10
-26.18074199060456
 20
-8.8784506646091472
 40
0.8448853294567773
 50
235.3508333360657
 51
302.77078477246232
  0
ARC
  8
_0-0_
  6
CONTINUOUS
 62
    7
 10
-24.674307527373841
 20
-8.4787843784459014
 40
0.8448853294567773
 50
235.3508333360657
 51
302.77078477246232
  0
ARC
  8
_0-0_
  6
CONTINUOUS
 62
    7
 10
-23.598282910780483
 20
-8.0791180922826484
 40
0.8448853294567773
 50
235.3508333360657
 51
302.77078477246232
  0
ARC
  8
_0-0_
  6
CONTINUOUS
 62
    7
 10
-21.692182161386526
 20
-7.8946567294380756
 40
0.8448853294567773
 50
235.3508333360657
 51
302.77078477246232
  0
ARC
  8
_0-0_
  6
CONTINUOUS
 62
    7
 10
-19.878312093414863
 20
-7.3412726409043429
 40
0.8448853294567773
 50
235.3508333360657
 51
302.77078477246232
  0
ARC
  8
_0-0_
  6
CONTINUOUS
 62
    7
 10
-18.402621190658252
 20
-6.8801192337929038
 40
0.8448853294567773
 50
235.3508333360657
 51
302.77078477246232
  0
ARC
  8
_0-0_
  6
CONTINUOUS
 62
    7
 10
-27.226023046723824
 20
-10.261910885943472
 40
0.8448853294567773
 50
235.3508333360657
 51
302.77078477246232
  0
ARC
  8
_0-0_
  6
CONTINUOUS
 62
    7
 10
-26.426690474397319
 20
-9.892988160254319
 40
0.8448853294567773
 50
235.3508333360657
 51
302.77078477246232
  0
ARC
  8
_0-0_
  6
CONTINUOUS
 62
    7
 10
-25.319922297329867
 20
-9.7085267974097391
 40
0.8448853294567773
 50
235.3508333360657
 51
302.77078477246232
  0
ARC
  8
_0-0_
  6
CONTINUOUS
 62
    7
 10
-24.059436317891922
 20
-9.462578313616973
 40
0.8448853294567773
 50
235.3508333360657
 51
302.77078477246232
  0
ARC
  8
_0-0_
  6
CONTINUOUS
 62
    7
 10
-22.983411701298564
 20
-9.0936555879278202
 40
0.8448853294567773
 50
235.3508333360657
 51
302.77078477246232
  0
ARC
  8
_0-0_
  6
CONTINUOUS
 62
    7
 10
-21.78441284280882
 20
-8.9399377855573405
 40
0.8448853294567773
 50
235.3508333360657
 51
302.77078477246232
  0
ARC
  8
_0-0_
  6
CONTINUOUS
 62
    7
 10
-20.923593149534128
 20
-8.6325021808163811
 40
0.8448853294567773
 50
235.3508333360657
 51
302.77078477246232
  0
ARC
  8
_0-0_
  6
CONTINUOUS
 62
    7
 10
-18.402621190658252
 20
-7.7409389270675959
 40
0.8448853294567773
 50
235.3508333360657
 51
302.77078477246232
  0
ARC
  8
_0-0_
  6
CONTINUOUS
 62
    7
 10
-16.742468925057068
 20
-6.6341707500001377
 40
0.8448853294567773
 50
235.3508333360657
 51
302.77078477246232
  0
ARC
  8
_0-0_
  6
CONTINUOUS
 62
    7
 10
-15.420495824670937
 20
-6.2037609033627916
 40
0.8448853294567773
 50
235.3508333360657
 51
302.77078477246232
  0
ARC
  8
_0-0_
  6
CONTINUOUS
 62
    7
 10
-13.760343559069753
 20
-5.6503768148290661
 40
0.8448853294567773
 50
235.3508333360657
 51
302.77078477246232
  0
ARC
  8
_0-0_
  6
CONTINUOUS
 62
    7
 10
-12.315396216787235
 20
-5.4044283310362928
 40
0.8448853294567773
 50
235.3508333360657
 51
302.77078477246232
  0
ARC
  8
_0-0_
  6
CONTINUOUS
 62
    7
 10
-11.05491023734929
 20
-5.0355056053471401
 40
0.8448853294567773
 50
235.3508333360657
 51
302.77078477246232
  0
ARC
  8
_0-0_
  6
CONTINUOUS
 62
    7
 10
-9.8866549393336385
 20
-4.8203006820284671
 40
0.8448853294567773
 50
235.3508333360657
 51
302.77078477246232
  0
ARC
  8
_0-0_
  6
CONTINUOUS
 62
    7
 10
-8.0420413108878819
 20
-4.3591472749170279
 40
0.8448853294567773
 50
235.3508333360657
 51
302.77078477246232
  0
ARC
  8
_0-0_
  6
CONTINUOUS
 62
    7
 10
-6.3204019243384977
 20
-4.0824552306501616
 40
0.8448853294567773
 50
235.3508333360657
 51
302.77078477246232
  0
ARC
  8
_0-0_
  6
CONTINUOUS
 62
    7
 10
-3.1538151955066098
 20
-3.2216355373754766
 40
0.8448853294567773
 50
235.3508333360657
 51
302.77078477246232
  0
ARC
  8
_0-0_
  6
CONTINUOUS
 62
    7
 10
-0.6020996761566266
 20
-3.0064306140567965
 40
0.8448853294567773
 50
235.3508333360657
 51
302.77078477246232
  0
ARC
  8
_0-0_
  6
CONTINUOUS
 62
    7
 10
-0.7250739180530132
 20
-4.0517116701760685
 40
0.8448853294567773
 50
235.3508333360657
 51
302.77078477246232
  0
ARC
  8
_0-0_
  6
CONTINUOUS
 62
    7
 10
-3.0000973931361301
 20
-4.4821215168134145
 40
0.8448853294567773
 50
235.3508333360657
 51
302.77078477246232
  0
ARC
  8
_0-0_
  6
CONTINUOUS
 62
    7
 10
-5.7977613962788723
 20
-5.2507105286658131
 40
0.8448853294567773
 50
235.3508333360657
 51
302.77078477246232
  0
ARC
  8
_0-0_
  6
CONTINUOUS
 62
    7
 10
-5.6133000334342853
 20
-6.1115302219405052
 40
0.8448853294567773
 50
235.3508333360657
 51
302.77078477246232
  0
ARC
  8
_0-0_
  6
CONTINUOUS
 62
    7
 10
-5.3980951101156194
 20
-7.2797855199561567
 40
0.8448853294567773
 50
235.3508333360657
 51
302.77078477246232
  0
ARC
  8
_0-0_
  6
CONTINUOUS
 62
    7
 10
-5.1828901867969535
 20
-8.2635794551272284
 40
0.8448853294567773
 50
235.3508333360657
 51
302.77078477246232
  0
ARC
  8
_0-0_
  6
CONTINUOUS
 62
    7
 10
-4.9369417030041802
 20
-9.4010911926687797
 40
0.8448853294567773
 50
235.3508333360657
 51
302.77078477246232
  0
ARC
  8
_0-0_
  6
CONTINUOUS
 62
    7
 10
-4.7524803401595932
 20
-10.415628688313951
 40
0.8448853294567773
 50
235.3508333360657
 51
302.77078477246232
  0
ARC
  8
_0-0_
  6
CONTINUOUS
 62
    7
 10
-4.5680189773150204
 20
-11.245704821114543
 40
0.8448853294567773
 50
235.3508333360657
 51
302.77078477246232
  0
ARC
  8
_0-0_
  6
CONTINUOUS
 62
    7
 10
-4.2913269330481683
 20
-12.168011635337429
 40
0.8448853294567773
 50
235.3508333360657
 51
302.77078477246232
  0
ARC
  8
_0-0_
  6
CONTINUOUS
 62
    7
 10
-4.1376091306776743
 20
-12.967344207663928
 40
0.8448853294567773
 50
235.3508333360657
 51
302.77078477246232
  0
ARC
  8
_0-0_
  6
CONTINUOUS
 62
    7
 10
-3.8916606468849153
 20
-13.858907461412713
 40
0.8448853294567773
 50
235.3508333360657
 51
302.77078477246232
  0
ARC
  8
_0-0_
  6
CONTINUOUS
 62
    7
 10
-3.0923280745584094
 20
-5.9578124195700255
 40
0.8448853294567773
 50
235.3508333360657
 51
302.77078477246232
  0
ARC
  8
_0-0_
  6
CONTINUOUS
 62
    7
 10
-3.0000973931361301
 20
-6.8493756733188107
 40
0.8448853294567773
 50
235.3508333360657
 51
302.77078477246232
  0
ARC
  8
_0-0_
  6
CONTINUOUS
 62
    7
 10
-2.9078667117138366
 20
-7.8331696084898823
 40
0.8448853294567773
 50
235.3508333360657
 51
302.77078477246232
  0
ARC
  8
_0-0_
  6
CONTINUOUS
 62
    7
 10
-2.7541489093433569
 20
-8.7554764227127677
 40
0.8448853294567773
 50
235.3508333360657
 51
302.77078477246232
  0
ARC
  8
_0-0_
  6
CONTINUOUS
 62
    7
 10
-2.8463795907656504
 20
-9.6162961159874527
 40
0.8448853294567773
 50
235.3508333360657
 51
302.77078477246232
  0
ARC
  8
_0-0_
  6
CONTINUOUS
 62
    7
 10
-2.6926617883951565
 20
-10.477115809262145
 40
0.8448853294567773
 50
235.3508333360657
 51
302.77078477246232
  0
ARC
  8
_0-0_
  6
CONTINUOUS
 62
    7
 10
-2.4467133046023974
 20
-11.307191942062737
 40
0.8448853294567773
 50
235.3508333360657
 51
302.77078477246232
  0
ARC
  8
_0-0_
  6
CONTINUOUS
 62
    7
 10
-2.2929955022319177
 20
-12.168011635337429
 40
0.8448853294567773
 50
235.3508333360657
 51
302.77078477246232
  0
ARC
  8
_0-0_
  6
CONTINUOUS
 62
    7
 10
-2.139277699861438
 20
-13.121062010034407
 40
0.8448853294567773
 50
235.3508333360657
 51
302.77078477246232
  0
ARC
  8
_0-0_
  6
CONTINUOUS
 62
    7
 10
-1.9855598974909583
 20
-14.104855945205479
 40
0.8448853294567773
 50
235.3508333360657
 51
302.77078477246232
  0
ARC
  8
_0-0_
  6
CONTINUOUS
 62
    7
 10
-0.5098689947343473
 20
-5.2814540891399133
 40
0.8448853294567773
 50
235.3508333360657
 51
302.77078477246232
  0
ARC
  8
_0-0_
  6
CONTINUOUS
 62
    7
 10
-0.4791254342602542
 20
-6.3574787057332713
 40
0.8448853294567773
 50
235.3508333360657
 51
302.77078477246232
  0
ARC
  8
_0-0_
  6
CONTINUOUS
 62
    7
 10
-0.4176383133120538
 20
-7.3105290804302498
 40
0.8448853294567773
 50
235.3508333360657
 51
302.77078477246232
  0
ARC
  8
_0-0_
  6
CONTINUOUS
 62
    7
 10
-0.4791254342602542
 20
-8.4172972574977081
 40
0.8448853294567773
 50
235.3508333360657
 51
302.77078477246232
  0
ARC
  8
_0-0_
  6
CONTINUOUS
 62
    7
 10
-0.4483818737861469
 20
-10.630833611632625
 40
0.8448853294567773
 50
235.3508333360657
 51
302.77078477246232
  0
ARC
  8
_0-0_
  6
CONTINUOUS
 62
    7
 10
-0.263920510941574
 20
-11.583883986329603
 40
0.8448853294567773
 50
235.3508333360657
 51
302.77078477246232
  0
ARC
  8
_0-0_
  6
CONTINUOUS
 62
    7
 10
-0.263920510941574
 20
-12.598421481974775
 40
0.8448853294567773
 50
235.3508333360657
 51
302.77078477246232
  0
ARC
  8
_0-0_
  6
CONTINUOUS
 62
    7
 10
-0.2946640714156671
 20
-13.828163900938613
 40
0.8448853294567773
 50
235.3508333360657
 51
302.77078477246232
  0
ARC
  8
_0-0_
  6
CONTINUOUS
 62
    7
 10
-8.1650155527842685
 20
-5.5888896938808728
 40
0.8448853294567773
 50
235.3508333360657
 51
302.77078477246232
  0
ARC
  8
_0-0_
  6
CONTINUOUS
 62
    7
 10
-7.9498106294655884
 20
-6.7878885523706174
 40
0.8448853294567773
 50
235.3508333360657
 51
302.77078477246232
  0
ARC
  8
_0-0_
  6
CONTINUOUS
 62
    7
 10
-7.5808879037764427
 20
-7.8946567294380756
 40
0.8448853294567773
 50
235.3508333360657
 51
302.77078477246232
  0
ARC
  8
_0-0_
  6
CONTINUOUS
 62
    7
 10
-7.3656829804577626
 20
-9.0014249065055338
 40
0.8448853294567773
 50
235.3508333360657
 51
302.77078477246232
  0
ARC
  8
_0-0_
  6
CONTINUOUS
 62
    7
 10
-7.1197344966649894
 20
-9.9237317207284121
 40
0.8448853294567773
 50
235.3508333360657
 51
302.77078477246232
  0
ARC
  8
_0-0_
  6
CONTINUOUS
 62
    7
 10
-6.7200682105017506
 20
-11.122730579218164
 40
0.8448853294567773
 50
235.3508333360657
 51
302.77078477246232
  0
ARC
  8
_0-0_
  6
CONTINUOUS
 62
    7
 10
-6.9045295733463234
 20
-10.753807853529011
 40
0.8448853294567773
 50
235.3508333360657
 51
302.77078477246232
  0
ARC
  8
_0-0_
  6
CONTINUOUS
 62
    7
 10
-6.3511454848125908
 20
-11.860576030596469
 40
0.8448853294567773
 50
235.3508333360657
 51
302.77078477246232
  0
ARC
  8
_0-0_
  6
CONTINUOUS
 62
    7
 10
-5.8285049567529654
 20
-13.121062010034407
 40
0.8448853294567773
 50
235.3508333360657
 51
302.77078477246232
  0
ARC
  8
_0-0_
  6
CONTINUOUS
 62
    7
 10
-5.9822227591234451
 20
-12.475447240078388
 40
0.8448853294567773
 50
235.3508333360657
 51
302.77078477246232
  0
ARC
  8
_0-0_
  6
CONTINUOUS
 62
    7
 10
-10.716731072134237
 20
-6.3574787057332713
 40
0.8448853294567773
 50
235.3508333360657
 51
302.77078477246232
  0
ARC
  8
_0-0_
  6
CONTINUOUS
 62
    7
 10
-10.286321225496891
 20
-7.1875548385338632
 40
0.8448853294567773
 50
235.3508333360657
 51
302.77078477246232
  0
ARC
  8
_0-0_
  6
CONTINUOUS
 62
    7
 10
-9.9481420602818389
 20
-8.0483745318085553
 40
0.8448853294567773
 50
235.3508333360657
 51
302.77078477246232
  0
ARC
  8
_0-0_
  6
CONTINUOUS
 62
    7
 10
-9.7021935764890657
 20
-8.9706813460314407
 40
0.8448853294567773
 50
235.3508333360657
 51
302.77078477246232
  0
ARC
  8
_0-0_
  6
CONTINUOUS
 62
    7
 10
-9.3640144112740131
 20
-9.892988160254319
 40
0.8448853294567773
 50
235.3508333360657
 51
302.77078477246232
  0
ARC
  8
_0-0_
  6
CONTINUOUS
 62
    7
 10
-8.902861004162574
 20
-10.907525655899491
 40
0.8448853294567773
 50
235.3508333360657
 51
302.77078477246232
  0
ARC
  8
_0-0_
  6
CONTINUOUS
 62
    7
 10
-8.3494769156288413
 20
-12.075780953915142
 40
0.8448853294567773
 50
235.3508333360657
 51
302.77078477246232
  0
ARC
  8
_0-0_
  6
CONTINUOUS
 62
    7
 10
-7.7960928270951086
 20
-12.936600647189827
 40
0.8448853294567773
 50
235.3508333360657
 51
302.77078477246232
  0
ARC
  8
_0-0_
  6
CONTINUOUS
 62
    7
 10
-13.114728789113727
 20
-6.8801192337929038
 40
0.8448853294567773
 50
235.3508333360657
 51
302.77078477246232
  0
ARC
  8
_0-0_
  6
CONTINUOUS
 62
    7
 10
-12.776549623898674
 20
-7.7409389270675959
 40
0.8448853294567773
 50
235.3508333360657
 51
302.77078477246232
  0
ARC
  8
_0-0_
  6
CONTINUOUS
 62
    7
 10
-12.284652656313142
 20
-8.6939893017645744
 40
0.8448853294567773
 50
235.3508333360657
 51
302.77078477246232
  0
ARC
  8
_0-0_
  6
CONTINUOUS
 62
    7
 10
-11.854242809675796
 20
-9.8315010393061257
 40
0.8448853294567773
 50
235.3508333360657
 51
302.77078477246232
  0
ARC
  8
_0-0_
  6
CONTINUOUS
 62
    7
 10
-11.331602281616156
 20
-10.661577172106718
 40
0.8448853294567773
 50
235.3508333360657
 51
302.77078477246232
  0
ARC
  8
_0-0_
  6
CONTINUOUS
 62
    7
 10
-10.839705314030624
 20
-11.553140425855503
 40
0.8448853294567773
 50
235.3508333360657
 51
302.77078477246232
  0
ARC
  8
_0-0_
  6
CONTINUOUS
 62
    7
 10
-10.224834104548705
 20
-12.475447240078388
 40
0.8448853294567773
 50
235.3508333360657
 51
302.77078477246232
  0
ARC
  8
_0-0_
  6
CONTINUOUS
 62
    7
 10
-15.236034461826364
 20
-7.5257340037489229
 40
0.8448853294567773
 50
235.3508333360657
 51
302.77078477246232
  0
ARC
  8
_0-0_
  6
CONTINUOUS
 62
    7
 10
-14.774881054714911
 20
-8.5710150598681878
 40
0.8448853294567773
 50
235.3508333360657
 51
302.77078477246232
  0
ARC
  8
_0-0_
  6
CONTINUOUS
 62
    7
 10
-14.375214768551672
 20
-9.3396040717205935
 40
0.8448853294567773
 50
235.3508333360657
 51
302.77078477246232
  0
ARC
  8
_0-0_
  6
CONTINUOUS
 62
    7
 10
-13.791087119543846
 20
-10.477115809262145
 40
0.8448853294567773
 50
235.3508333360657
 51
302.77078477246232
  0
ARC
  8
_0-0_
  6
CONTINUOUS
 62
    7
 10
-13.268446591484206
 20
-11.245704821114543
 40
0.8448853294567773
 50
235.3508333360657
 51
302.77078477246232
  0
ARC
  8
_0-0_
  6
CONTINUOUS
 62
    7
 10
-12.868780305320968
 20
-12.229498756285622
 40
0.8448853294567773
 50
235.3508333360657
 51
302.77078477246232
  0
ARC
  8
_0-0_
  6
CONTINUOUS
 62
    7
 10
-17.203622332168507
 20
-8.8784506646091472
 40
0.8448853294567773
 50
235.3508333360657
 51
302.77078477246232
  0
ARC
  8
_0-0_
  6
CONTINUOUS
 62
    7
 10
-16.650238243634774
 20
-9.8622445997802259
 40
0.8448853294567773
 50
235.3508333360657
 51
302.77078477246232
  0
ARC
  8
_0-0_
  6
CONTINUOUS
 62
    7
 10
-15.850905671308283
 20
-10.692320732580818
 40
0.8448853294567773
 50
235.3508333360657
 51
302.77078477246232
  0
ARC
  8
_0-0_
  6
CONTINUOUS
 62
    7
 10
-15.266778022300457
 20
-11.430166183959123
 40
0.8448853294567773
 50
235.3508333360657
 51
302.77078477246232
  0
ARC
  8
_0-0_
  6
CONTINUOUS
 62
    7
 10
-19.017492400140171
 20
-9.4318347531428799
 40
0.8448853294567773
 50
235.3508333360657
 51
302.77078477246232
  0
ARC
  8
_0-0_
  6
CONTINUOUS
 62
    7
 10
-18.248903388287772
 20
-10.569346490684431
 40
0.8448853294567773
 50
235.3508333360657
 51
302.77078477246232
  0
ARC
  8
_0-0_
  6
CONTINUOUS
 62
    7
 10
-17.941467783546813
 20
-11.399422623485023
 40
0.8448853294567773
 50
235.3508333360657
 51
302.77078477246232
  0
ARC
  8
_0-0_
  6
CONTINUOUS
 62
    7
 10
-21.015823830956421
 20
-9.8315010393061257
 40
0.8448853294567773
 50
235.3508333360657
 51
302.77078477246232
  0
ARC
  8
_0-0_
  6
CONTINUOUS
 62
    7
 10
-20.155004137681729
 20
-10.846038534951298
 40
0.8448853294567773
 50
235.3508333360657
 51
302.77078477246232
  0
ARC
  8
_0-0_
  6
CONTINUOUS
 62
    7
 10
-22.737463217505791
 20
-10.108193083572992
 40
0.8448853294567773
 50
235.3508333360657
 51
302.77078477246232
  0
ARC
  8
_0-0_
  6
CONTINUOUS
 62
    7
 10
-21.968874205653393
 20
-10.969012776847684
 40
0.8448853294567773
 50
235.3508333360657
 51
302.77078477246232
  0
ARC
  8
_0-0_
  6
CONTINUOUS
 62
    7
 10
-24.305384801684696
 20
-10.446372248788045
 40
0.8448853294567773
 50
235.3508333360657
 51
302.77078477246232
  0
ARC
  8
_0-0_
  6
CONTINUOUS
 62
    7
 10
-17.357340134538987
 20
-8.1406052132308417
 40
0.8448853294567773
 50
235.3508333360657
 51
302.77078477246232
  0
ARC
  8
_0-0_
  6
CONTINUOUS
 62
    7
 10
2.3800256898306884
 20
-3.5905582630646222
 40
0.8448853294567773
 50
235.3508333360657
 51
302.77078477246232
  0
ARC
  8
_0-0_
  6
CONTINUOUS
 62
    7
 10
2.3492821293565811
 20
-4.8203006820284671
 40
0.8448853294567773
 50
235.3508333360657
 51
302.77078477246232
  0
ARC
  8
_0-0_
  6
CONTINUOUS
 62
    7
 10
2.2877950084083949
 20
-5.8040946171995387
 40
0.8448853294567773
 50
235.3508333360657
 51
302.77078477246232
  0
ARC
  8
_0-0_
  6
CONTINUOUS
 62
    7
 10
2.2570514479343018
 20
-6.7264014314224241
 40
0.8448853294567773
 50
235.3508333360657
 51
302.77078477246232
  0
ARC
  8
_0-0_
  6
CONTINUOUS
 62
    7
 10
2.2570514479343018
 20
-7.8024260480157821
 40
0.8448853294567773
 50
235.3508333360657
 51
302.77078477246232
  0
ARC
  8
_0-0_
  6
CONTINUOUS
 62
    7
 10
2.2570514479343018
 20
-8.9706813460314336
 40
0.8448853294567773
 50
235.3508333360657
 51
302.77078477246232
  0
ARC
  8
_0-0_
  6
CONTINUOUS
 62
    7
 10
2.1033336455638221
 20
-10.999756337321777
 40
0.8448853294567773
 50
235.3508333360657
 51
302.77078477246232
  0
ARC
  8
_0-0_
  6
CONTINUOUS
 62
    7
 10
2.0111029641415286
 20
-12.045037393441042
 40
0.8448853294567773
 50
235.3508333360657
 51
302.77078477246232
  0
ARC
  8
_0-0_
  6
CONTINUOUS
 62
    7
 10
2.0111029641415286
 20
-13.213292691456694
 40
0.8448853294567773
 50
235.3508333360657
 51
302.77078477246232
  0
ARC
  8
_0-0_
  6
CONTINUOUS
 62
    7
 10
2.0418465246156217
 20
-14.043368824257286
 40
0.8448853294567773
 50
235.3508333360657
 51
302.77078477246232
  0
ARC
  8
_0-0_
  6
CONTINUOUS
 62
    7
 10
4.9009976487065501
 20
-4.0824552306501616
 40
0.8448853294567773
 50
235.3508333360657
 51
302.77078477246232
  0
ARC
  8
_0-0_
  6
CONTINUOUS
 62
    7
 10
4.870254088232457
 20
-4.9432749239248537
 40
0.8448853294567773
 50
235.3508333360657
 51
302.77078477246232
  0
ARC
  8
_0-0_
  6
CONTINUOUS
 62
    7
 10
4.6857927253878842
 20
-6.080786661466405
 40
0.8448853294567773
 50
235.3508333360657
 51
302.77078477246232
  0
ARC
  8
_0-0_
  6
CONTINUOUS
 62
    7
 10
4.5320749230174044
 20
-7.0030934756892904
 40
0.8448853294567773
 50
235.3508333360657
 51
302.77078477246232
  0
ARC
  8
_0-0_
  6
CONTINUOUS
 62
    7
 10
4.4398442415951251
 20
-8.1098616527567486
 40
0.8448853294567773
 50
235.3508333360657
 51
302.77078477246232
  0
ARC
  8
_0-0_
  6
CONTINUOUS
 62
    7
 10
4.1938957578023519
 20
-9.3396040717205864
 40
0.8448853294567773
 50
235.3508333360657
 51
302.77078477246232
  0
ARC
  8
_0-0_
  6
CONTINUOUS
 62
    7
 10
4.1016650763800584
 20
-10.231167325469372
 40
0.8448853294567773
 50
235.3508333360657
 51
302.77078477246232
  0
ARC
  8
_0-0_
  6
CONTINUOUS
 62
    7
 10
4.1324086368541515
 20
-11.33793550253683
 40
0.8448853294567773
 50
235.3508333360657
 51
302.77078477246232
  0
ARC
  8
_0-0_
  6
CONTINUOUS
 62
    7
 10
3.9172037135354856
 20
-12.352472998182002
 40
0.8448853294567773
 50
235.3508333360657
 51
302.77078477246232
  0
ARC
  8
_0-0_
  6
CONTINUOUS
 62
    7
 10
3.7634859111650059
 20
-13.30552337287898
 40
0.8448853294567773
 50
235.3508333360657
 51
302.77078477246232
  0
ARC
  8
_0-0_
  6
CONTINUOUS
 62
    7
 10
7.3912260471083329
 20
-4.8510442425025602
 40
0.8448853294567773
 50
235.3508333360657
 51
302.77078477246232
  0
ARC
  8
_0-0_
  6
CONTINUOUS
 62
    7
 10
7.1452775633155738
 20
-5.9270688590959253
 40
0.8448853294567773
 50
235.3508333360657
 51
302.77078477246232
  0
ARC
  8
_0-0_
  6
CONTINUOUS
 62
    7
 10
7.0530468818932803
 20
-7.0338370361633835
 40
0.8448853294567773
 50
235.3508333360657
 51
302.77078477246232
  0
ARC
  8
_0-0_
  6
CONTINUOUS
 62
    7
 10
6.7148677166782278
 20
-7.9254002899121687
 40
0.8448853294567773
 50
235.3508333360657
 51
302.77078477246232
  0
ARC
  8
_0-0_
  6
CONTINUOUS
 62
    7
 10
6.5611499143077481
 20
-9.0014249065055338
 40
0.8448853294567773
 50
235.3508333360657
 51
302.77078477246232
  0
ARC
  8
_0-0_
  6
CONTINUOUS
 62
    7
 10
6.3459449909890679
 20
-10.384885127839851
 40
0.8448853294567773
 50
235.3508333360657
 51
302.77078477246232
  0
ARC
  8
_0-0_
  6
CONTINUOUS
 62
    7
 10
6.1614836281444951
 20
-11.399422623485023
 40
0.8448853294567773
 50
235.3508333360657
 51
302.77078477246232
  0
ARC
  8
_0-0_
  6
CONTINUOUS
 62
    7
 10
5.8233044629294426
 20
-12.536934361026582
 40
0.8448853294567773
 50
235.3508333360657
 51
302.77078477246232
  0
ARC
  8
_0-0_
  6
CONTINUOUS
 62
    7
 10
5.700330221033056
 20
-13.45924117524946
 40
0.8448853294567773
 50
235.3508333360657
 51
302.77078477246232
  0
ARC
  8
_0-0_
  6
CONTINUOUS
 62
    7
 10
10.250377171199275
 20
-5.4044283310362928
 40
0.8448853294567773
 50
235.3508333360657
 51
302.77078477246232
  0
ARC
  8
_0-0_
  6
CONTINUOUS
 62
    7
 10
9.6662495221914497
 20
-6.6956578709483239
 40
0.8448853294567773
 50
235.3508333360657
 51
302.77078477246232
  0
ARC
  8
_0-0_
  6
CONTINUOUS
 62
    7
 10
9.3895574779245834
 20
-7.7409389270675888
 40
0.8448853294567773
 50
235.3508333360657
 51
302.77078477246232
  0
ARC
  8
_0-0_
  6
CONTINUOUS
 62
    7
 10
8.9898911917613304
 20
-9.2473733902983
 40
0.8448853294567773
 50
235.3508333360657
 51
302.77078477246232
  0
ARC
  8
_0-0_
  6
CONTINUOUS
 62
    7
 10
8.682455587020371
 20
-10.415628688313951
 40
0.8448853294567773
 50
235.3508333360657
 51
302.77078477246232
  0
ARC
  8
_0-0_
  6
CONTINUOUS
 62
    7
 10
8.2827893008571323
 20
-11.553140425855503
 40
0.8448853294567773
 50
235.3508333360657
 51
302.77078477246232
  0
ARC
  8
_0-0_
  6
CONTINUOUS
 62
    7
 10
8.0675843775384521
 20
-12.444703679604288
 40
0.8448853294567773
 50
235.3508333360657
 51
302.77078477246232
  0
ARC
  8
_0-0_
  6
CONTINUOUS
 62
    7
 10
12.217965041541419
 20
-6.480452947629658
 40
0.8448853294567773
 50
235.3508333360657
 51
302.77078477246232
  0
ARC
  8
_0-0_
  6
CONTINUOUS
 62
    7
 10
11.81829875537818
 20
-7.3720162013784432
 40
0.8448853294567773
 50
235.3508333360657
 51
302.77078477246232
  0
ARC
  8
_0-0_
  6
CONTINUOUS
 62
    7
 10
11.357145348266727
 20
-8.8169635436609539
 40
0.8448853294567773
 50
235.3508333360657
 51
302.77078477246232
  0
ARC
  8
_0-0_
  6
CONTINUOUS
 62
    7
 10
10.895991941155287
 20
-10.015962402150699
 40
0.8448853294567773
 50
235.3508333360657
 51
302.77078477246232
  0
ARC
  8
_0-0_
  6
CONTINUOUS
 62
    7
 10
10.527069215466142
 20
-11.03049989779587
 40
0.8448853294567773
 50
235.3508333360657
 51
302.77078477246232
  0
ARC
  8
_0-0_
  6
CONTINUOUS
 62
    7
 10
10.342607852621555
 20
-11.891319591070562
 40
0.8448853294567773
 50
235.3508333360657
 51
302.77078477246232
  0
ARC
  8
_0-0_
  6
CONTINUOUS
 62
    7
 10
14.523732077098629
 20
-7.1260677175856699
 40
0.8448853294567773
 50
235.3508333360657
 51
302.77078477246232
  0
ARC
  8
_0-0_
  6
CONTINUOUS
 62
    7
 10
14.154809351409469
 20
-8.5710150598681878
 40
0.8448853294567773
 50
235.3508333360657
 51
302.77078477246232
  0
ARC
  8
_0-0_
  6
CONTINUOUS
 62
    7
 10
13.60142526287575
 20
-9.9852188416766055
 40
0.8448853294567773
 50
235.3508333360657
 51
302.77078477246232
  0
ARC
  8
_0-0_
  6
CONTINUOUS
 62
    7
 10
13.724399504772123
 20
-9.2166298298242069
 40
0.8448853294567773
 50
235.3508333360657
 51
302.77078477246232
  0
ARC
  8
_0-0_
  6
CONTINUOUS
 62
    7
 10
13.232502537186591
 20
-10.907525655899484
 40
0.8448853294567773
 50
235.3508333360657
 51
302.77078477246232
  0
ARC
  8
_0-0_
  6
CONTINUOUS
 62
    7
 10
12.832836251023338
 20
-11.829832470122369
 40
0.8448853294567773
 50
235.3508333360657
 51
302.77078477246232
  0
ARC
  8
_0-0_
  6
CONTINUOUS
 62
    7
 10
16.798755552181731
 20
-7.6487082456453024
 40
0.8448853294567773
 50
235.3508333360657
 51
302.77078477246232
  0
ARC
  8
_0-0_
  6
CONTINUOUS
 62
    7
 10
16.429832826492586
 20
-8.5402714993940876
 40
0.8448853294567773
 50
235.3508333360657
 51
302.77078477246232
  0
ARC
  8
_0-0_
  6
CONTINUOUS
 62
    7
 10
15.84570517748476
 20
-9.9544752812025123
 40
0.8448853294567773
 50
235.3508333360657
 51
302.77078477246232
  0
ARC
  8
_0-0_
  6
CONTINUOUS
 62
    7
 10
15.200090407528734
 20
-10.969012776847677
 40
0.8448853294567773
 50
235.3508333360657
 51
302.77078477246232
  0
ARC
  8
_0-0_
  6
CONTINUOUS
 62
    7
 10
14.738937000417295
 20
-11.768345349174176
 40
0.8448853294567773
 50
235.3508333360657
 51
302.77078477246232
  0
ARC
  8
_0-0_
  6
CONTINUOUS
 62
    7
 10
16.183884342699812
 20
-9.3088605112464933
 40
0.8448853294567773
 50
235.3508333360657
 51
302.77078477246232
  0
ARC
  8
_0-0_
  6
CONTINUOUS
 62
    7
 10
19.166009708687127
 20
-7.6487082456453024
 40
0.8448853294567773
 50
235.3508333360657
 51
302.77078477246232
  0
ARC
  8
_0-0_
  6
CONTINUOUS
 62
    7
 10
16.860242673129932
 20
-7.2182983990079563
 40
0.8448853294567773
 50
235.3508333360657
 51
302.77078477246232
  0
ARC
  8
_0-0_
  6
CONTINUOUS
 62
    7
 10
18.397420696834729
 20
-8.5402714993940876
 40
0.8448853294567773
 50
235.3508333360657
 51
302.77078477246232
  0
ARC
  8
_0-0_
  6
CONTINUOUS
 62
    7
 10
18.212959333990156
 20
-9.4010911926687797
 40
0.8448853294567773
 50
235.3508333360657
 51
302.77078477246232
  0
ARC
  8
_0-0_
  6
CONTINUOUS
 62
    7
 10
17.967010850197383
 20
-9.9852188416766055
 40
0.8448853294567773
 50
235.3508333360657
 51
302.77078477246232
  0
ARC
  8
_0-0_
  6
CONTINUOUS
 62
    7
 10
17.352139640715464
 20
-10.692320732580811
 40
0.8448853294567773
 50
235.3508333360657
 51
302.77078477246232
  0
ARC
  8
_0-0_
  6
CONTINUOUS
 62
    7
 10
17.106191156922691
 20
-11.553140425855503
 40
0.8448853294567773
 50
235.3508333360657
 51
302.77078477246232
  0
ARC
  8
_0-0_
  6
CONTINUOUS
 62
    7
 10
21.502520304718416
 20
-8.1406052132308417
 40
0.8448853294567773
 50
235.3508333360657
 51
302.77078477246232
  0
ARC
  8
_0-0_
  6
CONTINUOUS
 62
    7
 10
20.949136216184698
 20
-9.0936555879278202
 40
0.8448853294567773
 50
235.3508333360657
 51
302.77078477246232
  0
ARC
  8
_0-0_
  6
CONTINUOUS
 62
    7
 10
20.334265006702779
 20
-10.015962402150699
 40
0.8448853294567773
 50
235.3508333360657
 51
302.77078477246232
  0
ARC
  8
_0-0_
  6
CONTINUOUS
 62
    7
 10
19.71939379722086
 20
-10.815294974477197
 40
0.8448853294567773
 50
235.3508333360657
 51
302.77078477246232
  0
ARC
  8
_0-0_
  6
CONTINUOUS
 62
    7
 10
23.654569537905161
 20
-8.5402714993940876
 40
0.8448853294567773
 50
235.3508333360657
 51
302.77078477246232
  0
ARC
  8
_0-0_
  6
CONTINUOUS
 62
    7
 10
22.793749844630469
 20
-9.4318347531428728
 40
0.8448853294567773
 50
235.3508333360657
 51
302.77078477246232
  0
ARC
  8
_0-0_
  6
CONTINUOUS
 62
    7
 10
21.779212348985283
 20
-10.415628688313951
 40
0.8448853294567773
 50
235.3508333360657
 51
302.77078477246232
  0
ARC
  8
_0-0_
  6
CONTINUOUS
 62
    7
 10
25.529926726825011
 20
-8.9706813460314336
 40
0.8448853294567773
 50
235.3508333360657
 51
302.77078477246232
  0
ARC
  8
_0-0_
  6
CONTINUOUS
 62
    7
 10
24.884311956868999
 20
-9.677783236935646
 40
0.8448853294567773
 50
235.3508333360657
 51
302.77078477246232
  0
ARC
  8
_0-0_
  6
CONTINUOUS
 62
    7
 10
24.392414989283452
 20
-10.354141567365758
 40
0.8448853294567773
 50
235.3508333360657
 51
302.77078477246232
  0
ARC
  8
_0-0_
  6
CONTINUOUS
 62
    7
 10
27.220822552900302
 20
-9.3703476321946795
 40
0.8448853294567773
 50
235.3508333360657
 51
302.77078477246232
  0
ARC
  8
_0-0_
  6
CONTINUOUS
 62
    7
 10
26.513720661996075
 20
-10.077449523098892
 40
0.8448853294567773
 50
235.3508333360657
 51
302.77078477246232
  0
ARC
  8
_0-0_
  6
CONTINUOUS
 62
    7
 10
28.880974818501471
 20
-9.8622445997802188
 40
0.8448853294567773
 50
235.3508333360657
 51
302.77078477246232
  0
ARC
  8
_0-0_
  6
CONTINUOUS
 62
    7
 10
14.377278446526134
 20
14.868190643163757
 40
0.4528259157841279
 50
88.416468954582584
 51
170.70286698340553
  0
ARC
  8
_0-0_
  6
CONTINUOUS
 62
    7
 10
14.80185445040452
 20
14.607441474725192
 40
0.9332330384616706
 50
159.03521874649729
 51
229.03726818935471
  0
ARC
  8
_0-0_
  6
CONTINUOUS
 62
    7
 10
14.572846028541235
 20
14.204082230174606
 40
0.4871803979654325
 50
218.21232006014145
 51
304.55638357153219
  0
ARC
  8
_0-0_
  6
CONTINUOUS
 62
    7
 10
14.199275294829178
 20
14.442008596416642
 40
0.9115351237059262
 50
315.47802282573986
 51
3.7691067465855848
  0
ARC
  8
_0-0_
  6
CONTINUOUS
 62
    7
 10
13.52059934175179
 20
14.169266691151805
 40
1.6227042133473462
 50
11.829791675587819
 51
38.57245561536196
  0
ARC
  8
_0-0_
  6
CONTINUOUS
 62
    7
 10
14.383583992244994
 20
14.66252709086892
 40
0.6583458039231683
 50
51.960196150505546
 51
89.459711411119173
  0
ARC
  8
_0-0_
  6
CONTINUOUS
 62
    7
 10
13.938037877238656
 20
14.375626004055363
 40
0.9686433835914465
 50
125.82043808564289
 51
206.54951123183403
  0
ARC
  8
_0-0_
  6
CONTINUOUS
 62
    7
 10
13.789818065839725
 20
14.496551679452693
 40
0.7854009497263091
 50
76.711345865237675
 51
122.21329855081056
  0
ARC
  8
_0-0_
  6
CONTINUOUS
 62
    7
 10
14.242843914477746
 20
14.374954625118775
 40
1.2485286271756819
 50
200.25719338908752
 51
249.74280661091245
  0
ARC
  8
_0-0_
  6
CONTINUOUS
 62
    7
 10
13.935706408978135
 20
13.736069379973046
 40
0.5469295312486482
 50
256.77258439277887
 51
330.08480122471241
  0
ARC
  8
_0-0_
  6
CONTINUOUS
 62
    7
 10
13.999005652523834
 20
14.629586033238937
 40
0.631987101123377
 50
92.598987249016929
 51
173.45114472921796
  0
ARC
  8
_0-0_
  6
CONTINUOUS
 62
    7
 10
14.282790961208363
 20
14.487091692012683
 40
0.9365600627655421
 50
166.75548198426543
 51
236.84733698843814
  0
ARC
  8
_0-0_
  6
CONTINUOUS
 62
    7
 10
14.111225073577856
 20
14.641106377196621
 40
0.9980392808720202
 50
250.04503226199918
 51
281.48217813988214
  0
LINE
  8
_0-0_
  6
CONTINUOUS
 62
    7
 10
13.970347988564882
 20
15.26092305439542
 11
14.389791979236961
 21
15.380764194587442
  0
LINE
  8
_0-0_
  6
CONTINUOUS
 62
    7
 10
14.110162652122241
 20
13.603120615072513
 11
14.769288923178351
 21
13.742935278629872
  0
LINE
  8
_0-0_
  6
CONTINUOUS
 62
    7
 10
14.409765502602298
 20
13.463305951515167
 11
14.449712549332958
 21
13.683014708533861
  0
ARC
  8
_0-0_
  6
CONTINUOUS
 62
    7
 10
15.157143582570455
 20
11.684104153865349
 40
1.0254812024741873
 50
124.95895222636582
 51
195.73339965752737
  0
ARC
  8
_0-0_
  6
CONTINUOUS
 62
    7
 10
15.708381153765501
 20
11.749734741896972
 40
1.5762269451862232
 50
192.59472744616119
 51
244.4656325834932
  0
ARC
  8
_0-0_
  6
CONTINUOUS
 62
    7
 10
15.190431342707996
 20
11.085437613725574
 40
0.7749863036538691
 50
257.97294725166944
 51
342.06378760355028
  0
ARC
  8
_0-0_
  6
CONTINUOUS
 62
    7
 10
14.442449449927551
 20
11.120956393216673
 40
1.5103983690760237
 50
349.541132989559
 51
40.661063333212063
  0
ARC
  8
_0-0_
  6
CONTINUOUS
 62
    7
 10
14.799249208226342
 20
11.635728563586895
 40
0.9180218980281098
 50
30.749967302195788
 51
104.48976259388425
  0
ARC
  8
_0-0_
  6
CONTINUOUS
 62
    7
 10
14.793832659516951
 20
11.502684585916143
 40
1.4458978646919647
 50
146.30435153509194
 51
183.83281410863378
  0
ARC
  8
_0-0_
  6
CONTINUOUS
 62
    7
 10
14.532133413822478
 20
11.465191572925434
 40
1.182445446946524
 50
182.86774296545451
 51
254.19261706419877
  0
ARC
  8
_0-0_
  6
CONTINUOUS
 62
    7
 10
14.779275684861005
 20
11.125294077583888
 40
0.9800893417965728
 50
234.492485816461
 51
274.09023852550922
  0
ARC
  8
_0-0_
  6
CONTINUOUS
 62
    7
 10
13.623754796272721
 20
11.859589710989411
 40
0.6292099331626663
 50
56.575428497882008
 51
144.50293895937477
  0
ARC
  8
_0-0_
  6
CONTINUOUS
 62
    7
 10
14.839450155677696
 20
11.332909637310735
 40
1.9446310716222972
 50
152.69556716815984
 51
209.76838763711999
  0
ARC
  8
_0-0_
  6
CONTINUOUS
 62
    7
 10
14.035020189845469
 20
10.751525025893031
 40
0.96346762697202
 50
203.49567977841778
 51
290.3340528759669
  0
ARC
  8
_0-0_
  6
CONTINUOUS
 62
    7
 10
13.008990771850009
 20
12.169757504090413
 40
2.6910878480474358
 50
300.37646273271281
 51
312.56200604739178
  0
LINE
  8
_0-0_
  6
CONTINUOUS
 62
    7
 10
13.750639231546188
 20
12.404709213152344
 11
14.589527212890317
 21
12.624417970171038
  0
LINE
  8
_0-0_
  6
CONTINUOUS
 62
    7
 10
14.649447782986329
 20
10.167674596234676
 11
15.348521100773098
 21
10.307489259792021
  0
ARC
  8
_0-0_
  6
CONTINUOUS
 62
    7
 10
34.250128797929051
 20
-10.466585887831656
 40
1.057305609751813
 50
274.41224466576205
 51
307.92199059293807
  0
ARC
  8
_0-0_
  6
CONTINUOUS
 62
    7
 10
34.682702962857661
 20
-11.19225809431591
 40
0.2427690336069771
 50
333.48457913949898
 51
88.638840408221142
  0
ARC
  8
_0-0_
  6
CONTINUOUS
 62
    7
 10
38.958184385355366
 20
-11.091878401098178
 40
0.2864360999426934
 50
272.8593478438018
 51
23.608738610899792
  0
ARC
  8
_0-0_
  6
CONTINUOUS
 62
    7
 10
35.654086190390046
 20
-21.869142716003715
 40
11.461044981537967
 50
71.869053202540428
 51
77.048674325132822
  0
ARC
  8
_0-0_
  6
CONTINUOUS
 62
    7
 10
38.690726211790405
 20
-7.8068020098458675
 40
0.50849371362136
 50
4.6574541198293815
 51
65.564635369630679
  0
LINE
  8
_0-0_
  6
CONTINUOUS
 62
    7
 10
39.19754085718364
 20
-7.7655131250539142
 11
39.220646258832375
 21
-10.977163954225425
  0
ENDBLK
  0
ENDSEC
  0
SECTION
  2
ENTITIES
  0
LINE
  8
_0-0_
  6
CONTINUOUS
 62
    7
 10
-1244.420826261083
 20
-1127.4836411798831
 11
1755.579173738917
 21
-1127.4836411798831
  0
LINE
  8
_0-0_
  6
CONTINUOUS
 62
    7
 10
1755.579173738917
 20
-1127.4836411798831
 11
1755.579173738917
 21
1392.5163588201169
  0
LINE
  8
_0-0_
  6
CONTINUOUS
 62
    7
 10
1755.579173738917
 20
1392.5163588201169
 11
-1244.420826261083
 21
1392.5163588201169
  0
LINE
  8
_0-0_
  6
CONTINUOUS
 62
    7
 10
-1244.420826261083
 20
1392.5163588201169
 11
-1244.420826261083
 21
-1127.4836411798831
  0
LINE
  8
_0-0_
  6
CONTINUOUS
 62
    7
 10
-1215.1881720287051
 20
-1099.7116744577415
 11
1784.8118279712949
 21
-1099.7116744577415
  0
LINE
  8
_0-0_
  6
CONTINUOUS
 62
    7
 10
1784.8118279712949
 20
-1099.7116744577415
 11
1784.8118279712949
 21
1420.2883255422585
  0
LINE
  8
_0-0_
  6
CONTINUOUS
 62
    7
 10
1784.8118279712949
 20
1420.2883255422585
 11
-1215.1881720287051
 21
1420.2883255422585
  0
LINE
  8
_0-0_
  6
CONTINUOUS
 62
    7
 10
-1215.1881720287051
 20
1420.2883255422585
 11
-1215.1881720287051
 21
-1099.7116744577415
  0
INSERT
  2
-001-66
  8
_0-0_
 10
148.83673469387756
 20
99.443877551020407
 41
1
 42
1
 50
0
  0
ENDSEC
  0
EOF
