  0
SECTION
  2
HEADER
  9
$ACADVER
  1
AC1009
  9
$INSBASE
 10
0
 20
0
 30
0
  9
$EXTMIN
 10
0
 20
0
  9
$EXTMAX
 10
297
 20
210
  9
$LIMMIN
 10
0
 20
0
  9
$LIMMAX
 10
297
 20
210
  9
$LTSCALE
 40
1
  0
ENDSEC
  0
SECTION
  2
TABLES
  0
TABLE
  2
LTYPE
 70
     9
  0
LTYPE
  2
CONTINUOUS
 70
    64
  3
実線
 72
    65
 73
     0
 40
0.0
  0
LTYPE
  2
DASHED1
 70
    64
  3
--  --  --  --  --  --  --  --  
 72
    65
 73
     2
 40
2.5
 49
1.25
 49
-1.25
  0
LTYPE
  2
DASHED2
 70
    64
  3
----    ----    ----    ----    
 72
    65
 73
     2
 40
5.0
 49
2.5
 49
-2.5
  0
LTYPE
  2
DASHED3
 70
    64
  3
------  ------  ------  ------  
 72
    65
 73
     2
 40
5.0
 49
3.75
 49
-1.25
  0
LTYPE
  2
CENTER1
 70
    64
  3
----- - ----- - ----- - ----- - 
 72
    65
 73
     4
 40
10.0
 49
6.25
 49
-1.25
 49
1.25
 49
-1.25
  0
LTYPE
  2
CENTER2
 70
    64
  3
----------  --  ----------  --  
 72
    65
 73
     4
 40
20.0
 49
12.5
 49
-2.5
 49
2.5
 49
-2.5
  0
LTYPE
  2
PHANTOM1
 70
    64
  3
--- - - --- - - --- - - --- - - 
 72
    65
 73
     6
 40
10.0
 49
3.25
 49
-1.25
 49
1.25
 49
-1.25
 49
1.25
 49
-1.25
  0
LTYPE
  2
PHANTOM2
 70
    64
  3
--------  -  -  --------  -  -  
 72
    65
 73
     6
 40
20.0
 49
10.0
 49
-2.5
 49
1.25
 49
-2.5
 49
1.25
 49
-2.5
  0
LTYPE
  2
DOT
 70
    64
  3
-   -   -   -   -   -   -   -   
 72
    65
 73
     2
 40
2.5
 49
0.625
 49
-1.875
  0
LTYPE
  2
DUMMY
 70
    64
  3
ダミー
 72
    65
 73
     0
 40
0.0
  0
LTYPE
  2
RAND1
 70
    64
  3
ランダム線1
 72
    65
 73
     4
 40
10.0
 49
1.0
 49
-2.0
 49
3.0
 49
-4.0
  0
LTYPE
  2
RAND2
 70
    64
  3
ランダム線2
 72
    65
 73
     4
 40
14.0
 49
2.0
 49
-3.0
 49
4.0
 49
-5.0
  0
LTYPE
  2
RAND3
 70
    64
  3
ランダム線3
 72
    65
 73
     4
 40
18.0
 49
3.0
 49
-4.0
 49
5.0
 49
-6.0
  0
LTYPE
  2
RAND4
 70
    64
  3
ランダム線4
 72
    65
 73
     4
 40
22.0
 49
4.0
 49
-5.0
 49
6.0
 49
-7.0
  0
LTYPE
  2
RAND5
 70
    64
  3
ランダム線5
 72
    65
 73
     4
 40
26.0
 49
5.0
 49
-6.0
 49
7.0
 49
-8.0
  0
LTYPE
  2
LONG1
 70
    64
  3
----------  --  ----------  --  
 72
    65
 73
     4
 40
40.0
 49
32.5
 49
-2.5
 49
2.5
 49
-2.5
  0
LTYPE
  2
LONG2
 70
    64
  3
--------  -  -  --------  -  -  
 72
    65
 73
     6
 40
40.0
 49
30.0
 49
-2.5
 49
1.25
 49
-2.5
 49
1.25
 49
-2.5
  0
LTYPE
  2
LONG3
 70
    64
  3
+++++++++++++++..+++++++++++++++
 72
    65
 73
     2
 40
40.0
 49
37.5
 49
-2.5
  0
LTYPE
  2
LONG4
 70
    64
  3
+++++++++++++++..+++++++++++++++
 72
    65
 73
     2
 40
80.0
 49
75.0
 49
-5.0
  0
LTYPE
  2
LONG5
 70
    64
  3
----------  --  ----------  --  
 72
    65
 73
     4
 40
60.0
 49
37.5
 49
-7.5
 49
7.5
 49
-7.5
  0
LTYPE
  2
dashed
 70
   64
  3
-------   -------------   ------
 72
   65
 73
    2
 40
7.5
 49
6
 49
-1.5
  0
LTYPE
  2
dashed_spaced
 70
   64
  3
----        --------        ----
 72
   65
 73
    2
 40
12
 49
6
 49
-6
  0
LTYPE
  2
long_dashed_dotted
 70
   64
  3
------------- --- --------------
 72
   65
 73
    4
 40
15.25
 49
12
 49
-1.5
 49
0.25
 49
-1.5
  0
LTYPE
  2
long_dashed_double-dotted
 70
   64
  3
----------- --- --- ------------
 72
   65
 73
    6
 40
17
 49
12
 49
-1.5
 49
0.25
 49
-1.5
 49
0.25
 49
-1.5
  0
LTYPE
  2
long_dashed_triplicate-dotted
 70
   64
  3
--------- --- --- --- ----------
 72
   65
 73
    8
 40
18.75
 49
12
 49
-1.5
 49
0.25
 49
-1.5
 49
0.25
 49
-1.5
 49
0.25
 49
-1.5
  0
LTYPE
  2
dotted
 70
   64
  3
   -       -       -       -    
 72
   65
 73
    2
 40
1.75
 49
0.25
 49
-1.5
  0
LTYPE
  2
chain
 70
   64
  3
-------------- -- --------------
 72
   65
 73
    4
 40
18.5
 49
12
 49
-1.5
 49
3.5
 49
-1.5
  0
LTYPE
  2
chain_double_dash
 70
   64
  3
------------ -- -- -------------
 72
   65
 73
    6
 40
23.5
 49
12
 49
-1.5
 49
3.5
 49
-1.5
 49
3.5
 49
-1.5
  0
LTYPE
  2
dashed_dotted
 70
   64
  3
-----------     -     ----------
 72
   65
 73
    4
 40
9.25
 49
6
 49
-1.5
 49
0.25
 49
-1.5
  0
LTYPE
  2
double-dashed_dotted
 70
   64
  3
------   -----------   -   -----
 72
   65
 73
    6
 40
16.75
 49
6
 49
-1.5
 49
6
 49
-1.5
 49
0.25
 49
-1.5
  0
LTYPE
  2
dashed_double-dotted
 70
   64
  3
---------    -    -    ---------
 72
   65
 73
    6
 40
11
 49
6
 49
-1.5
 49
0.25
 49
-1.5
 49
0.25
 49
-1.5
  0
LTYPE
  2
double-dashed_double-dotted
 70
   64
  3
-----   ---------   -   -   ----
 72
   65
 73
    8
 40
18.5
 49
6
 49
-1.5
 49
6
 49
-1.5
 49
0.25
 49
-1.5
 49
0.25
 49
-1.5
  0
LTYPE
  2
dashed_triplicate-dotted
 70
   64
  3
-------    -    -    -    ------
 72
   65
 73
    8
 40
12.75
 49
6
 49
-1.5
 49
0.25
 49
-1.5
 49
0.25
 49
-1.5
 49
0.25
 49
-1.5
  0
LTYPE
  2
double-dashed_triplicate-dotted
 70
   64
  3
-----  ---------  -  -  -  -----
 72
   65
 73
   10
 40
20.25
 49
6
 49
-1.5
 49
6
 49
-1.5
 49
0.25
 49
-1.5
 49
0.25
 49
-1.5
 49
0.25
 49
-1.5
  0
LTYPE
  2
undefined
 70
   64
  3
--------------------------------
 72
   65
 73
    0
 40
0
  0
LTYPE
  2
_
 70
   64
  3
                                
 72
   65
 73
    0
 40
0
  0
LTYPE
  2
__18
 70
   64
  3
                                
 72
   65
 73
    0
 40
0
  0
LTYPE
  2
__19
 70
   64
  3
                                
 72
   65
 73
    0
 40
0
  0
LTYPE
  2
__20
 70
   64
  3
                                
 72
   65
 73
    0
 40
0
  0
LTYPE
  2
__21
 70
   64
  3
                                
 72
   65
 73
    0
 40
0
  0
LTYPE
  2
__22
 70
   64
  3
                                
 72
   65
 73
    0
 40
0
  0
LTYPE
  2
__23
 70
   64
  3
                                
 72
   65
 73
    0
 40
0
  0
LTYPE
  2
__24
 70
   64
  3
                                
 72
   65
 73
    0
 40
0
  0
LTYPE
  2
__25
 70
   64
  3
                                
 72
   65
 73
    0
 40
0
  0
LTYPE
  2
__26
 70
   64
  3
                                
 72
   65
 73
    0
 40
0
  0
LTYPE
  2
__27
 70
   64
  3
                                
 72
   65
 73
    0
 40
0
  0
LTYPE
  2
__28
 70
   64
  3
                                
 72
   65
 73
    0
 40
0
  0
LTYPE
  2
__29
 70
   64
  3
                                
 72
   65
 73
    0
 40
0
  0
LTYPE
  2
__30
 70
   64
  3
                                
 72
   65
 73
    0
 40
0
  0
LTYPE
  2
__31
 70
   64
  3
                                
 72
   65
 73
    0
 40
0
  0
LTYPE
  2
__32
 70
   64
  3
                                
 72
   65
 73
    0
 40
0
  0
ENDTAB
  0
TABLE
  2
STYLE
  5
3
100
AcDbSymbolTable
 70
     1
  0
STYLE
  5
10
100
AcDbSymbolTableRecord
100
AcDbTextStyleTableRecord
  2
STANDARD
 70
     0
 40
0.0
 41
1.0
 50
0.0
 71
     0
 42
0.2
  3
txt
  4
bigfont.shx
  0
STYLE
  5
26
100
AcDbSymbolTableRecord
100
AcDbTextStyleTableRecord
  2
TATEGAKI
 70
    68
 40
0.0
 41
1.0
 50
0.0
 71
     0
 42
1.0
  3
txt
  4
bigfont.shx
  0
ENDTAB
  0
TABLE
  2
LAYER
 70
    2
  0
LAYER
  2
_0-0_
 70
   64
 62
    7
  6
CONTINUOUS
  0
LAYER
  2
ADD_LINE
 70
   64
 62
    7
  6
CONTINUOUS
  0
ENDTAB
  0
ENDSEC
  0
SECTION
  2
BLOCKS
  0
BLOCK
  2
-000-1
 70
   64
 10
0
 20
0
 30
0
  0
LINE
  8
_0-0_
  6
CONTINUOUS
 62
    7
 10
-20.964327258650812
 20
35.013207465107826
 11
-12.148813154920147
 21
39.663148970372362
  0
LINE
  8
_0-0_
  6
CONTINUOUS
 62
    7
 10
-12.148813154920147
 20
39.663148970372362
 11
3.6416132067072926
 21
25.616450673219106
  0
LINE
  8
_0-0_
  6
CONTINUOUS
 62
    7
 10
6.3540790847782791
 20
26.488314705456219
 11
-10.792580215884668
 21
19.02903354076102
  0
LINE
  8
_0-0_
  6
CONTINUOUS
 62
    7
 10
-19.704968100975009
 20
15.154082286373921
 11
-26.098637670713728
 21
12.054121282864244
  0
LINE
  8
_0-0_
  6
CONTINUOUS
 62
    7
 10
-26.098637670713728
 20
12.054121282864244
 11
-26.098637670713728
 21
7.0166846521610049
  0
LINE
  8
_0-0_
  6
CONTINUOUS
 62
    7
 10
-31.523569426855673
 20
4.2073449927303566
 11
-17.961240036500811
 21
10.116645655670681
  0
LINE
  8
_0-0_
  6
CONTINUOUS
 62
    7
 10
-7.983240556454005
 20
14.185344472777146
 11
8.1946809306121526
 21
21.160256730673936
  0
LINE
  8
_0-0_
  6
CONTINUOUS
 62
    7
 10
8.1946809306121526
 20
21.160256730673936
 11
29.022543922942816
 21
3.626102304572286
  0
LINE
  8
_0-0_
  6
CONTINUOUS
 62
    7
 10
29.022543922942816
 20
3.626102304572286
 11
33.188116521408972
 21
-16.620517999600338
  0
LINE
  8
_0-0_
  6
CONTINUOUS
 62
    7
 10
33.188116521408972
 20
-16.620517999600338
 11
11.972758403639547
 21
-2.186324577008377
  0
LINE
  8
_0-0_
  6
CONTINUOUS
 62
    7
 10
11.972758403639547
 20
-2.186324577008377
 11
8.1946809306121526
 21
21.160256730673936
  0
LINE
  8
_0-0_
  6
CONTINUOUS
 62
    7
 10
6.3540790847782791
 20
26.488314705456219
 11
7.225943117015392
 21
20.96650916795457
  0
LINE
  8
_0-0_
  6
CONTINUOUS
 62
    7
 10
6.3540790847782791
 20
26.488314705456219
 11
14.878971844429886
 21
18.54466463396264
  0
LINE
  8
_0-0_
  6
CONTINUOUS
 62
    7
 10
14.878971844429886
 20
18.54466463396264
 11
15.557088313947647
 21
14.960334723654569
  0
LINE
  8
_0-0_
  6
CONTINUOUS
 62
    7
 10
-31.523569426855673
 20
4.2073449927303566
 11
-30.84545295733794
 21
-17.395508250477761
  0
LINE
  8
_0-0_
  6
CONTINUOUS
 62
    7
 10
-30.84545295733794
 20
-17.395508250477761
 11
11.972758403639547
 21
-2.186324577008377
  0
LINE
  8
_0-0_
  6
CONTINUOUS
 62
    7
 10
-30.84545295733794
 20
-17.395508250477761
 11
-28.811103548784715
 21
-17.976750938635831
  0
LINE
  8
_0-0_
  6
CONTINUOUS
 62
    7
 10
33.188116521408972
 20
-16.620517999600338
 11
26.794446951670238
 21
-19.33298387767131
  0
LINE
  8
_0-0_
  6
CONTINUOUS
 62
    7
 10
26.794446951670238
 20
-19.33298387767131
 11
26.697573170310591
 21
-21.076711942145508
  0
LINE
  8
_0-0_
  6
CONTINUOUS
 62
    7
 10
26.697573170310591
 20
-21.076711942145508
 11
26.310078044871887
 21
-21.561080848943902
  0
LINE
  8
_0-0_
  6
CONTINUOUS
 62
    7
 10
26.310078044871887
 20
-21.561080848943902
 11
-1.783318549434652
 21
-30.27972117131489
  0
LINE
  8
_0-0_
  6
CONTINUOUS
 62
    7
 10
-1.783318549434652
 20
-30.27972117131489
 11
-3.1395514884701452
 21
-30.182847389955214
  0
LINE
  8
_0-0_
  6
CONTINUOUS
 62
    7
 10
-3.1395514884701452
 20
-30.182847389955214
 11
-4.3989106461459624
 21
-29.601604701797129
  0
LINE
  8
_0-0_
  6
CONTINUOUS
 62
    7
 10
-4.3989106461459624
 20
-29.601604701797129
 11
-21.545569946808882
 21
-22.820440006619705
  0
LINE
  8
_0-0_
  6
CONTINUOUS
 62
    7
 10
-21.545569946808882
 20
-22.820440006619705
 11
-21.836191290887925
 21
-22.045449755742283
  0
LINE
  8
_0-0_
  6
CONTINUOUS
 62
    7
 10
-21.836191290887925
 20
-22.045449755742283
 11
-22.126812634966953
 21
-21.173585723505184
  0
LINE
  8
_0-0_
  6
CONTINUOUS
 62
    7
 10
-22.126812634966953
 20
-21.173585723505184
 11
-27.74549195382825
 21
-19.139236314951958
  0
LINE
  8
_0-0_
  6
CONTINUOUS
 62
    7
 10
-27.74549195382825
 20
-19.139236314951958
 11
-28.811103548784715
 21
-17.976750938635831
  0
LINE
  8
_0-0_
  6
CONTINUOUS
 62
    7
 10
-28.811103548784715
 20
-17.976750938635831
 11
-27.357996828389545
 21
-17.589255813197113
  0
LINE
  8
_0-0_
  6
CONTINUOUS
 62
    7
 10
-27.357996828389545
 20
-17.589255813197113
 11
-27.74549195382825
 21
-19.139236314951958
  0
LINE
  8
_0-0_
  6
CONTINUOUS
 62
    7
 10
-27.357996828389545
 20
-17.589255813197113
 11
-22.804929104484685
 21
-18.557993626793888
  0
LINE
  8
_0-0_
  6
CONTINUOUS
 62
    7
 10
-22.804929104484685
 20
-18.557993626793888
 11
-5.0770271156636664
 21
-26.017274791489058
  0
LINE
  8
_0-0_
  6
CONTINUOUS
 62
    7
 10
-5.0770271156636664
 20
-26.017274791489058
 11
-3.5270466139088494
 21
-26.3078961355681
  0
LINE
  8
_0-0_
  6
CONTINUOUS
 62
    7
 10
-3.5270466139088494
 20
-26.3078961355681
 11
-1.9770661121540041
 21
-26.3078961355681
  0
LINE
  8
_0-0_
  6
CONTINUOUS
 62
    7
 10
-1.9770661121540041
 20
-26.3078961355681
 11
-0.6208331731185108
 21
-25.823527228769706
  0
LINE
  8
_0-0_
  6
CONTINUOUS
 62
    7
 10
-0.6208331731185108
 20
-25.823527228769706
 11
27.181942077108943
 21
-17.104886906398733
  0
LINE
  8
_0-0_
  6
CONTINUOUS
 62
    7
 10
27.181942077108943
 20
-17.104886906398733
 11
27.569437202547647
 21
-16.32989665552131
  0
LINE
  8
_0-0_
  6
CONTINUOUS
 62
    7
 10
27.569437202547647
 20
-16.32989665552131
 11
11.004020590042787
 21
-5.673780705956772
  0
LINE
  8
_0-0_
  6
CONTINUOUS
 62
    7
 10
11.004020590042787
 20
-5.673780705956772
 11
9.6477876510073219
 21
-5.5769069245970959
  0
LINE
  8
_0-0_
  6
CONTINUOUS
 62
    7
 10
9.6477876510073219
 20
-5.5769069245970959
 11
7.5165644610943918
 21
-5.770654487316448
  0
LINE
  8
_0-0_
  6
CONTINUOUS
 62
    7
 10
7.5165644610943918
 20
-5.770654487316448
 11
3.2541180812685884
 21
-7.3206349890712934
  0
LINE
  8
_0-0_
  6
CONTINUOUS
 62
    7
 10
3.2541180812685884
 20
-7.3206349890712934
 11
-21.254948602729854
 21
-16.136149092801944
  0
LINE
  8
_0-0_
  6
CONTINUOUS
 62
    7
 10
-21.254948602729854
 20
-16.136149092801944
 11
-21.739317509528234
 21
-16.911139343679366
  0
LINE
  8
_0-0_
  6
CONTINUOUS
 62
    7
 10
-21.739317509528234
 20
-16.911139343679366
 11
-21.545569946808882
 21
-18.073624719995507
  0
LINE
  8
_0-0_
  6
CONTINUOUS
 62
    7
 10
-21.545569946808882
 20
-18.073624719995507
 11
-20.383084570492755
 21
-19.236110096311634
  0
LINE
  8
_0-0_
  6
CONTINUOUS
 62
    7
 10
-15.636269283868542
 20
-19.429857659030986
 11
9.6477876510073219
 21
-10.904964899379365
  0
LINE
  8
_0-0_
  6
CONTINUOUS
 62
    7
 10
9.7446614323669696
 20
-7.030013644992251
 11
9.7446614323669696
 21
-9.3549843976245199
  0
LINE
  8
_0-0_
  6
CONTINUOUS
 62
    7
 10
10.325904120525083
 20
-11.098712462098717
 11
22.532000571844435
 21
-17.589255813197113
  0
LINE
  8
_0-0_
  6
CONTINUOUS
 62
    7
 10
22.532000571844435
 20
-17.589255813197113
 11
25.728835356713773
 21
-17.298634469118085
  0
LINE
  8
_0-0_
  6
CONTINUOUS
 62
    7
 10
-15.345647939789513
 20
-20.107974128548733
 11
-9.4363472768491743
 21
-23.498556476137452
  0
LINE
  8
_0-0_
  6
CONTINUOUS
 62
    7
 10
-20.479958351852432
 20
-17.686129594556789
 11
-16.605007097465332
 21
-19.139236314951958
  0
LINE
  8
_0-0_
  6
CONTINUOUS
 62
    7
 10
-3.3332990511894973
 20
-27.179760167805199
 11
-3.0426777071104407
 21
-28.535993106840692
  0
LINE
  8
_0-0_
  6
CONTINUOUS
 62
    7
 10
26.794446951670238
 20
-19.33298387767131
 11
-2.6551825816717365
 21
-28.439119325481016
  0
LINE
  8
_0-0_
  6
CONTINUOUS
 62
    7
 10
-1.9770661121540041
 20
-28.923488232279396
 11
-1.9770661121540041
 21
-29.795352264516509
  0
LINE
  8
_0-0_
  6
CONTINUOUS
 62
    7
 10
-3.0426777071104407
 20
-28.535993106840692
 11
-21.448696165449206
 21
-21.270459504864874
  0
LINE
  8
_0-0_
  6
CONTINUOUS
 62
    7
 10
-20.964327258650812
 20
35.013207465107826
 11
-19.511220538255657
 21
11.763499938785202
  0
LINE
  8
_0-0_
  6
CONTINUOUS
 62
    7
 10
-19.511220538255657
 20
11.763499938785202
 11
-19.026851631457262
 21
10.988509687907779
  0
LINE
  8
_0-0_
  6
CONTINUOUS
 62
    7
 10
-19.026851631457262
 20
10.988509687907779
 11
-17.961240036500811
 21
10.116645655670681
  0
LINE
  8
_0-0_
  6
CONTINUOUS
 62
    7
 10
-17.961240036500811
 20
10.116645655670681
 11
-17.379997348342741
 21
9.9228980929513284
  0
LINE
  8
_0-0_
  6
CONTINUOUS
 62
    7
 10
-17.379997348342741
 20
9.9228980929513284
 11
-16.89562844154436
 21
2.7542382723351873
  0
LINE
  8
_0-0_
  6
CONTINUOUS
 62
    7
 10
-7.5957454310153008
 20
4.5948401181690608
 11
-7.983240556454005
 21
13.410354221899723
  0
LINE
  8
_0-0_
  6
CONTINUOUS
 62
    7
 10
-7.983240556454005
 20
13.410354221899723
 11
-8.7582308073314419
 21
14.572839598215864
  0
LINE
  8
_0-0_
  6
CONTINUOUS
 62
    7
 10
-8.7582308073314419
 20
14.572839598215864
 11
-10.308211309086287
 21
15.347829849093273
  0
LINE
  8
_0-0_
  6
CONTINUOUS
 62
    7
 10
-10.308211309086287
 20
15.347829849093273
 11
-10.405085090445935
 21
16.02594631861102
  0
LINE
  8
_0-0_
  6
CONTINUOUS
 62
    7
 10
-10.405085090445935
 20
16.02594631861102
 11
-12.148813154920147
 21
39.663148970372362
  0
LINE
  8
_0-0_
  6
CONTINUOUS
 62
    7
 10
-18.34873516193953
 20
11.666626157425526
 11
-10.792580215884668
 21
15.250956067733597
  0
LINE
  8
_0-0_
  6
CONTINUOUS
 62
    7
 10
-16.508133316105642
 20
10.310393218390033
 11
-9.5332210582088504
 21
13.507228003259399
  0
ARC
  8
_0-0_
  6
CONTINUOUS
 62
    7
 10
-12.483706977654405
 20
4.8771667727236414
 40
4.8961082934606832
 50
205.69593071234996
 51
356.69429214024996
  0
LINE
  8
_0-0_
  6
CONTINUOUS
 62
    7
 10
-29.489220018302447
 20
-13.908052121529366
 11
-29.586093799662123
 21
2.366743146896483
  0
LINE
  8
_0-0_
  6
CONTINUOUS
 62
    7
 10
-27.306288402879545
 20
-13.057350830224863
 11
-29.489220018302447
 21
-13.908052121529366
  0
LINE
  8
_0-0_
  6
CONTINUOUS
 62
    7
 10
-23.436989717744581
 20
-11.549462372047259
 11
-25.547278413070742
 21
-12.371854290078772
  0
LINE
  8
_0-0_
  6
CONTINUOUS
 62
    7
 10
-20.082292069345257
 20
-10.242116964950469
 11
-21.985254978910632
 21
-10.983712804707551
  0
LINE
  8
_0-0_
  6
CONTINUOUS
 62
    7
 10
-16.31438575338629
 20
-8.7737417094664494
 11
-18.328787046665695
 21
-9.5587657428768154
  0
LINE
  8
_0-0_
  6
CONTINUOUS
 62
    7
 10
-17.670618692421783
 20
7.7916749030384276
 11
-16.31438575338629
 21
-8.7737417094664494
  0
LINE
  8
_0-0_
  6
CONTINUOUS
 62
    7
 10
-19.278412028150839
 20
7.0596714331129968
 11
-17.670618692421783
 21
7.7916749030384276
  0
LINE
  8
_0-0_
  6
CONTINUOUS
 62
    7
 10
-18.328787046665695
 20
-9.5587657428768154
 11
-19.278412028150839
 21
7.0596714331129968
  0
LINE
  8
_0-0_
  6
CONTINUOUS
 62
    7
 10
-20.961002411685399
 20
6.2936140227232764
 11
-20.082292069345257
 21
-10.242116964950469
  0
LINE
  8
_0-0_
  6
CONTINUOUS
 62
    7
 10
-22.853395574945097
 20
5.4320366475806461
 11
-20.961002411685399
 21
6.2936140227232764
  0
LINE
  8
_0-0_
  6
CONTINUOUS
 62
    7
 10
-21.985254978910632
 20
-10.983712804707551
 11
-22.853395574945097
 21
5.4320366475806461
  0
LINE
  8
_0-0_
  6
CONTINUOUS
 62
    7
 10
-24.351747612162626
 20
4.7498601103108777
 11
-23.436989717744581
 21
-11.549462372047259
  0
LINE
  8
_0-0_
  6
CONTINUOUS
 62
    7
 10
-26.115590100300665
 20
3.9468098718090099
 11
-24.351747612162626
 21
4.7498601103108777
  0
LINE
  8
_0-0_
  6
CONTINUOUS
 62
    7
 10
-25.547278413070742
 20
-12.371854290078772
 11
-26.115590100300665
 21
3.9468098718090099
  0
LINE
  8
_0-0_
  6
CONTINUOUS
 62
    7
 10
-29.586093799662123
 20
2.366743146896483
 11
-28.004416286827563
 21
3.0868564860731889
  0
LINE
  8
_0-0_
  6
CONTINUOUS
 62
    7
 10
-28.004416286827563
 20
3.0868564860731889
 11
-27.306288402879545
 21
-13.057350830224863
  0
LINE
  8
_0-0_
  6
CONTINUOUS
 62
    7
 10
-5.9400047812341636
 20
-4.9983996641904289
 11
-3.7926127210754412
 21
-4.1767887889992741
  0
LINE
  8
_0-0_
  6
CONTINUOUS
 62
    7
 10
-1.8103841591039309
 20
-3.4183709044188779
 11
0.2044210165053659
 21
-2.6474889241857502
  0
LINE
  8
_0-0_
  6
CONTINUOUS
 62
    7
 10
2.2118793945445265
 20
-1.8794178925881502
 11
4.3019146318851558
 21
-1.0797522365621708
  0
LINE
  8
_0-0_
  6
CONTINUOUS
 62
    7
 10
6.4637183236592382
 20
-0.2526273457964398
 11
8.8617358700626045
 21
0.6648750197839783
  0
LINE
  8
_0-0_
  6
CONTINUOUS
 62
    7
 10
6.3403871289468459
 20
17.910900409015724
 11
8.8617358700626045
 21
0.6648750197839783
  0
LINE
  8
_0-0_
  6
CONTINUOUS
 62
    7
 10
4.3272159690648682
 20
17.056662916849589
 11
6.3403871289468459
 21
17.910900409015724
  0
LINE
  8
_0-0_
  6
CONTINUOUS
 62
    7
 10
4.3272159690648682
 20
17.056662916849589
 11
6.4637183236592382
 21
-0.2526273457964398
  0
LINE
  8
_0-0_
  6
CONTINUOUS
 62
    7
 10
4.3019146318851558
 20
-1.0797522365621708
 11
2.2335540912105234
 21
16.168271255165436
  0
LINE
  8
_0-0_
  6
CONTINUOUS
 62
    7
 10
0.3168138530736558
 20
15.354951748712779
 11
2.2335540912105234
 21
16.168271255165436
  0
LINE
  8
_0-0_
  6
CONTINUOUS
 62
    7
 10
0.3168138530736558
 20
15.354951748712779
 11
2.2118793945445265
 21
-1.8794178925881502
  0
LINE
  8
_0-0_
  6
CONTINUOUS
 62
    7
 10
-1.6137253773469507
 20
14.535776994182953
 11
0.2044210165053659
 21
-2.6474889241857502
  0
LINE
  8
_0-0_
  6
CONTINUOUS
 62
    7
 10
-3.7142388812958398
 20
13.644478020885728
 11
-1.6137253773469507
 21
14.535776994182953
  0
LINE
  8
_0-0_
  6
CONTINUOUS
 62
    7
 10
-1.8103841591039309
 20
-3.4183709044188779
 11
-3.7142388812958398
 21
13.644478020885728
  0
LINE
  8
_0-0_
  6
CONTINUOUS
 62
    7
 10
-5.4512730100905724
 20
12.907412187856607
 11
-3.7926127210754412
 21
-4.1767887889992741
  0
LINE
  8
_0-0_
  6
CONTINUOUS
 62
    7
 10
-7.2231743453624215
 20
12.155551350997996
 11
-5.4512730100905724
 21
12.907412187856607
  0
LINE
  8
_0-0_
  6
CONTINUOUS
 62
    7
 10
-5.9400047812341636
 20
-4.9983996641904289
 11
-7.2231743453624215
 21
12.155551350997996
  0
LINE
  8
_0-0_
  6
CONTINUOUS
 62
    7
 10
9.7460365356647589
 20
17.538100931301557
 11
10.766410358151917
 21
16.683358931703083
  0
LINE
  8
_0-0_
  6
CONTINUOUS
 62
    7
 10
11.937070702228711
 20
15.702725617426353
 11
13.074324234866255
 21
14.75007636563781
  0
LINE
  8
_0-0_
  6
CONTINUOUS
 62
    7
 10
13.914877545959373
 20
14.045965575984624
 11
15.260649398489251
 21
12.91864566745258
  0
LINE
  8
_0-0_
  6
CONTINUOUS
 62
    7
 10
16.026820461401485
 20
12.27684305363033
 11
17.235628140423103
 21
11.264254657175329
  0
LINE
  8
_0-0_
  6
CONTINUOUS
 62
    7
 10
18.013964932989552
 20
10.612261111498441
 11
18.694908946527505
 21
10.041851096149998
  0
LINE
  8
_0-0_
  6
CONTINUOUS
 62
    7
 10
19.912995501247167
 20
9.0214900142405554
 11
20.931361538964893
 21
8.1684298864529694
  0
LINE
  8
_0-0_
  6
CONTINUOUS
 62
    7
 10
21.825843677148271
 20
7.4191442476540752
 11
22.91328512354454
 21
6.5082213526768138
  0
LINE
  8
_0-0_
  6
CONTINUOUS
 62
    7
 10
23.488784890428974
 20
6.0261393836233603
 11
24.116373304852175
 21
5.5004240384752601
  0
LINE
  8
_0-0_
  6
CONTINUOUS
 62
    7
 10
25.116059029779535
 20
4.6630119482555168
 11
25.851666159461388
 21
4.046811987920834
  0
LINE
  8
_0-0_
  6
CONTINUOUS
 62
    7
 10
26.669948358445367
 20
3.3613571599142213
 11
27.469922837086358
 21
2.6912382579664333
  0
LINE
  8
_0-0_
  6
CONTINUOUS
 62
    7
 10
28.452533802706455
 20
1.8681292727375913
 11
28.935373946648554
 21
1.4636659858281869
  0
LINE
  8
_0-0_
  6
CONTINUOUS
 62
    7
 10
9.7460365356647589
 20
17.538100931301557
 11
12.120259304905746
 21
0.7489542059548322
  0
LINE
  8
_0-0_
  6
CONTINUOUS
 62
    7
 10
12.120259304905746
 20
0.7489542059548322
 11
13.404165833104402
 21
-0.185250155030217
  0
LINE
  8
_0-0_
  6
CONTINUOUS
 62
    7
 10
10.766410358151917
 20
16.683358931703083
 11
13.404165833104402
 21
-0.185250155030217
  0
LINE
  8
_0-0_
  6
CONTINUOUS
 62
    7
 10
14.299888930546105
 20
-0.8370019807951639
 11
11.937070702228711
 21
15.702725617426353
  0
LINE
  8
_0-0_
  6
CONTINUOUS
 62
    7
 10
14.299888930546105
 20
-0.8370019807951639
 11
15.645499557327016
 21
-1.816103876546264
  0
LINE
  8
_0-0_
  6
CONTINUOUS
 62
    7
 10
13.074324234866255
 20
14.75007636563781
 11
15.645499557327016
 21
-1.816103876546264
  0
LINE
  8
_0-0_
  6
CONTINUOUS
 62
    7
 10
16.483216612571027
 20
-2.4256489712179805
 11
13.914877545959373
 21
14.045965575984624
  0
LINE
  8
_0-0_
  6
CONTINUOUS
 62
    7
 10
16.483216612571027
 20
-2.4256489712179805
 11
17.570269568458002
 21
-3.2166174644119954
  0
LINE
  8
_0-0_
  6
CONTINUOUS
 62
    7
 10
15.260649398489251
 20
12.91864566745258
 11
17.570269568458002
 21
-3.2166174644119954
  0
LINE
  8
_0-0_
  6
CONTINUOUS
 62
    7
 10
18.455809316822183
 20
-3.8609596159454602
 11
16.026820461401485
 21
12.27684305363033
  0
LINE
  8
_0-0_
  6
CONTINUOUS
 62
    7
 10
18.455809316822183
 20
-3.8609596159454602
 11
19.409507107146624
 21
-4.5548953622126751
  0
LINE
  8
_0-0_
  6
CONTINUOUS
 62
    7
 10
17.235628140423103
 20
11.264254657175329
 11
19.409507107146624
 21
-4.5548953622126751
  0
LINE
  8
_0-0_
  6
CONTINUOUS
 62
    7
 10
20.678653791066722
 20
-5.4783600699677768
 11
18.013964932989552
 21
10.612261111498441
  0
LINE
  8
_0-0_
  6
CONTINUOUS
 62
    7
 10
18.694908946527505
 20
10.041851096149998
 11
21.492436253327583
 21
-6.0704897214961155
  0
LINE
  8
_0-0_
  6
CONTINUOUS
 62
    7
 10
20.678653791066722
 20
-5.4783600699677768
 11
21.492436253327583
 21
-6.0704897214961155
  0
LINE
  8
_0-0_
  6
CONTINUOUS
 62
    7
 10
22.701740165595425
 20
-6.9504112452084845
 11
19.912995501247167
 21
9.0214900142405554
  0
LINE
  8
_0-0_
  6
CONTINUOUS
 62
    7
 10
22.701740165595425
 20
-6.9504112452084845
 11
23.4498968727994
 21
-7.4947898609561312
  0
LINE
  8
_0-0_
  6
CONTINUOUS
 62
    7
 10
20.931361538964893
 20
8.1684298864529694
 11
23.4498968727994
 21
-7.4947898609561312
  0
LINE
  8
_0-0_
  6
CONTINUOUS
 62
    7
 10
24.325068483579457
 20
-8.1315878812513631
 11
21.825843677148271
 21
7.4191442476540752
  0
LINE
  8
_0-0_
  6
CONTINUOUS
 62
    7
 10
24.325068483579457
 20
-8.1315878812513631
 11
25.52777441843881
 21
-9.0067085420244979
  0
LINE
  8
_0-0_
  6
CONTINUOUS
 62
    7
 10
22.91328512354454
 20
6.5082213526768138
 11
25.52777441843881
 21
-9.0067085420244979
  0
LINE
  8
_0-0_
  6
CONTINUOUS
 62
    7
 10
26.460282238550803
 20
-9.6852259052966332
 11
23.488784890428974
 21
6.0261393836233603
  0
LINE
  8
_0-0_
  6
CONTINUOUS
 62
    7
 10
26.460282238550803
 20
-9.6852259052966332
 11
27.222003499781181
 21
-10.239474449460374
  0
LINE
  8
_0-0_
  6
CONTINUOUS
 62
    7
 10
24.116373304852175
 20
5.5004240384752601
 11
27.222003499781181
 21
-10.239474449460374
  0
LINE
  8
_0-0_
  6
CONTINUOUS
 62
    7
 10
28.164420928406457
 20
-10.925202306086561
 11
25.116059029779535
 21
4.6630119482555168
  0
LINE
  8
_0-0_
  6
CONTINUOUS
 62
    7
 10
28.164420928406457
 20
-10.925202306086561
 11
28.894334289747803
 21
-11.456306580681229
  0
LINE
  8
_0-0_
  6
CONTINUOUS
 62
    7
 10
25.851666159461388
 20
4.046811987920834
 11
28.894334289747803
 21
-11.456306580681229
  0
LINE
  8
_0-0_
  6
CONTINUOUS
 62
    7
 10
29.687931741101181
 20
-12.033749084195165
 11
26.669948358445367
 21
3.3613571599142213
  0
LINE
  8
_0-0_
  6
CONTINUOUS
 62
    7
 10
29.687931741101181
 20
-12.033749084195165
 11
30.437098897165299
 21
-12.578862929269064
  0
LINE
  8
_0-0_
  6
CONTINUOUS
 62
    7
 10
27.469922837086358
 20
2.6912382579664333
 11
30.437098897165299
 21
-12.578862929269064
  0
LINE
  8
_0-0_
  6
CONTINUOUS
 62
    7
 10
31.479364313729093
 20
-13.337242823811607
 11
28.452533802706455
 21
1.8681292727375913
  0
LINE
  8
_0-0_
  6
CONTINUOUS
 62
    7
 10
31.479364313729093
 20
-13.337242823811607
 11
32.000195142958887
 21
-13.716213115897091
  0
LINE
  8
_0-0_
  6
CONTINUOUS
 62
    7
 10
28.935373946648554
 20
1.4636659858281869
 11
32.000195142958887
 21
-13.716213115897091
  0
ARC
  8
_0-0_
  6
CONTINUOUS
 62
    7
 10
-15.211713132181655
 20
6.6686938936934022
 40
0.4164694671990825
 50
137.30562753543794
 51
303.89696175457146
  0
ARC
  8
_0-0_
  6
CONTINUOUS
 62
    7
 10
-10.244556223452205
 20
9.0350375120873423
 40
0.6292942639575026
 50
275.97530115980499
 51
55.42414394182282
  0
ARC
  8
_0-0_
  6
CONTINUOUS
 62
    7
 10
-11.090118335402108
 20
4.7630154356613312
 40
4.9388415617030166
 50
75.905876957974726
 51
153.7022933179957
  0
ARC
  8
_0-0_
  6
CONTINUOUS
 62
    7
 10
-10.851910510834953
 20
3.3913526844480382
 40
5.0627224632526646
 50
82.362477558471539
 51
144.61507218750126
  0
ARC
  8
_0-0_
  6
CONTINUOUS
 62
    7
 10
-13.165165333500424
 20
4.1605832649030541
 40
0.973739335688358
 50
91.161598566925647
 51
199.6538240580542
  0
ARC
  8
_0-0_
  6
CONTINUOUS
 62
    7
 10
-13.340973211658463
 20
4.2042178486271107
 40
0.9429103031979787
 50
356.52859082214337
 51
80.472716618547395
  0
ARC
  8
_0-0_
  6
CONTINUOUS
 62
    7
 10
-13.417635011064304
 20
4.1232904315889565
 40
1.018120999181138
 50
278.07431290780181
 51
1.3413915809424566
  0
ARC
  8
_0-0_
  6
CONTINUOUS
 62
    7
 10
-13.118929477531365
 20
4.1035801548042068
 40
1.0005076222926443
 50
195.68590592006609
 51
261.04701540679378
  0
ARC
  8
_0-0_
  6
CONTINUOUS
 62
    7
 10
-12.902479194862378
 20
3.952910708140366
 40
1.4764670324498215
 50
332.54945591222156
 51
43.921782736198111
  0
ARC
  8
_0-0_
  6
CONTINUOUS
 62
    7
 10
-12.747485600382701
 20
3.9063564312832435
 40
1.3178082301094201
 50
262.66530195402004
 51
331.23905590843799
  0
ARC
  8
_0-0_
  6
CONTINUOUS
 62
    7
 10
-12.727311409026056
 20
3.8573123316446933
 40
1.2720122908454663
 50
199.66248368136181
 51
261.48191192656611
  0
LINE
  8
_0-0_
  6
CONTINUOUS
 62
    7
 10
-13.925154020827376
 20
3.4293072552554955
 11
-13.117609961093889
 21
2.9358081076405833
  0
LINE
  8
_0-0_
  6
CONTINUOUS
 62
    7
 10
-13.341927755464296
 20
5.134122492470639
 11
-12.579247254604892
 21
5.1116907130335969
  0
ARC
  8
_0-0_
  6
CONTINUOUS
 62
    7
 10
-12.76341404880648
 20
3.6920795286608561
 40
1.5829787588169431
 50
54.269589447219793
 51
112.31073693726648
  0
ARC
  8
_0-0_
  6
CONTINUOUS
 62
    7
 10
-12.88207627700494
 20
4.2256354252704691
 40
0.936375667016598
 50
353.8113840367584
 51
71.131000544939241
  0
ARC
  8
_0-0_
  6
CONTINUOUS
 62
    7
 10
-13.016666953627192
 20
4.0034338365073276
 40
1.0723871445026996
 50
264.59879453944166
 51
6.4925206473889148
  0
ARC
  8
_0-0_
  6
CONTINUOUS
 62
    7
 10
-4.7237389724352834
 20
28.336768673491633
 40
0.912685902862935
 50
296.82868020396353
 51
31.280527994191402
  0
ARC
  8
_0-0_
  6
CONTINUOUS
 62
    7
 10
-5.1627603748441384
 20
28.865194170312293
 40
1.5897786833200052
 50
235.62854799368597
 51
302.36127999580594
  0
ARC
  8
_0-0_
  6
CONTINUOUS
 62
    7
 10
-2.6035694603997097
 20
26.165253120488899
 40
1.0734926036890322
 50
227.39705066936014
 51
307.51334057101394
  0
ARC
  8
_0-0_
  6
CONTINUOUS
 62
    7
 10
-3.0439343458430397
 20
26.397585518843073
 40
1.5400271046677345
 50
315.26899229369411
 51
351.60090535215011
  0
ARC
  8
_0-0_
  6
CONTINUOUS
 62
    7
 10
-2.3690910958558202
 20
25.722742268855768
 40
0.9605419347409901
 50
27.9289787086805
 51
101.66877400036856
  0
ARC
  8
_0-0_
  6
CONTINUOUS
 62
    7
 10
-2.5398656491783509
 20
25.434615907674782
 40
1.2290416109177011
 50
91.095526061834448
 51
153.20906422073065
  0
ARC
  8
_0-0_
  6
CONTINUOUS
 62
    7
 10
-3.1505654221399464
 20
25.848362440931339
 40
0.5062225375677588
 50
163.91834804318677
 51
249.21175431096754
  0
ARC
  8
_0-0_
  6
CONTINUOUS
 62
    7
 10
0.1484726863119494
 20
23.458789474574445
 40
1.2167309608181971
 50
66.850714315843504
 51
186.55499574448311
  0
LINE
  8
_0-0_
  6
CONTINUOUS
 62
    7
 10
0.6268039381792521
 20
24.577553723422568
 11
0.9642255631729329
 21
24.270806791610084
  0
LINE
  8
_0-0_
  6
CONTINUOUS
 62
    7
 10
-3.9437253458264632
 20
28.810661382434546
 11
-11.796446800225523
 21
35.49774449594625
  0
LINE
  8
_0-0_
  6
CONTINUOUS
 62
    7
 10
-6.0602791753324521
 20
27.552998962003443
 11
-11.612398641138041
 21
32.2769017119154
  0
LINE
  8
_0-0_
  6
CONTINUOUS
 62
    7
 10
-3.7412752612041213
 20
-25.914178321401508
 11
-3.7412752612041213
 21
-25.69846958892893
  0
LINE
  8
_0-0_
  6
CONTINUOUS
 62
    7
 10
-9.4363472768491743
 20
-23.498556476137452
 11
-5.0894548391577512
 21
-25.644542405810782
  0
LINE
  8
_0-0_
  6
CONTINUOUS
 62
    7
 10
22.197699818623732
 20
-17.93295521991601
 11
4.6174381221083838
 21
-23.972799729148278
  0
ENDBLK
  0
ENDSEC
  0
SECTION
  2
ENTITIES
  0
INSERT
  2
-000-1
  8
_0-0_
 10
139.79029997312972
 20
106.32261924879288
 41
1
 42
1
 50
0
  0
ENDSEC
  0
EOF
