  0
SECTION
  2
HEADER
  9
$ACADVER
  1
AC1009
  9
$INSBASE
 10
0
 20
0
 30
0
  9
$EXTMIN
 10
0
 20
0
  9
$EXTMAX
 10
297
 20
210
  9
$LIMMIN
 10
0
 20
0
  9
$LIMMAX
 10
297
 20
210
  9
$LTSCALE
 40
1
  0
ENDSEC
  0
SECTION
  2
TABLES
  0
TABLE
  2
LTYPE
 70
     9
  0
LTYPE
  2
CONTINUOUS
 70
    64
  3
実線
 72
    65
 73
     0
 40
0.0
  0
LTYPE
  2
DASHED1
 70
    64
  3
--  --  --  --  --  --  --  --  
 72
    65
 73
     2
 40
2.5
 49
1.25
 49
-1.25
  0
LTYPE
  2
DASHED2
 70
    64
  3
----    ----    ----    ----    
 72
    65
 73
     2
 40
5.0
 49
2.5
 49
-2.5
  0
LTYPE
  2
DASHED3
 70
    64
  3
------  ------  ------  ------  
 72
    65
 73
     2
 40
5.0
 49
3.75
 49
-1.25
  0
LTYPE
  2
CENTER1
 70
    64
  3
----- - ----- - ----- - ----- - 
 72
    65
 73
     4
 40
10.0
 49
6.25
 49
-1.25
 49
1.25
 49
-1.25
  0
LTYPE
  2
CENTER2
 70
    64
  3
----------  --  ----------  --  
 72
    65
 73
     4
 40
20.0
 49
12.5
 49
-2.5
 49
2.5
 49
-2.5
  0
LTYPE
  2
PHANTOM1
 70
    64
  3
--- - - --- - - --- - - --- - - 
 72
    65
 73
     6
 40
10.0
 49
3.25
 49
-1.25
 49
1.25
 49
-1.25
 49
1.25
 49
-1.25
  0
LTYPE
  2
PHANTOM2
 70
    64
  3
--------  -  -  --------  -  -  
 72
    65
 73
     6
 40
20.0
 49
10.0
 49
-2.5
 49
1.25
 49
-2.5
 49
1.25
 49
-2.5
  0
LTYPE
  2
DOT
 70
    64
  3
-   -   -   -   -   -   -   -   
 72
    65
 73
     2
 40
2.5
 49
0.625
 49
-1.875
  0
LTYPE
  2
DUMMY
 70
    64
  3
ダミー
 72
    65
 73
     0
 40
0.0
  0
LTYPE
  2
RAND1
 70
    64
  3
ランダム線1
 72
    65
 73
     4
 40
10.0
 49
1.0
 49
-2.0
 49
3.0
 49
-4.0
  0
LTYPE
  2
RAND2
 70
    64
  3
ランダム線2
 72
    65
 73
     4
 40
14.0
 49
2.0
 49
-3.0
 49
4.0
 49
-5.0
  0
LTYPE
  2
RAND3
 70
    64
  3
ランダム線3
 72
    65
 73
     4
 40
18.0
 49
3.0
 49
-4.0
 49
5.0
 49
-6.0
  0
LTYPE
  2
RAND4
 70
    64
  3
ランダム線4
 72
    65
 73
     4
 40
22.0
 49
4.0
 49
-5.0
 49
6.0
 49
-7.0
  0
LTYPE
  2
RAND5
 70
    64
  3
ランダム線5
 72
    65
 73
     4
 40
26.0
 49
5.0
 49
-6.0
 49
7.0
 49
-8.0
  0
LTYPE
  2
LONG1
 70
    64
  3
----------  --  ----------  --  
 72
    65
 73
     4
 40
40.0
 49
32.5
 49
-2.5
 49
2.5
 49
-2.5
  0
LTYPE
  2
LONG2
 70
    64
  3
--------  -  -  --------  -  -  
 72
    65
 73
     6
 40
40.0
 49
30.0
 49
-2.5
 49
1.25
 49
-2.5
 49
1.25
 49
-2.5
  0
LTYPE
  2
LONG3
 70
    64
  3
+++++++++++++++..+++++++++++++++
 72
    65
 73
     2
 40
40.0
 49
37.5
 49
-2.5
  0
LTYPE
  2
LONG4
 70
    64
  3
+++++++++++++++..+++++++++++++++
 72
    65
 73
     2
 40
80.0
 49
75.0
 49
-5.0
  0
LTYPE
  2
LONG5
 70
    64
  3
----------  --  ----------  --  
 72
    65
 73
     4
 40
60.0
 49
37.5
 49
-7.5
 49
7.5
 49
-7.5
  0
LTYPE
  2
dashed
 70
   64
  3
-------   -------------   ------
 72
   65
 73
    2
 40
7.5
 49
6
 49
-1.5
  0
LTYPE
  2
dashed_spaced
 70
   64
  3
----        --------        ----
 72
   65
 73
    2
 40
12
 49
6
 49
-6
  0
LTYPE
  2
long_dashed_dotted
 70
   64
  3
------------- --- --------------
 72
   65
 73
    4
 40
15.25
 49
12
 49
-1.5
 49
0.25
 49
-1.5
  0
LTYPE
  2
long_dashed_double-dotted
 70
   64
  3
----------- --- --- ------------
 72
   65
 73
    6
 40
17
 49
12
 49
-1.5
 49
0.25
 49
-1.5
 49
0.25
 49
-1.5
  0
LTYPE
  2
long_dashed_triplicate-dotted
 70
   64
  3
--------- --- --- --- ----------
 72
   65
 73
    8
 40
18.75
 49
12
 49
-1.5
 49
0.25
 49
-1.5
 49
0.25
 49
-1.5
 49
0.25
 49
-1.5
  0
LTYPE
  2
dotted
 70
   64
  3
   -       -       -       -    
 72
   65
 73
    2
 40
1.75
 49
0.25
 49
-1.5
  0
LTYPE
  2
chain
 70
   64
  3
-------------- -- --------------
 72
   65
 73
    4
 40
18.5
 49
12
 49
-1.5
 49
3.5
 49
-1.5
  0
LTYPE
  2
chain_double_dash
 70
   64
  3
------------ -- -- -------------
 72
   65
 73
    6
 40
23.5
 49
12
 49
-1.5
 49
3.5
 49
-1.5
 49
3.5
 49
-1.5
  0
LTYPE
  2
dashed_dotted
 70
   64
  3
-----------     -     ----------
 72
   65
 73
    4
 40
9.25
 49
6
 49
-1.5
 49
0.25
 49
-1.5
  0
LTYPE
  2
double-dashed_dotted
 70
   64
  3
------   -----------   -   -----
 72
   65
 73
    6
 40
16.75
 49
6
 49
-1.5
 49
6
 49
-1.5
 49
0.25
 49
-1.5
  0
LTYPE
  2
dashed_double-dotted
 70
   64
  3
---------    -    -    ---------
 72
   65
 73
    6
 40
11
 49
6
 49
-1.5
 49
0.25
 49
-1.5
 49
0.25
 49
-1.5
  0
LTYPE
  2
double-dashed_double-dotted
 70
   64
  3
-----   ---------   -   -   ----
 72
   65
 73
    8
 40
18.5
 49
6
 49
-1.5
 49
6
 49
-1.5
 49
0.25
 49
-1.5
 49
0.25
 49
-1.5
  0
LTYPE
  2
dashed_triplicate-dotted
 70
   64
  3
-------    -    -    -    ------
 72
   65
 73
    8
 40
12.75
 49
6
 49
-1.5
 49
0.25
 49
-1.5
 49
0.25
 49
-1.5
 49
0.25
 49
-1.5
  0
LTYPE
  2
double-dashed_triplicate-dotted
 70
   64
  3
-----  ---------  -  -  -  -----
 72
   65
 73
   10
 40
20.25
 49
6
 49
-1.5
 49
6
 49
-1.5
 49
0.25
 49
-1.5
 49
0.25
 49
-1.5
 49
0.25
 49
-1.5
  0
LTYPE
  2
undefined
 70
   64
  3
--------------------------------
 72
   65
 73
    0
 40
0
  0
LTYPE
  2
_
 70
   64
  3
                                
 72
   65
 73
    0
 40
0
  0
LTYPE
  2
__18
 70
   64
  3
                                
 72
   65
 73
    0
 40
0
  0
LTYPE
  2
__19
 70
   64
  3
                                
 72
   65
 73
    0
 40
0
  0
LTYPE
  2
__20
 70
   64
  3
                                
 72
   65
 73
    0
 40
0
  0
LTYPE
  2
__21
 70
   64
  3
                                
 72
   65
 73
    0
 40
0
  0
LTYPE
  2
__22
 70
   64
  3
                                
 72
   65
 73
    0
 40
0
  0
LTYPE
  2
__23
 70
   64
  3
                                
 72
   65
 73
    0
 40
0
  0
LTYPE
  2
__24
 70
   64
  3
                                
 72
   65
 73
    0
 40
0
  0
LTYPE
  2
__25
 70
   64
  3
                                
 72
   65
 73
    0
 40
0
  0
LTYPE
  2
__26
 70
   64
  3
                                
 72
   65
 73
    0
 40
0
  0
LTYPE
  2
__27
 70
   64
  3
                                
 72
   65
 73
    0
 40
0
  0
LTYPE
  2
__28
 70
   64
  3
                                
 72
   65
 73
    0
 40
0
  0
LTYPE
  2
__29
 70
   64
  3
                                
 72
   65
 73
    0
 40
0
  0
LTYPE
  2
__30
 70
   64
  3
                                
 72
   65
 73
    0
 40
0
  0
LTYPE
  2
__31
 70
   64
  3
                                
 72
   65
 73
    0
 40
0
  0
LTYPE
  2
__32
 70
   64
  3
                                
 72
   65
 73
    0
 40
0
  0
ENDTAB
  0
TABLE
  2
STYLE
  5
3
100
AcDbSymbolTable
 70
     1
  0
STYLE
  5
10
100
AcDbSymbolTableRecord
100
AcDbTextStyleTableRecord
  2
STANDARD
 70
     0
 40
0.0
 41
1.0
 50
0.0
 71
     0
 42
0.2
  3
txt
  4
bigfont.shx
  0
STYLE
  5
26
100
AcDbSymbolTableRecord
100
AcDbTextStyleTableRecord
  2
TATEGAKI
 70
    68
 40
0.0
 41
1.0
 50
0.0
 71
     0
 42
1.0
  3
txt
  4
bigfont.shx
  0
ENDTAB
  0
TABLE
  2
LAYER
 70
    2
  0
LAYER
  2
_0-0_
 70
   64
 62
    7
  6
CONTINUOUS
  0
LAYER
  2
ADD_LINE
 70
   64
 62
    7
  6
CONTINUOUS
  0
ENDTAB
  0
ENDSEC
  0
SECTION
  2
BLOCKS
  0
BLOCK
  2
-007-44
 70
   64
 10
0
 20
0
 30
0
  0
ARC
  8
_0-0_
  6
CONTINUOUS
 62
    7
 10
-16.901642635689726
 20
-46.864386958270963
 40
5.6102997957940328
 50
35.672385489332996
 51
54.327614510667274
  0
ARC
  8
_0-0_
  6
CONTINUOUS
 62
    7
 10
15.052588328840045
 20
-0.9980479359782066
 40
50.290176837519326
 50
223.25764334177606
 51
235.22594150445161
  0
ARC
  8
_0-0_
  6
CONTINUOUS
 62
    7
 10
-0.5002044547494506
 20
-12.627700926250469
 40
31.070986924285222
 50
204.73211158855116
 51
227.29642485296728
  0
ARC
  8
_0-0_
  6
CONTINUOUS
 62
    7
 10
0.0637961155812547
 20
-10.949145955035064
 40
32.311227708657178
 50
189.30121633235277
 51
207.01776460122062
  0
ARC
  8
_0-0_
  6
CONTINUOUS
 62
    7
 10
-0.9879897647018367
 20
-11.121549657461017
 40
31.245405700241818
 50
170.27929725038712
 51
189.30095532647792
  0
ARC
  8
_0-0_
  6
CONTINUOUS
 62
    7
 10
-31.463299192544412
 20
-3.5954646179007597
 40
2.2732855018609173
 50
250.05761541830117
 51
261.86989764583984
  0
ARC
  8
_0-0_
  6
CONTINUOUS
 62
    7
 10
2.5074050684197857
 20
-5.7001340417553052
 40
31.549729442455568
 50
183.42638430341307
 51
211.17915279216822
  0
ARC
  8
_0-0_
  6
CONTINUOUS
 62
    7
 10
-0.457734857091367
 20
-8.7461757938912541
 40
27.456806302332406
 50
208.94377043982126
 51
229.41629773326753
  0
ARC
  8
_0-0_
  6
CONTINUOUS
 62
    7
 10
-10.927982346486104
 20
-21.211000269265561
 40
11.179918206948621
 50
228.60962651506998
 51
260.76460588118164
  0
ARC
  8
_0-0_
  6
CONTINUOUS
 62
    7
 10
-9.7952599562638198
 20
-23.458682801518627
 40
8.6043693446450629
 50
246.31450155472146
 51
272.16956426849868
  0
ARC
  8
_0-0_
  6
CONTINUOUS
 62
    7
 10
-7.8253826383266016
 20
-18.765852149486925
 40
13.69346836496657
 50
221.18525427252482
 51
246.65443329479973
  0
ARC
  8
_0-0_
  6
CONTINUOUS
 62
    7
 10
-2.374725208678143
 20
-10.833125930251398
 40
23.142007709753926
 50
204.54196559460777
 51
227.09019590370349
  0
ARC
  8
_0-0_
  6
CONTINUOUS
 62
    7
 10
6.8173677646075248
 20
-5.2023957089722899
 40
33.867553690705314
 50
184.54871083919488
 51
206.74858417091588
  0
ARC
  8
_0-0_
  6
CONTINUOUS
 62
    7
 10
-7.2090031330206159
 20
-43.223274157100619
 40
11.190884341163414
 50
57.24059958231949
 51
115.99911721000697
  0
ARC
  8
_0-0_
  6
CONTINUOUS
 62
    7
 10
-9.085951670194774
 20
-27.189841027453078
 40
4.8821345537429108
 50
265.49382096020588
 51
275.59779998430849
  0
ARC
  8
_0-0_
  6
CONTINUOUS
 62
    7
 10
-7.2666738302862655
 20
4.2772188597411684
 40
37.754663505977277
 50
262.62249413699305
 51
269.96064954874595
  0
ARC
  8
_0-0_
  6
CONTINUOUS
 62
    7
 10
-5.0825177222458819
 20
9.3904156871853388
 40
42.924784978841579
 50
267.04868400934492
 51
272.95131599065547
  0
LINE
  8
_0-0_
  6
CONTINUOUS
 62
    7
 10
-2.6938391111656301
 20
-33.566732138714976
 11
-2.2250330286171902
 21
-33.946241824587517
  0
LINE
  8
_0-0_
  6
CONTINUOUS
 62
    7
 10
-2.2250330286171902
 20
-33.946241824587517
 11
-1.1981244668444333
 21
-33.901593626249571
  0
LINE
  8
_0-0_
  6
CONTINUOUS
 62
    7
 10
-1.1534762685064948
 20
-33.812297229573687
 11
-1.1534762685064948
 21
-36.982319311567849
  0
LINE
  8
_0-0_
  6
CONTINUOUS
 62
    7
 10
-1.1534762685064948
 20
-38.768247245085689
 11
-1.2427726651823718
 21
-44.684133524863547
  0
LINE
  8
_0-0_
  6
CONTINUOUS
 62
    7
 10
-1.2427726651823718
 20
-46.604006053395231
 11
-1.2650967643513411
 21
-47.363025425140314
  0
LINE
  8
_0-0_
  6
CONTINUOUS
 62
    7
 10
-2.1803848302792517
 20
-34.013214122094439
 11
-2.3813017228000035
 21
-47.452321821816206
  0
LINE
  8
_0-0_
  6
CONTINUOUS
 62
    7
 10
-2.8501078053484292
 20
-33.678352634559843
 11
-3.1626451937140558
 21
-47.429997722647229
  0
LINE
  8
_0-0_
  6
CONTINUOUS
 62
    7
 10
-3.1849692928830251
 20
-47.586266416830043
 11
-2.3813017228000035
 21
-47.496970020154151
  0
LINE
  8
_0-0_
  6
CONTINUOUS
 62
    7
 10
-2.3813017228000035
 20
-47.496970020154151
 11
-1.2650967643513411
 21
-47.363025425140314
  0
LINE
  8
_0-0_
  6
CONTINUOUS
 62
    7
 10
-12.344033245816689
 20
-43.592742043548753
 11
-12.315525852993005
 21
-47.139784433450586
  0
ARC
  8
_0-0_
  6
CONTINUOUS
 62
    7
 10
-8.2525398042399161
 20
-33.622113077037859
 40
14.115073309492352
 50
253.27087787796998
 51
272.81027797903226
  0
ARC
  8
_0-0_
  6
CONTINUOUS
 62
    7
 10
-6.3330273418238505
 20
-16.283558588541865
 40
31.46060690550447
 50
267.76398333427346
 51
275.74282638586953
  0
LINE
  8
_0-0_
  6
CONTINUOUS
 62
    7
 10
-12.270877654655052
 20
-34.169482816277245
 11
-12.337849952161974
 21
-42.18383441793857
  0
LINE
  8
_0-0_
  6
CONTINUOUS
 62
    7
 10
-13.565675406455497
 20
-33.410463444532162
 11
-13.610323604793436
 21
-35.776817956443303
  0
LINE
  8
_0-0_
  6
CONTINUOUS
 62
    7
 10
-35.670785793104315
 20
2.120238690640889
 11
-35.963580780844325
 21
0.5098662580709003
  0
LINE
  8
_0-0_
  6
CONTINUOUS
 62
    7
 10
-35.963580780844325
 20
0.5098662580709003
 11
-32.238660126091489
 21
-5.7324349957254128
  0
LINE
  8
_0-0_
  6
CONTINUOUS
 62
    7
 10
19.704066263223211
 20
-5.7120272314041074
 11
22.888211754895707
 21
-0.0391243439416086
  0
LINE
  8
_0-0_
  6
CONTINUOUS
 62
    7
 10
22.888211754895707
 20
-0.0391243439416086
 11
23.254205489570722
 21
-0.1489224643441104
  0
LINE
  8
_0-0_
  6
CONTINUOUS
 62
    7
 10
23.254205489570722
 20
-0.1489224643441104
 11
23.290804863038204
 21
0.7660618723433998
  0
ARC
  8
_0-0_
  6
CONTINUOUS
 62
    7
 10
-26.396444557466921
 20
-13.683190775706834
 40
18.323803869635569
 50
98.777756037101952
 51
120.40680774500129
  0
ARC
  8
_0-0_
  6
CONTINUOUS
 62
    7
 10
-8.4763585947517583
 20
-97.497775051816774
 40
104.00779983096189
 50
92.118078567931306
 51
101.48904804098338
  0
ARC
  8
_0-0_
  6
CONTINUOUS
 62
    7
 10
-7.8110184113973276
 20
-115.48814168149993
 40
122.01046543996637
 50
84.512562567731891
 51
92.118068796475512
  0
ARC
  8
_0-0_
  6
CONTINUOUS
 62
    7
 10
-5.3080677027653991
 20
-84.610442188311566
 40
91.036090318587839
 50
77.428300058966215
 51
84.222245357532984
  0
ARC
  8
_0-0_
  6
CONTINUOUS
 62
    7
 10
1356.8621758846571
 20
5160.7287301351662
 40
5328.3452027107414
 50
255.40841521462633
 51
255.4710335466599
  0
ARC
  8
_0-0_
  6
CONTINUOUS
 62
    7
 10
18.553983403346081
 20
-3.6276113214582324
 40
6.6008193419927617
 50
54.620158181725138
 51
76.068044330150627
  0
ARC
  8
_0-0_
  6
CONTINUOUS
 62
    7
 10
21.780682888226949
 20
0.2854961859439839
 40
1.5847434359392116
 50
17.652616207556939
 51
67.942187468911953
  0
ARC
  8
_0-0_
  6
CONTINUOUS
 62
    7
 10
-29.621791024505598
 20
-8.4776378710295432
 40
11.936338750352855
 50
103.16439757839944
 51
120.65301207796441
  0
ARC
  8
_0-0_
  6
CONTINUOUS
 62
    7
 10
-22.912795312590617
 20
-31.716023390385409
 40
36.11328277184127
 50
91.195392349101638
 51
105.13249785578427
  0
ARC
  8
_0-0_
  6
CONTINUOUS
 62
    7
 10
-10.177361160344148
 20
-141.31813356538936
 40
146.33056355780343
 50
87.771814028335598
 51
95.289064335693979
  0
ARC
  8
_0-0_
  6
CONTINUOUS
 62
    7
 10
-11.527430701384347
 20
-207.39780520957743
 40
212.4162669925295
 50
84.251384402024641
 51
88.100914392470386
  0
ARC
  8
_0-0_
  6
CONTINUOUS
 62
    7
 10
-4.6891758943975788
 20
-105.33011599438787
 40
110.22999163414016
 50
77.896804221812616
 51
82.473622434082472
  0
ARC
  8
_0-0_
  6
CONTINUOUS
 62
    7
 10
15.603973293455994
 20
-13.482892888750982
 40
16.180012103156148
 50
68.49974363342821
 51
79.965891281620515
  0
ARC
  8
_0-0_
  6
CONTINUOUS
 62
    7
 10
16.790110263917853
 20
-6.5225957084871169
 40
9.3816378480609988
 50
50.624557946973333
 51
59.624785363821637
  0
ARC
  8
_0-0_
  6
CONTINUOUS
 62
    7
 10
22.377713597392216
 20
0.26187395164456
 40
0.5926283344223733
 50
329.47568385400922
 51
52.092911881118432
  0
ARC
  8
_0-0_
  6
CONTINUOUS
 62
    7
 10
-31.663754388142053
 20
-5.3163340051448245
 40
1.1821202375631161
 50
110.8266354477902
 51
155.90021046897596
  0
ARC
  8
_0-0_
  6
CONTINUOUS
 62
    7
 10
-26.736472069982298
 20
-14.909314230552013
 40
11.959966401940733
 50
95.46311206066656
 51
116.55924289695045
  0
ARC
  8
_0-0_
  6
CONTINUOUS
 62
    7
 10
-13.595669439396033
 20
-89.632327493541467
 40
87.797644404867768
 50
91.604176941292195
 51
99.360191677800799
  0
ARC
  8
_0-0_
  6
CONTINUOUS
 62
    7
 10
-9.1041811794755318
 20
-243.61290806882133
 40
241.84367977712031
 50
87.414134016820285
 51
91.646611943800352
  0
ARC
  8
_0-0_
  6
CONTINUOUS
 62
    7
 10
-0.34282919976647
 20
-77.61552100526653
 40
75.630590759598192
 50
78.874492421846625
 51
88.371146330938899
  0
ARC
  8
_0-0_
  6
CONTINUOUS
 62
    7
 10
11.766068817827659
 20
-21.775085586585028
 40
18.536105188120313
 50
71.358351606561598
 51
82.296541546785178
  0
ARC
  8
_0-0_
  6
CONTINUOUS
 62
    7
 10
16.863762253863541
 20
-8.0480304000381011
 40
3.9247695101619224
 50
48.107473911318067
 51
77.830805568995544
  0
ARC
  8
_0-0_
  6
CONTINUOUS
 62
    7
 10
18.569485685730768
 20
-5.492430990599118
 40
0.9854682898017216
 50
328.67130713219501
 51
21.801409486353961
  0
ARC
  8
_0-0_
  6
CONTINUOUS
 62
    7
 10
18.789081926535715
 20
-5.5900293198457831
 40
0.747778533559252
 50
264.38241940987371
 51
326.30993247402114
  0
ARC
  8
_0-0_
  6
CONTINUOUS
 62
    7
 10
18.130293204120704
 20
-3.6441626304900581
 40
2.4514068007089187
 50
263.14023999447511
 51
282.06488441052392
  0
ARC
  8
_0-0_
  6
CONTINUOUS
 62
    7
 10
18.240091324523348
 20
-6.2976172068841123
 40
0.4771974470763341
 50
355.6012946450038
 51
32.471192290857786
  0
ARC
  8
_0-0_
  6
CONTINUOUS
 62
    7
 10
17.044708562076693
 20
-6.2462600215345958
 40
0.797653930104039
 50
290.58085932782296
 51
353.6691733699808
  0
ARC
  8
_0-0_
  6
CONTINUOUS
 62
    7
 10
89.795526391084252
 20
-8.8925127857411752
 40
72.00349087555368
 50
176.71015576014085
 51
177.96384270772549
  0
ARC
  8
_0-0_
  6
CONTINUOUS
 62
    7
 10
11.081920554317662
 20
-19.177195238681975
 40
15.952269974088061
 50
64.654509755280401
 51
82.27581453002918
  0
ARC
  8
_0-0_
  6
CONTINUOUS
 62
    7
 10
1.8514147339691363
 20
-62.327896818675015
 40
60.045428592623487
 50
79.080326009190415
 51
87.387324345703448
  0
ARC
  8
_0-0_
  6
CONTINUOUS
 62
    7
 10
15.880839404079722
 20
-7.5260423317291867
 40
1.5394925552706002
 50
20.257632399588868
 51
81.163553875409548
  0
ARC
  8
_0-0_
  6
CONTINUOUS
 62
    7
 10
6.1887844689418898
 20
-36.165113809881532
 40
31.752466971917173
 50
71.778840406955155
 51
84.159967399969318
  0
ARC
  8
_0-0_
  6
CONTINUOUS
 62
    7
 10
-13.356538657062089
 20
-189.91205455490527
 40
186.72887110905702
 50
82.993923412888705
 51
85.893999740861247
  0
ARC
  8
_0-0_
  6
CONTINUOUS
 62
    7
 10
-7.4610619390654733
 20
-189.78967681922097
 40
186.27724122734955
 50
87.700299926731901
 51
91.190784118746549
  0
ARC
  8
_0-0_
  6
CONTINUOUS
 62
    7
 10
-12.074570995346733
 20
-73.472097612311345
 40
69.923374348061941
 50
89.391685759846254
 51
96.181381379140603
  0
ARC
  8
_0-0_
  6
CONTINUOUS
 62
    7
 10
-12.738990854874316
 20
-82.679365903131725
 40
79.022838272190299
 50
94.983533809688552
 51
100.20575292749442
  0
ARC
  8
_0-0_
  6
CONTINUOUS
 62
    7
 10
-26.343838678348419
 20
-7.9976270880313649
 40
3.1161401492121139
 50
97.313881862327278
 51
142.82328378139718
  0
ARC
  8
_0-0_
  6
CONTINUOUS
 62
    7
 10
-27.587706517590959
 20
-6.7395008188961185
 40
1.387655499248984
 50
153.23617848586909
 51
209.94610205652137
  0
ARC
  8
_0-0_
  6
CONTINUOUS
 62
    7
 10
-30.078575028197676
 20
-6.0224646337219809
 40
1.7153264404566164
 50
114.98399902165659
 51
174.09195991343219
  0
ARC
  8
_0-0_
  6
CONTINUOUS
 62
    7
 10
-22.807448467339555
 20
-20.835481851528705
 40
18.216363994456593
 50
92.586759705306918
 51
116.0353228199062
  0
ARC
  8
_0-0_
  6
CONTINUOUS
 62
    7
 10
-31.114163796400561
 20
-3.3611981919085565
 40
2.5736151945854875
 50
254.89566134446181
 51
272.85298966896016
  0
ARC
  8
_0-0_
  6
CONTINUOUS
 62
    7
 10
-29.869785098505361
 20
-5.8035256650727405
 40
1.1236067262466696
 50
186.54629078329893
 51
239.67639313744382
  0
ARC
  8
_0-0_
  6
CONTINUOUS
 62
    7
 10
-28.348623638762334
 20
-3.6167131003890489
 40
3.7850178466656383
 50
236.51160971179323
 51
258.24866039212645
  0
ARC
  8
_0-0_
  6
CONTINUOUS
 62
    7
 10
-27.747021437390543
 20
-5.2179356895928066
 40
2.5124610198631254
 50
236.88865803962818
 51
259.50852298766802
  0
ARC
  8
_0-0_
  6
CONTINUOUS
 62
    7
 10
-20.911581773484301
 20
19.094360494144922
 40
27.757931493391578
 50
254.76769386255384
 51
267.63748471746442
  0
ARC
  8
_0-0_
  6
CONTINUOUS
 62
    7
 10
-10.882713496040424
 20
64.927733989409234
 40
74.411332468755759
 50
261.3641907517308
 51
269.59753381885605
  0
ARC
  8
_0-0_
  6
CONTINUOUS
 62
    7
 10
-3.7765083763747214
 20
121.38812251533386
 40
131.09205491321518
 50
266.66379128299258
 51
271.40072456398536
  0
ARC
  8
_0-0_
  6
CONTINUOUS
 62
    7
 10
0.2685711774713581
 20
51.928653449098221
 40
61.599148243106384
 50
269.2181400011487
 51
277.16875854541792
  0
ARC
  8
_0-0_
  6
CONTINUOUS
 62
    7
 10
7.3927942571725396
 20
18.98876371707658
 40
28.183352791587055
 50
271.14437763797196
 51
283.77675461436513
  0
ARC
  8
_0-0_
  6
CONTINUOUS
 62
    7
 10
11.370388924672937
 20
8.0456772550316629
 40
16.655381240040938
 50
279.44783319216515
 51
286.69080260039868
  0
ARC
  8
_0-0_
  6
CONTINUOUS
 62
    7
 10
15.945976051264864
 20
-6.669267208367657
 40
1.2560560790399755
 50
279.5296908155234
 51
326.69299310522064
  0
ARC
  8
_0-0_
  6
CONTINUOUS
 62
    7
 10
17.737553773450145
 20
-7.6954317397004672
 40
0.8145644543357384
 50
120.42036294199949
 51
155.60521206636787
  0
LINE
  8
_0-0_
  6
CONTINUOUS
 62
    7
 10
19.780334384366199
 20
1.3936906186215197
 11
20.397472864363834
 21
1.3936906186215197
  0
LINE
  8
_0-0_
  6
CONTINUOUS
 62
    7
 10
20.397472864363834
 20
1.3936906186215197
 11
20.46760223709083
 21
1.6040787368025207
  0
LINE
  8
_0-0_
  6
CONTINUOUS
 62
    7
 10
20.46760223709083
 20
1.6040787368025207
 11
21.098766591633876
 21
1.5620011131663176
  0
LINE
  8
_0-0_
  6
CONTINUOUS
 62
    7
 10
21.098766591633876
 20
1.5620011131663176
 11
20.173058871637409
 21
-1.4675877886402446
  0
LINE
  8
_0-0_
  6
CONTINUOUS
 62
    7
 10
20.173058871637409
 20
-1.4675877886402446
 11
19.92059312982019
 21
-1.3974584159132348
  0
LINE
  8
_0-0_
  6
CONTINUOUS
 62
    7
 10
19.92059312982019
 20
-1.3974584159132348
 11
20.930456097089063
 21
1.5620011131663176
  0
LINE
  8
_0-0_
  6
CONTINUOUS
 62
    7
 10
20.930456097089063
 20
1.5620011131663176
 11
21.042663093452262
 21
1.5058976149847183
  0
LINE
  8
_0-0_
  6
CONTINUOUS
 62
    7
 10
19.92059312982019
 20
-1.3974584159132348
 11
19.079040657096158
 21
-1.3413549177316355
  0
LINE
  8
_0-0_
  6
CONTINUOUS
 62
    7
 10
20.173058871637409
 20
-1.4675877886402446
 11
19.135144155277743
 21
-1.3974584159132348
  0
LINE
  8
_0-0_
  6
CONTINUOUS
 62
    7
 10
19.948644878911011
 20
0.9869402568048855
 11
19.387609897094961
 21
-0.7662940613702033
  0
ARC
  8
_0-0_
  6
CONTINUOUS
 62
    7
 10
19.890909059122862
 20
0.3857622547381822
 40
1.0139755151965346
 50
96.260591795297955
 51
159.88497195268343
  0
ARC
  8
_0-0_
  6
CONTINUOUS
 62
    7
 10
21.176688116886055
 20
-0.3595436995535834
 40
2.4910038211968502
 50
153.94793593899661
 51
181.29055020338856
  0
ARC
  8
_0-0_
  6
CONTINUOUS
 62
    7
 10
19.904654636018535
 20
-0.430310612032656
 40
1.218426704371615
 50
179.31044515745748
 51
223.64313680162454
  0
ARC
  8
_0-0_
  6
CONTINUOUS
 62
    7
 10
19.430412997000843
 20
-0.9512905101154558
 40
0.5180685139763406
 50
218.13769888622662
 51
265.26078958175583
  0
LINE
  8
_0-0_
  6
CONTINUOUS
 62
    7
 10
-1.4610886998159742
 20
-37.145533594987079
 11
-0.4794720878732334
 21
-37.158798684337654
  0
LINE
  8
_0-0_
  6
CONTINUOUS
 62
    7
 10
-0.5192673559249669
 20
-38.631223602251751
 11
-1.6202697720229082
 21
-38.671018870303485
  0
LINE
  8
_0-0_
  6
CONTINUOUS
 62
    7
 10
-1.5672094146205922
 20
-44.865815597023129
 11
-0.4794720878732334
 21
-44.865815597023129
  0
LINE
  8
_0-0_
  6
CONTINUOUS
 62
    7
 10
-1.5804745039711747
 20
-46.590277212598188
 11
-0.4529419091720967
 21
-46.590277212598188
  0
ARC
  8
_0-0_
  6
CONTINUOUS
 62
    7
 10
-0.4675497836410613
 20
-37.587635422576007
 40
0.429002435192523
 50
91.592498359382873
 51
170.51712918254128
  0
ARC
  8
_0-0_
  6
CONTINUOUS
 62
    7
 10
0.252740846656394
 20
-37.92380771917135
 40
1.2136564663785905
 50
160.41359727909557
 51
195.42127216144081
  0
ARC
  8
_0-0_
  6
CONTINUOUS
 62
    7
 10
-0.3240071222574272
 20
-38.031048868124017
 40
0.631138867712322
 50
199.96377017754781
 51
251.97827368461185
  0
ARC
  8
_0-0_
  6
CONTINUOUS
 62
    7
 10
-0.4408827370351957
 20
-38.042736001971534
 40
0.5936849367821771
 50
262.41304734002296
 51
305.65943959582779
  0
ARC
  8
_0-0_
  6
CONTINUOUS
 62
    7
 10
-1.3002494914399847
 20
-37.843608922061307
 40
1.3847670845254401
 50
330.51891739818888
 51
354.29623347744928
  0
ARC
  8
_0-0_
  6
CONTINUOUS
 62
    7
 10
-0.5010278580680278
 20
-37.795522973165376
 40
0.607758366993086
 50
342.2076861204547
 51
30.132664069603319
  0
ARC
  8
_0-0_
  6
CONTINUOUS
 62
    7
 10
-0.4456508139616914
 20
-37.684274972051547
 40
0.50863986612149
 50
22.402615738561241
 51
78.796062934482663
  0
ARC
  8
_0-0_
  6
CONTINUOUS
 62
    7
 10
-0.3866164624191981
 20
-37.039412880182397
 40
0.1512452888927849
 50
232.12501634890936
 51
285.25511870305183
  0
ARC
  8
_0-0_
  6
CONTINUOUS
 62
    7
 10
-1.1230637017187632
 20
-37.661346007433401
 40
0.6167036112852871
 50
123.2378453007998
 51
178.90930302869478
  0
ARC
  8
_0-0_
  6
CONTINUOUS
 62
    7
 10
-0.4098303687832753
 20
-38.007764402774612
 40
1.3772116084054442
 50
164.92638791102939
 51
195.07361208897061
  0
ARC
  8
_0-0_
  6
CONTINUOUS
 62
    7
 10
-1.2841324078792695
 20
-38.269086662980996
 40
0.4657020545048706
 50
192.00128933037482
 51
236.57246462404044
  0
ARC
  8
_0-0_
  6
CONTINUOUS
 62
    7
 10
-0.4171261679255167
 20
-45.387133608500818
 40
0.5250328397587918
 50
96.819776913961249
 51
167.89513249790983
  0
ARC
  8
_0-0_
  6
CONTINUOUS
 62
    7
 10
0.3502276674591939
 20
-45.809216118217769
 40
1.3868827418383967
 50
157.43533811577689
 51
193.76725117423075
  0
ARC
  8
_0-0_
  6
CONTINUOUS
 62
    7
 10
-0.3293156256343365
 20
-45.887771128220471
 40
0.7133009579196361
 50
200.6449772424665
 51
260.01934052085323
  0
ARC
  8
_0-0_
  6
CONTINUOUS
 62
    7
 10
-0.6372319005070608
 20
-46.040486634335679
 40
0.5798555689587404
 50
288.53116952225224
 51
339.30698210442392
  0
ARC
  8
_0-0_
  6
CONTINUOUS
 62
    7
 10
-1.6276392661073658
 20
-45.753593984300615
 40
1.6098142869583725
 50
342.2120274615549
 51
12.335350550632143
  0
ARC
  8
_0-0_
  6
CONTINUOUS
 62
    7
 10
-0.8710848359803549
 20
-45.609050750342234
 40
0.8400946599099845
 50
13.72808317380454
 51
62.215124348295205
  0
ARC
  8
_0-0_
  6
CONTINUOUS
 62
    7
 10
-1.3036530341025525
 20
-45.310196090267468
 40
0.5166584834180642
 50
120.67163689654173
 51
183.6801703349509
  0
ARC
  8
_0-0_
  6
CONTINUOUS
 62
    7
 10
0.6878557749774927
 20
-46.006613281172783
 40
2.5933504124577857
 50
165.18185274911872
 51
184.10649716517057
  0
ARC
  8
_0-0_
  6
CONTINUOUS
 62
    7
 10
-1.2374771936205491
 20
-45.989558166293463
 40
0.6917445536475352
 50
197.0450293113046
 51
240.27458719687792
  0
ARC
  8
_0-0_
  6
CONTINUOUS
 62
    7
 10
-25.362497033476814
 20
-5.1417988063563342
 40
0.1397682302542688
 50
59.250032697795675
 51
255.51023740612038
  0
ARC
  8
_0-0_
  6
CONTINUOUS
 62
    7
 10
-25.12074104760373
 20
-3.0899138822323806
 40
2.2046437990022443
 50
262.78921159015101
 51
283.39890452768361
  0
ARC
  8
_0-0_
  6
CONTINUOUS
 62
    7
 10
-26.362971490737735
 20
-5.5888193085367419
 40
0.1397682302542688
 50
59.250032697795675
 51
255.51023740612038
  0
ARC
  8
_0-0_
  6
CONTINUOUS
 62
    7
 10
-26.121215504864651
 20
-3.5369343844127883
 40
2.2046437990022443
 50
262.78921159015101
 51
283.39890452768361
  0
ARC
  8
_0-0_
  6
CONTINUOUS
 62
    7
 10
-24.489742719696025
 20
-5.5888193085367419
 40
0.1397682302542688
 50
59.250032697795675
 51
255.51023740612038
  0
ARC
  8
_0-0_
  6
CONTINUOUS
 62
    7
 10
-24.247986733822941
 20
-3.5369343844127883
 40
2.2046437990022443
 50
262.78921159015101
 51
283.39890452768361
  0
ARC
  8
_0-0_
  6
CONTINUOUS
 62
    7
 10
-25.298636961736761
 20
-5.9081196672370311
 40
0.1397682302542688
 50
59.250032697795675
 51
255.51023740612038
  0
ARC
  8
_0-0_
  6
CONTINUOUS
 62
    7
 10
-25.056880975863677
 20
-3.8562347431130775
 40
2.2046437990022443
 50
262.78921159015101
 51
283.39890452768361
  0
ARC
  8
_0-0_
  6
CONTINUOUS
 62
    7
 10
-27.089455830675817
 20
-5.781920001655493
 40
0.1118145842034151
 50
59.250032697795675
 51
255.51023740612038
  0
ARC
  8
_0-0_
  6
CONTINUOUS
 62
    7
 10
-26.896051041977358
 20
-4.1404120623563188
 40
1.7637150392017955
 50
262.78921159015101
 51
283.39890452768361
  0
ARC
  8
_0-0_
  6
CONTINUOUS
 62
    7
 10
-27.834490000976487
 20
-6.03736028861573
 40
0.1118145842034151
 50
59.250032697795675
 51
255.51023740612038
  0
ARC
  8
_0-0_
  6
CONTINUOUS
 62
    7
 10
-27.641085212278028
 20
-4.3958523493165558
 40
1.7637150392017955
 50
262.78921159015101
 51
283.39890452768361
  0
ARC
  8
_0-0_
  6
CONTINUOUS
 62
    7
 10
-25.918687848774752
 20
-6.2502271944159276
 40
0.1118145842034151
 50
59.250032697795675
 51
255.51023740612038
  0
ARC
  8
_0-0_
  6
CONTINUOUS
 62
    7
 10
-25.725283060076293
 20
-4.6087192551167533
 40
1.7637150392017955
 50
262.78921159015101
 51
283.39890452768361
  0
ARC
  8
_0-0_
  6
CONTINUOUS
 62
    7
 10
-23.321711598012385
 20
-5.9309268357156384
 40
0.1118145842034151
 50
59.250032697795675
 51
255.51023740612038
  0
ARC
  8
_0-0_
  6
CONTINUOUS
 62
    7
 10
-23.128306809313926
 20
-4.2894188964164641
 40
1.7637150392017955
 50
262.78921159015101
 51
283.39890452768361
  0
ARC
  8
_0-0_
  6
CONTINUOUS
 62
    7
 10
-23.896452243672911
 20
-6.2928005755759671
 40
0.1118145842034151
 50
59.250032697795675
 51
255.51023740612038
  0
ARC
  8
_0-0_
  6
CONTINUOUS
 62
    7
 10
-23.703047454974453
 20
-4.6512926362767928
 40
1.7637150392017955
 50
262.78921159015101
 51
283.39890452768361
  0
ARC
  8
_0-0_
  6
CONTINUOUS
 62
    7
 10
-28.027438646305384
 20
-6.5702877920654998
 40
0.0978377611779882
 50
59.250032697795675
 51
255.51023740612038
  0
ARC
  8
_0-0_
  6
CONTINUOUS
 62
    7
 10
-27.858209456194217
 20
-5.1339683451787295
 40
1.5432506593015711
 50
262.78921159015101
 51
283.39890452768361
  0
ARC
  8
_0-0_
  6
CONTINUOUS
 62
    7
 10
-27.473984691224885
 20
-7.1876018188860655
 40
0.0978377611779882
 50
59.250032697795675
 51
255.51023740612038
  0
ARC
  8
_0-0_
  6
CONTINUOUS
 62
    7
 10
-27.304755501113718
 20
-5.7512823719992952
 40
1.5432506593015711
 50
262.78921159015101
 51
283.39890452768361
  0
ARC
  8
_0-0_
  6
CONTINUOUS
 62
    7
 10
-26.686377139764161
 20
-7.4643287964263152
 40
0.0978377611779882
 50
59.250032697795675
 51
255.51023740612038
  0
ARC
  8
_0-0_
  6
CONTINUOUS
 62
    7
 10
-26.517147949652994
 20
-6.0280093495395448
 40
1.5432506593015711
 50
262.78921159015101
 51
283.39890452768361
  0
ARC
  8
_0-0_
  6
CONTINUOUS
 62
    7
 10
-25.877482897723425
 20
-7.7410557739665649
 40
0.0978377611779882
 50
59.250032697795675
 51
255.51023740612038
  0
ARC
  8
_0-0_
  6
CONTINUOUS
 62
    7
 10
-25.708253707612258
 20
-6.3047363270797945
 40
1.5432506593015711
 50
262.78921159015101
 51
283.39890452768361
  0
ARC
  8
_0-0_
  6
CONTINUOUS
 62
    7
 10
-24.98344189336261
 20
-7.9964960609268019
 40
0.0978377611779882
 50
59.250032697795675
 51
255.51023740612038
  0
ARC
  8
_0-0_
  6
CONTINUOUS
 62
    7
 10
-24.814212703251442
 20
-6.5601766140400315
 40
1.5432506593015711
 50
262.78921159015101
 51
283.39890452768361
  0
ARC
  8
_0-0_
  6
CONTINUOUS
 62
    7
 10
-25.643329301343215
 20
-7.1876018188860655
 40
0.0978377611779882
 50
59.250032697795675
 51
255.51023740612038
  0
ARC
  8
_0-0_
  6
CONTINUOUS
 62
    7
 10
-25.474100111232048
 20
-5.7512823719992952
 40
1.5432506593015711
 50
262.78921159015101
 51
283.39890452768361
  0
ARC
  8
_0-0_
  6
CONTINUOUS
 62
    7
 10
-26.026489731783556
 20
-6.80444138844571
 40
0.0978377611779882
 50
59.250032697795675
 51
255.51023740612038
  0
ARC
  8
_0-0_
  6
CONTINUOUS
 62
    7
 10
-25.857260541672389
 20
-5.3681219415589396
 40
1.5432506593015711
 50
262.78921159015101
 51
283.39890452768361
  0
ARC
  8
_0-0_
  6
CONTINUOUS
 62
    7
 10
-23.812673911461545
 20
-7.0385949848259202
 40
0.0978377611779882
 50
59.250032697795675
 51
255.51023740612038
  0
ARC
  8
_0-0_
  6
CONTINUOUS
 62
    7
 10
-23.643444721350377
 20
-5.6022755379391498
 40
1.5432506593015711
 50
262.78921159015101
 51
283.39890452768361
  0
ARC
  8
_0-0_
  6
CONTINUOUS
 62
    7
 10
-23.216646575221006
 20
-7.4004687246862488
 40
0.0978377611779882
 50
59.250032697795675
 51
255.51023740612038
  0
ARC
  8
_0-0_
  6
CONTINUOUS
 62
    7
 10
-23.047417385109839
 20
-5.9641492777994785
 40
1.5432506593015711
 50
262.78921159015101
 51
283.39890452768361
  0
ARC
  8
_0-0_
  6
CONTINUOUS
 62
    7
 10
-24.536421391182202
 20
-7.6133356304864463
 40
0.0978377611779882
 50
59.250032697795675
 51
255.51023740612038
  0
ARC
  8
_0-0_
  6
CONTINUOUS
 62
    7
 10
-24.367192201071035
 20
-6.177016183599676
 40
1.5432506593015711
 50
262.78921159015101
 51
283.39890452768361
  0
ARC
  8
_0-0_
  6
CONTINUOUS
 62
    7
 10
-23.237933265801018
 20
-7.8262025362866439
 40
0.0978377611779882
 50
59.250032697795675
 51
255.51023740612038
  0
ARC
  8
_0-0_
  6
CONTINUOUS
 62
    7
 10
-23.068704075689851
 20
-6.3898830893998735
 40
1.5432506593015711
 50
262.78921159015101
 51
283.39890452768361
  0
ARC
  8
_0-0_
  6
CONTINUOUS
 62
    7
 10
-23.621093696241374
 20
-8.1880762761469725
 40
0.0978377611779882
 50
59.250032697795675
 51
255.51023740612038
  0
ARC
  8
_0-0_
  6
CONTINUOUS
 62
    7
 10
-23.451864506130207
 20
-6.7517568292602022
 40
1.5432506593015711
 50
262.78921159015101
 51
283.39890452768361
  0
ARC
  8
_0-0_
  6
CONTINUOUS
 62
    7
 10
-22.109738665059993
 20
-8.1242162044069204
 40
0.0978377611779882
 50
59.250032697795675
 51
255.51023740612038
  0
ARC
  8
_0-0_
  6
CONTINUOUS
 62
    7
 10
-21.940509474948826
 20
-6.68789675752015
 40
1.5432506593015711
 50
262.78921159015101
 51
283.39890452768361
  0
ARC
  8
_0-0_
  6
CONTINUOUS
 62
    7
 10
-21.534998019399467
 20
-7.8262025362866439
 40
0.0978377611779882
 50
59.250032697795675
 51
255.51023740612038
  0
ARC
  8
_0-0_
  6
CONTINUOUS
 62
    7
 10
-21.365768829288299
 20
-6.3898830893998735
 40
1.5432506593015711
 50
262.78921159015101
 51
283.39890452768361
  0
ARC
  8
_0-0_
  6
CONTINUOUS
 62
    7
 10
-21.087977517219059
 20
-8.5073766348472617
 40
0.0978377611779882
 50
59.250032697795675
 51
255.51023740612038
  0
ARC
  8
_0-0_
  6
CONTINUOUS
 62
    7
 10
-20.918748327107892
 20
-7.0710571879604913
 40
1.5432506593015711
 50
262.78921159015101
 51
283.39890452768361
  0
ARC
  8
_0-0_
  6
CONTINUOUS
 62
    7
 10
-19.448902342557574
 20
-8.2519363478870247
 40
0.0978377611779882
 50
59.250032697795675
 51
255.51023740612038
  0
ARC
  8
_0-0_
  6
CONTINUOUS
 62
    7
 10
-19.279673152446406
 20
-6.8156169010002543
 40
1.5432506593015711
 50
262.78921159015101
 51
283.39890452768361
  0
ARC
  8
_0-0_
  6
CONTINUOUS
 62
    7
 10
-20.342943346918389
 20
-8.1029295138268935
 40
0.0978377611779882
 50
59.250032697795675
 51
255.51023740612038
  0
ARC
  8
_0-0_
  6
CONTINUOUS
 62
    7
 10
-20.173714156807222
 20
-6.6666100669401231
 40
1.5432506593015711
 50
262.78921159015101
 51
283.39890452768361
  0
ARC
  8
_0-0_
  6
CONTINUOUS
 62
    7
 10
-18.065267454856311
 20
-8.4435165631072095
 40
0.0978377611779882
 50
59.250032697795675
 51
255.51023740612038
  0
ARC
  8
_0-0_
  6
CONTINUOUS
 62
    7
 10
-17.896038264745144
 20
-7.0071971162204392
 40
1.5432506593015711
 50
262.78921159015101
 51
283.39890452768361
  0
ARC
  8
_0-0_
  6
CONTINUOUS
 62
    7
 10
-18.171700907756403
 20
-8.0816428232468809
 40
0.0978377611779882
 50
59.250032697795675
 51
255.51023740612038
  0
ARC
  8
_0-0_
  6
CONTINUOUS
 62
    7
 10
-18.002471717645236
 20
-6.6453233763601105
 40
1.5432506593015711
 50
262.78921159015101
 51
283.39890452768361
  0
ARC
  8
_0-0_
  6
CONTINUOUS
 62
    7
 10
-19.150888674437297
 20
-7.8687759174466834
 40
0.0978377611779882
 50
59.250032697795675
 51
255.51023740612038
  0
ARC
  8
_0-0_
  6
CONTINUOUS
 62
    7
 10
-18.98165948432613
 20
-6.432456470559913
 40
1.5432506593015711
 50
262.78921159015101
 51
283.39890452768361
  0
ARC
  8
_0-0_
  6
CONTINUOUS
 62
    7
 10
-20.428090109238468
 20
-7.5920489399064337
 40
0.0978377611779882
 50
59.250032697795675
 51
255.51023740612038
  0
ARC
  8
_0-0_
  6
CONTINUOUS
 62
    7
 10
-20.258860919127301
 20
-6.1557294930196633
 40
1.5432506593015711
 50
262.78921159015101
 51
283.39890452768361
  0
ARC
  8
_0-0_
  6
CONTINUOUS
 62
    7
 10
-16.915786163535273
 20
-8.3370831102071037
 40
0.0978377611779882
 50
59.250032697795675
 51
255.51023740612038
  0
ARC
  8
_0-0_
  6
CONTINUOUS
 62
    7
 10
-16.746556973424106
 20
-6.9007636633203333
 40
1.5432506593015711
 50
262.78921159015101
 51
283.39890452768361
  0
ARC
  8
_0-0_
  6
CONTINUOUS
 62
    7
 10
-16.021745159174458
 20
-8.3796564913671432
 40
0.0978377611779882
 50
59.250032697795675
 51
255.51023740612038
  0
ARC
  8
_0-0_
  6
CONTINUOUS
 62
    7
 10
-15.85251596906329
 20
-6.9433370444803728
 40
1.5432506593015711
 50
262.78921159015101
 51
283.39890452768361
  0
ARC
  8
_0-0_
  6
CONTINUOUS
 62
    7
 10
-16.298472136714707
 20
-8.8479636841275777
 40
0.0978377611779882
 50
59.250032697795675
 51
255.51023740612038
  0
ARC
  8
_0-0_
  6
CONTINUOUS
 62
    7
 10
-16.12924294660354
 20
-7.4116442372408073
 40
1.5432506593015711
 50
262.78921159015101
 51
283.39890452768361
  0
ARC
  8
_0-0_
  6
CONTINUOUS
 62
    7
 10
-14.426611795781696
 20
-8.5081368737965448
 40
0.0838609381525613
 50
59.250032697795675
 51
255.51023740612038
  0
ARC
  8
_0-0_
  6
CONTINUOUS
 62
    7
 10
-14.281558204257848
 20
-7.2770059193221783
 40
1.3227862794013467
 50
262.78921159015101
 51
283.39890452768361
  0
ARC
  8
_0-0_
  6
CONTINUOUS
 62
    7
 10
-15.192932656662407
 20
-8.7210037795967423
 40
0.0838609381525613
 50
59.250032697795675
 51
255.51023740612038
  0
ARC
  8
_0-0_
  6
CONTINUOUS
 62
    7
 10
-15.047879065138559
 20
-7.4898728251223758
 40
1.3227862794013467
 50
262.78921159015101
 51
283.39890452768361
  0
ARC
  8
_0-0_
  6
CONTINUOUS
 62
    7
 10
-14.490471867521762
 20
-8.9764440665569794
 40
0.0838609381525613
 50
59.250032697795675
 51
255.51023740612038
  0
ARC
  8
_0-0_
  6
CONTINUOUS
 62
    7
 10
-14.345418275997915
 20
-7.7453131120826129
 40
1.3227862794013467
 50
262.78921159015101
 51
283.39890452768361
  0
ARC
  8
_0-0_
  6
CONTINUOUS
 62
    7
 10
-13.724151006641065
 20
-8.6997170890167155
 40
0.0838609381525613
 50
59.250032697795675
 51
255.51023740612038
  0
ARC
  8
_0-0_
  6
CONTINUOUS
 62
    7
 10
-13.579097415117218
 20
-7.468586134542349
 40
1.3227862794013467
 50
262.78921159015101
 51
283.39890452768361
  0
ARC
  8
_0-0_
  6
CONTINUOUS
 62
    7
 10
-12.106362522559593
 20
-8.9764440665569794
 40
0.0838609381525613
 50
59.250032697795675
 51
255.51023740612038
  0
ARC
  8
_0-0_
  6
CONTINUOUS
 62
    7
 10
-11.961308931035745
 20
-7.7453131120826129
 40
1.3227862794013467
 50
262.78921159015101
 51
283.39890452768361
  0
ARC
  8
_0-0_
  6
CONTINUOUS
 62
    7
 10
-11.318754971098869
 20
-8.6784303984367028
 40
0.0838609381525613
 50
59.250032697795675
 51
255.51023740612038
  0
ARC
  8
_0-0_
  6
CONTINUOUS
 62
    7
 10
-11.173701379575022
 20
-7.4472994439623363
 40
1.3227862794013467
 50
262.78921159015101
 51
283.39890452768361
  0
ARC
  8
_0-0_
  6
CONTINUOUS
 62
    7
 10
-9.9776934645576461
 20
-8.6358570172766633
 40
0.0838609381525613
 50
59.250032697795675
 51
255.51023740612038
  0
ARC
  8
_0-0_
  6
CONTINUOUS
 62
    7
 10
-9.8326398730337985
 20
-7.4047260628022968
 40
1.3227862794013467
 50
262.78921159015101
 51
283.39890452768361
  0
ARC
  8
_0-0_
  6
CONTINUOUS
 62
    7
 10
-10.233133751517883
 20
-9.0403041382970315
 40
0.0838609381525613
 50
59.250032697795675
 51
255.51023740612038
  0
ARC
  8
_0-0_
  6
CONTINUOUS
 62
    7
 10
-10.088080159994036
 20
-7.809173183822665
 40
1.3227862794013467
 50
262.78921159015101
 51
283.39890452768361
  0
ARC
  8
_0-0_
  6
CONTINUOUS
 62
    7
 10
-8.6792053391764625
 20
-9.16802428177715
 40
0.0838609381525613
 50
59.250032697795675
 51
255.51023740612038
  0
ARC
  8
_0-0_
  6
CONTINUOUS
 62
    7
 10
-8.534151747652615
 20
-7.9368933273027835
 40
1.3227862794013467
 50
262.78921159015101
 51
283.39890452768361
  0
ARC
  8
_0-0_
  6
CONTINUOUS
 62
    7
 10
-6.9124100210348587
 20
-9.2957444252572685
 40
0.0838609381525613
 50
59.250032697795675
 51
255.51023740612038
  0
ARC
  8
_0-0_
  6
CONTINUOUS
 62
    7
 10
-6.7673564295110111
 20
-8.064613470782902
 40
1.3227862794013467
 50
262.78921159015101
 51
283.39890452768361
  0
ARC
  8
_0-0_
  6
CONTINUOUS
 62
    7
 10
-21.984512105333536
 20
-6.3540758348884339
 40
0.1593357824898665
 50
59.250032697795675
 51
255.51023740612038
  0
ARC
  8
_0-0_
  6
CONTINUOUS
 62
    7
 10
-21.708910281438222
 20
-4.0149270213871233
 40
2.5132939308625586
 50
262.78921159015101
 51
283.39890452768361
  0
ARC
  8
_0-0_
  6
CONTINUOUS
 62
    7
 10
-22.005798795913563
 20
-7.0991100051891181
 40
0.1593357824898665
 50
59.250032697795675
 51
255.51023740612038
  0
ARC
  8
_0-0_
  6
CONTINUOUS
 62
    7
 10
-21.730196972018248
 20
-4.7599611916878075
 40
2.5132939308625586
 50
262.78921159015101
 51
283.39890452768361
  0
ARC
  8
_0-0_
  6
CONTINUOUS
 62
    7
 10
5.4423851916083947
 20
-4.6638860548080885
 40
0.1397682302542688
 50
59.250032697795675
 51
255.51023740612038
  0
ARC
  8
_0-0_
  6
CONTINUOUS
 62
    7
 10
5.6841411774814787
 20
-2.6120011306841349
 40
2.2046437990022443
 50
262.78921159015101
 51
283.39890452768361
  0
ARC
  8
_0-0_
  6
CONTINUOUS
 62
    7
 10
7.6799011594922888
 20
-5.3157607856089157
 40
0.1397682302542688
 50
59.250032697795675
 51
255.51023740612038
  0
ARC
  8
_0-0_
  6
CONTINUOUS
 62
    7
 10
7.9216571453653728
 20
-3.2638758614849621
 40
2.2046437990022443
 50
262.78921159015101
 51
283.39890452768361
  0
ARC
  8
_0-0_
  6
CONTINUOUS
 62
    7
 10
9.0012688570615182
 20
-5.5624160891551782
 40
0.1397682302542688
 50
59.250032697795675
 51
255.51023740612038
  0
ARC
  8
_0-0_
  6
CONTINUOUS
 62
    7
 10
9.2430248429346022
 20
-3.5105311650312245
 40
2.2046437990022443
 50
262.78921159015101
 51
283.39890452768361
  0
ARC
  8
_0-0_
  6
CONTINUOUS
 62
    7
 10
9.1950694527050132
 20
-5.1043419539978316
 40
0.1397682302542688
 50
59.250032697795675
 51
255.51023740612038
  0
ARC
  8
_0-0_
  6
CONTINUOUS
 62
    7
 10
9.4368254385780972
 20
-3.052457029873878
 40
2.2046437990022443
 50
262.78921159015101
 51
283.39890452768361
  0
ARC
  8
_0-0_
  6
CONTINUOUS
 62
    7
 10
10.692619509950134
 20
-5.2805243136737374
 40
0.1397682302542688
 50
59.250032697795675
 51
255.51023740612038
  0
ARC
  8
_0-0_
  6
CONTINUOUS
 62
    7
 10
10.934375495823218
 20
-3.2286393895497838
 40
2.2046437990022443
 50
262.78921159015101
 51
283.39890452768361
  0
ARC
  8
_0-0_
  6
CONTINUOUS
 62
    7
 10
11.978750735584185
 20
-5.7209802128634806
 40
0.1397682302542688
 50
59.250032697795675
 51
255.51023740612038
  0
ARC
  8
_0-0_
  6
CONTINUOUS
 62
    7
 10
12.220506721457269
 20
-3.6690952887395269
 40
2.2046437990022443
 50
262.78921159015101
 51
283.39890452768361
  0
ARC
  8
_0-0_
  6
CONTINUOUS
 62
    7
 10
10.393109498501104
 20
-5.879544336571783
 40
0.1397682302542688
 50
59.250032697795675
 51
255.51023740612038
  0
ARC
  8
_0-0_
  6
CONTINUOUS
 62
    7
 10
10.634865484374188
 20
-3.8276594124478294
 40
2.2046437990022443
 50
262.78921159015101
 51
283.39890452768361
  0
ARC
  8
_0-0_
  6
CONTINUOUS
 62
    7
 10
3.3986698193679672
 20
-4.4524672231970186
 40
0.1397682302542688
 50
59.250032697795675
 51
255.51023740612038
  0
ARC
  8
_0-0_
  6
CONTINUOUS
 62
    7
 10
3.6404258052410512
 20
-2.400582299073065
 40
2.2046437990022443
 50
262.78921159015101
 51
283.39890452768361
  0
ARC
  8
_0-0_
  6
CONTINUOUS
 62
    7
 10
2.4296668411505493
 20
-4.6638860548080885
 40
0.1397682302542688
 50
59.250032697795675
 51
255.51023740612038
  0
ARC
  8
_0-0_
  6
CONTINUOUS
 62
    7
 10
2.6714228270236333
 20
-2.6120011306841349
 40
2.2046437990022443
 50
262.78921159015101
 51
283.39890452768361
  0
ARC
  8
_0-0_
  6
CONTINUOUS
 62
    7
 10
0.4211879408453
 20
-4.5757948749701427
 40
0.1397682302542688
 50
59.250032697795675
 51
255.51023740612038
  0
ARC
  8
_0-0_
  6
CONTINUOUS
 62
    7
 10
0.662943926718384
 20
-2.5239099508461891
 40
2.2046437990022443
 50
262.78921159015101
 51
283.39890452768361
  0
ARC
  8
_0-0_
  6
CONTINUOUS
 62
    7
 10
4.5967098651640868
 20
-5.2629060777061483
 40
0.1397682302542688
 50
59.250032697795675
 51
255.51023740612038
  0
ARC
  8
_0-0_
  6
CONTINUOUS
 62
    7
 10
4.8384658510371708
 20
-3.2110211535821946
 40
2.2046437990022443
 50
262.78921159015101
 51
283.39890452768361
  0
ARC
  8
_0-0_
  6
CONTINUOUS
 62
    7
 10
3.1872509877568973
 20
-5.5624160891551782
 40
0.1397682302542688
 50
59.250032697795675
 51
255.51023740612038
  0
ARC
  8
_0-0_
  6
CONTINUOUS
 62
    7
 10
3.4290069736299813
 20
-3.5105311650312245
 40
2.2046437990022443
 50
262.78921159015101
 51
283.39890452768361
  0
ARC
  8
_0-0_
  6
CONTINUOUS
 62
    7
 10
1.9363562340580245
 20
-5.3333790215765049
 40
0.1397682302542688
 50
59.250032697795675
 51
255.51023740612038
  0
ARC
  8
_0-0_
  6
CONTINUOUS
 62
    7
 10
2.1781122199311085
 20
-3.2814940974525513
 40
2.2046437990022443
 50
262.78921159015101
 51
283.39890452768361
  0
ARC
  8
_0-0_
  6
CONTINUOUS
 62
    7
 10
-4.4942998941122312
 20
-4.6815042907756776
 40
0.1397682302542688
 50
59.250032697795675
 51
255.51023740612038
  0
ARC
  8
_0-0_
  6
CONTINUOUS
 62
    7
 10
-4.2525439082391472
 20
-2.629619366651724
 40
2.2046437990022443
 50
262.78921159015101
 51
283.39890452768361
  0
ARC
  8
_0-0_
  6
CONTINUOUS
 62
    7
 10
-8.7556129737652242
 20
-4.0480080348917369
 40
0.1257914072288419
 50
59.250032697795675
 51
255.51023740612038
  0
ARC
  8
_0-0_
  6
CONTINUOUS
 62
    7
 10
-8.5380325864794457
 20
-2.2013116031801871
 40
1.9841794191020199
 50
262.78921159015101
 51
283.39890452768361
  0
ARC
  8
_0-0_
  6
CONTINUOUS
 62
    7
 10
-6.3771511181406169
 20
-4.2594268665028068
 40
0.1257914072288419
 50
59.250032697795675
 51
255.51023740612038
  0
ARC
  8
_0-0_
  6
CONTINUOUS
 62
    7
 10
-6.1595707308548384
 20
-2.412730434791257
 40
1.9841794191020199
 50
262.78921159015101
 51
283.39890452768361
  0
ARC
  8
_0-0_
  6
CONTINUOUS
 62
    7
 10
-3.628706307196623
 20
-4.1008627427945044
 40
0.1257914072288419
 50
59.250032697795675
 51
255.51023740612038
  0
ARC
  8
_0-0_
  6
CONTINUOUS
 62
    7
 10
-3.4111259199108446
 20
-2.2541663110829546
 40
1.9841794191020199
 50
262.78921159015101
 51
283.39890452768361
  0
ARC
  8
_0-0_
  6
CONTINUOUS
 62
    7
 10
-1.9725921262431854
 20
-4.48846393408148
 40
0.1257914072288419
 50
59.250032697795675
 51
255.51023740612038
  0
ARC
  8
_0-0_
  6
CONTINUOUS
 62
    7
 10
-1.7550117389574069
 20
-2.6417675023699303
 40
1.9841794191020199
 50
262.78921159015101
 51
283.39890452768361
  0
ARC
  8
_0-0_
  6
CONTINUOUS
 62
    7
 10
-1.5497544630210314
 20
-4.1008627427945044
 40
0.1257914072288419
 50
59.250032697795675
 51
255.51023740612038
  0
ARC
  8
_0-0_
  6
CONTINUOUS
 62
    7
 10
-1.3321740757352529
 20
-2.2541663110829546
 40
1.9841794191020199
 50
262.78921159015101
 51
283.39890452768361
  0
ARC
  8
_0-0_
  6
CONTINUOUS
 62
    7
 10
1.0753626961498526
 20
-4.3475180463407668
 40
0.1257914072288419
 50
59.250032697795675
 51
255.51023740612038
  0
ARC
  8
_0-0_
  6
CONTINUOUS
 62
    7
 10
1.2929430834356026
 20
-2.500821614629217
 40
1.9841794191020199
 50
262.78921159015101
 51
283.39890452768361
  0
ARC
  8
_0-0_
  6
CONTINUOUS
 62
    7
 10
-2.88874039655785
 20
-4.911301597303634
 40
0.1257914072288419
 50
59.250032697795675
 51
255.51023740612038
  0
ARC
  8
_0-0_
  6
CONTINUOUS
 62
    7
 10
-2.6711600092720715
 20
-3.0646051655920843
 40
1.9841794191020199
 50
262.78921159015101
 51
283.39890452768361
  0
ARC
  8
_0-0_
  6
CONTINUOUS
 62
    7
 10
-1.2678626875396048
 20
-5.0522474850443473
 40
0.1257914072288419
 50
59.250032697795675
 51
255.51023740612038
  0
ARC
  8
_0-0_
  6
CONTINUOUS
 62
    7
 10
-1.050282300253798
 20
-3.2055510533327976
 40
1.9841794191020199
 50
262.78921159015101
 51
283.39890452768361
  0
ARC
  8
_0-0_
  6
CONTINUOUS
 62
    7
 10
0.3882514934138612
 20
-5.1403386648823073
 40
0.1257914072288419
 50
59.250032697795675
 51
255.51023740612038
  0
ARC
  8
_0-0_
  6
CONTINUOUS
 62
    7
 10
0.6058318806996112
 20
-3.2936422331707575
 40
1.9841794191020199
 50
262.78921159015101
 51
283.39890452768361
  0
ARC
  8
_0-0_
  6
CONTINUOUS
 62
    7
 10
6.1670328907832754
 20
-5.4750851482665013
 40
0.1257914072288419
 50
59.250032697795675
 51
255.51023740612038
  0
ARC
  8
_0-0_
  6
CONTINUOUS
 62
    7
 10
6.3846132780690823
 20
-3.6283887165549515
 40
1.9841794191020199
 50
262.78921159015101
 51
283.39890452768361
  0
ARC
  8
_0-0_
  6
CONTINUOUS
 62
    7
 10
9.8492442080095088
 20
-6.2679057668080418
 40
0.1257914072288419
 50
59.250032697795675
 51
255.51023740612038
  0
ARC
  8
_0-0_
  6
CONTINUOUS
 62
    7
 10
10.066824595295316
 20
-4.4212093350964921
 40
1.9841794191020199
 50
262.78921159015101
 51
283.39890452768361
  0
ARC
  8
_0-0_
  6
CONTINUOUS
 62
    7
 10
8.686440634148596
 20
-6.9550169695440474
 40
0.1257914072288419
 50
59.250032697795675
 51
255.51023740612038
  0
ARC
  8
_0-0_
  6
CONTINUOUS
 62
    7
 10
8.9040210214344029
 20
-5.1083205378324976
 40
1.9841794191020199
 50
262.78921159015101
 51
283.39890452768361
  0
ARC
  8
_0-0_
  6
CONTINUOUS
 62
    7
 10
1.4851821724118395
 20
-4.965676783104982
 40
0.0978377611779882
 50
59.250032697795675
 51
255.51023740612038
  0
ARC
  8
_0-0_
  6
CONTINUOUS
 62
    7
 10
1.6544113625230068
 20
-3.5293573362182116
 40
1.5432506593015711
 50
262.78921159015101
 51
283.39890452768361
  0
ARC
  8
_0-0_
  6
CONTINUOUS
 62
    7
 10
4.3393363991613683
 20
-4.8247308953642687
 40
0.0978377611779882
 50
59.250032697795675
 51
255.51023740612038
  0
ARC
  8
_0-0_
  6
CONTINUOUS
 62
    7
 10
4.5085655892725356
 20
-3.3884114484774983
 40
1.5432506593015711
 50
262.78921159015101
 51
283.39890452768361
  0
ARC
  8
_0-0_
  6
CONTINUOUS
 62
    7
 10
3.1941510612680588
 20
-5.1066226708456952
 40
0.0978377611779882
 50
59.250032697795675
 51
255.51023740612038
  0
ARC
  8
_0-0_
  6
CONTINUOUS
 62
    7
 10
3.3633802513792261
 20
-3.6703032239589248
 40
1.5432506593015711
 50
262.78921159015101
 51
283.39890452768361
  0
ARC
  8
_0-0_
  6
CONTINUOUS
 62
    7
 10
6.2949605915638358
 20
-5.0890044348781061
 40
0.0978377611779882
 50
59.250032697795675
 51
255.51023740612038
  0
ARC
  8
_0-0_
  6
CONTINUOUS
 62
    7
 10
6.4641897816750031
 20
-3.6526849879913357
 40
1.5432506593015711
 50
262.78921159015101
 51
283.39890452768361
  0
ARC
  8
_0-0_
  6
CONTINUOUS
 62
    7
 10
7.4401459294571737
 20
-4.8775856032670362
 40
0.0978377611779882
 50
59.250032697795675
 51
255.51023740612038
  0
ARC
  8
_0-0_
  6
CONTINUOUS
 62
    7
 10
7.609375119568341
 20
-3.4412661563802658
 40
1.5432506593015711
 50
262.78921159015101
 51
283.39890452768361
  0
ARC
  8
_0-0_
  6
CONTINUOUS
 62
    7
 10
8.5324765594477299
 20
-5.9699162332575924
 40
0.0978377611779882
 50
59.250032697795675
 51
255.51023740612038
  0
ARC
  8
_0-0_
  6
CONTINUOUS
 62
    7
 10
8.7017057495588972
 20
-4.533596786370822
 40
1.5432506593015711
 50
262.78921159015101
 51
283.39890452768361
  0
ARC
  8
_0-0_
  6
CONTINUOUS
 62
    7
 10
7.5282371092951337
 20
-5.8113521095492899
 40
0.0978377611779882
 50
59.250032697795675
 51
255.51023740612038
  0
ARC
  8
_0-0_
  6
CONTINUOUS
 62
    7
 10
7.697466299406301
 20
-4.3750326626625196
 40
1.5432506593015711
 50
262.78921159015101
 51
283.39890452768361
  0
ARC
  8
_0-0_
  6
CONTINUOUS
 62
    7
 10
4.6917011185131798
 20
-5.6880244577761658
 40
0.0978377611779882
 50
59.250032697795675
 51
255.51023740612038
  0
ARC
  8
_0-0_
  6
CONTINUOUS
 62
    7
 10
4.8609303086243472
 20
-4.2517050108893955
 40
1.5432506593015711
 50
262.78921159015101
 51
283.39890452768361
  0
ARC
  8
_0-0_
  6
CONTINUOUS
 62
    7
 10
5.8368864564065177
 20
-5.8818250534196466
 40
0.0978377611779882
 50
59.250032697795675
 51
255.51023740612038
  0
ARC
  8
_0-0_
  6
CONTINUOUS
 62
    7
 10
6.006115646517685
 20
-4.4455056065328762
 40
1.5432506593015711
 50
262.78921159015101
 51
283.39890452768361
  0
ARC
  8
_0-0_
  6
CONTINUOUS
 62
    7
 10
6.6473253109156474
 20
-5.9522979972900032
 40
0.0978377611779882
 50
59.250032697795675
 51
255.51023740612038
  0
ARC
  8
_0-0_
  6
CONTINUOUS
 62
    7
 10
6.8165545010268147
 20
-4.5159785504032328
 40
1.5432506593015711
 50
262.78921159015101
 51
283.39890452768361
  0
ARC
  8
_0-0_
  6
CONTINUOUS
 62
    7
 10
7.6339465251006686
 20
-6.2518080087390331
 40
0.0978377611779882
 50
59.250032697795675
 51
255.51023740612038
  0
ARC
  8
_0-0_
  6
CONTINUOUS
 62
    7
 10
7.8031757152118359
 20
-4.8154885618522627
 40
1.5432506593015711
 50
262.78921159015101
 51
283.39890452768361
  0
ARC
  8
_0-0_
  6
CONTINUOUS
 62
    7
 10
8.6205677392856899
 20
-7.4322298185675493
 40
0.0978377611779882
 50
59.250032697795675
 51
255.51023740612038
  0
ARC
  8
_0-0_
  6
CONTINUOUS
 62
    7
 10
8.7897969293968572
 20
-5.9959103716807789
 40
1.5432506593015711
 50
262.78921159015101
 51
283.39890452768361
  0
ARC
  8
_0-0_
  6
CONTINUOUS
 62
    7
 10
8.0215477163876301
 20
-7.7845945379193466
 40
0.0978377611779882
 50
59.250032697795675
 51
255.51023740612038
  0
ARC
  8
_0-0_
  6
CONTINUOUS
 62
    7
 10
8.1907769064987974
 20
-6.3482750910325763
 40
1.5432506593015711
 50
262.78921159015101
 51
283.39890452768361
  0
ARC
  8
_0-0_
  6
CONTINUOUS
 62
    7
 10
7.369672985586817
 20
-8.471705740655338
 40
0.0978377611779882
 50
59.250032697795675
 51
255.51023740612038
  0
ARC
  8
_0-0_
  6
CONTINUOUS
 62
    7
 10
7.5389021756979844
 20
-7.0353862937685676
 40
1.5432506593015711
 50
262.78921159015101
 51
283.39890452768361
  0
ARC
  8
_0-0_
  6
CONTINUOUS
 62
    7
 10
8.8672230428319381
 20
-8.0841045493683623
 40
0.0978377611779882
 50
59.250032697795675
 51
255.51023740612038
  0
ARC
  8
_0-0_
  6
CONTINUOUS
 62
    7
 10
9.0364522329431054
 20
-6.6477851024815919
 40
1.5432506593015711
 50
262.78921159015101
 51
283.39890452768361
  0
ARC
  8
_0-0_
  6
CONTINUOUS
 62
    7
 10
9.5367160096003545
 20
-7.8726857177572924
 40
0.0978377611779882
 50
59.250032697795675
 51
255.51023740612038
  0
ARC
  8
_0-0_
  6
CONTINUOUS
 62
    7
 10
9.7059451997115218
 20
-6.436366270870522
 40
1.5432506593015711
 50
262.78921159015101
 51
283.39890452768361
  0
ARC
  8
_0-0_
  6
CONTINUOUS
 62
    7
 10
10.488100751850197
 20
-7.5379392343730842
 40
0.0978377611779882
 50
59.250032697795675
 51
255.51023740612038
  0
ARC
  8
_0-0_
  6
CONTINUOUS
 62
    7
 10
10.657329941961365
 20
-6.1016197874863138
 40
1.5432506593015711
 50
262.78921159015101
 51
283.39890452768361
  0
ARC
  8
_0-0_
  6
CONTINUOUS
 62
    7
 10
10.664283111526089
 20
-7.0270103913129844
 40
0.0978377611779882
 50
59.250032697795675
 51
255.51023740612038
  0
ARC
  8
_0-0_
  6
CONTINUOUS
 62
    7
 10
10.833512301637256
 20
-5.5906909444262141
 40
1.5432506593015711
 50
262.78921159015101
 51
283.39890452768361
  0
ARC
  8
_0-0_
  6
CONTINUOUS
 62
    7
 10
11.879941393289783
 20
-6.3046627166418006
 40
0.0978377611779882
 50
59.250032697795675
 51
255.51023740612038
  0
ARC
  8
_0-0_
  6
CONTINUOUS
 62
    7
 10
12.049170583400951
 20
-4.8683432697550302
 40
1.5432506593015711
 50
262.78921159015101
 51
283.39890452768361
  0
ARC
  8
_0-0_
  6
CONTINUOUS
 62
    7
 10
12.267542584576773
 20
-6.6746456719611871
 40
0.0978377611779882
 50
59.250032697795675
 51
255.51023740612038
  0
ARC
  8
_0-0_
  6
CONTINUOUS
 62
    7
 10
12.436771774687941
 20
-5.2383262250744167
 40
1.5432506593015711
 50
262.78921159015101
 51
283.39890452768361
  0
ARC
  8
_0-0_
  6
CONTINUOUS
 62
    7
 10
12.778471427636873
 20
-7.0622468632481628
 40
0.0978377611779882
 50
59.250032697795675
 51
255.51023740612038
  0
ARC
  8
_0-0_
  6
CONTINUOUS
 62
    7
 10
12.94770061774804
 20
-5.6259274163613924
 40
1.5432506593015711
 50
262.78921159015101
 51
283.39890452768361
  0
ARC
  8
_0-0_
  6
CONTINUOUS
 62
    7
 10
12.320397292479527
 20
-7.6436486501786192
 40
0.0978377611779882
 50
59.250032697795675
 51
255.51023740612038
  0
ARC
  8
_0-0_
  6
CONTINUOUS
 62
    7
 10
12.489626482590694
 20
-6.2073292032918488
 40
1.5432506593015711
 50
262.78921159015101
 51
283.39890452768361
  0
ARC
  8
_0-0_
  6
CONTINUOUS
 62
    7
 10
11.509958437970397
 20
-7.9960133695304165
 40
0.0978377611779882
 50
59.250032697795675
 51
255.51023740612038
  0
ARC
  8
_0-0_
  6
CONTINUOUS
 62
    7
 10
11.679187628081564
 20
-6.5596939226436461
 40
1.5432506593015711
 50
262.78921159015101
 51
283.39890452768361
  0
ARC
  8
_0-0_
  6
CONTINUOUS
 62
    7
 10
13.077981439085903
 20
-6.1108621209983198
 40
0.0978377611779882
 50
59.250032697795675
 51
255.51023740612038
  0
ARC
  8
_0-0_
  6
CONTINUOUS
 62
    7
 10
13.24721062919707
 20
-4.6745426741115494
 40
1.5432506593015711
 50
262.78921159015101
 51
283.39890452768361
  0
ARC
  8
_0-0_
  6
CONTINUOUS
 62
    7
 10
14.099839125206103
 20
-6.2165715368038548
 40
0.0978377611779882
 50
59.250032697795675
 51
255.51023740612038
  0
ARC
  8
_0-0_
  6
CONTINUOUS
 62
    7
 10
14.26906831531727
 20
-4.7802520899170844
 40
1.5432506593015711
 50
262.78921159015101
 51
283.39890452768361
  0
ARC
  8
_0-0_
  6
CONTINUOUS
 62
    7
 10
14.364112664719954
 20
-6.6922639079287762
 40
0.0978377611779882
 50
59.250032697795675
 51
255.51023740612038
  0
ARC
  8
_0-0_
  6
CONTINUOUS
 62
    7
 10
14.533341854831122
 20
-5.2559444610420059
 40
1.5432506593015711
 50
262.78921159015101
 51
283.39890452768361
  0
ARC
  8
_0-0_
  6
CONTINUOUS
 62
    7
 10
14.646004440201381
 20
-7.0798650992157519
 40
0.0978377611779882
 50
59.250032697795675
 51
255.51023740612038
  0
ARC
  8
_0-0_
  6
CONTINUOUS
 62
    7
 10
14.815233630312548
 20
-5.6435456523289815
 40
1.5432506593015711
 50
262.78921159015101
 51
283.39890452768361
  0
ARC
  8
_0-0_
  6
CONTINUOUS
 62
    7
 10
14.434585608590311
 20
-7.4498480545351384
 40
0.0978377611779882
 50
59.250032697795675
 51
255.51023740612038
  0
ARC
  8
_0-0_
  6
CONTINUOUS
 62
    7
 10
14.603814798701478
 20
-6.0135286076483681
 40
1.5432506593015711
 50
262.78921159015101
 51
283.39890452768361
  0
ARC
  8
_0-0_
  6
CONTINUOUS
 62
    7
 10
13.906038529562608
 20
-7.7845945379193466
 40
0.0978377611779882
 50
59.250032697795675
 51
255.51023740612038
  0
ARC
  8
_0-0_
  6
CONTINUOUS
 62
    7
 10
14.075267719673775
 20
-6.3482750910325763
 40
1.5432506593015711
 50
262.78921159015101
 51
283.39890452768361
  0
ARC
  8
_0-0_
  6
CONTINUOUS
 62
    7
 10
12.919417315377586
 20
-8.0136316054980057
 40
0.0978377611779882
 50
59.250032697795675
 51
255.51023740612038
  0
ARC
  8
_0-0_
  6
CONTINUOUS
 62
    7
 10
13.088646505488754
 20
-6.5773121586112353
 40
1.5432506593015711
 50
262.78921159015101
 51
283.39890452768361
  0
ARC
  8
_0-0_
  6
CONTINUOUS
 62
    7
 10
10.63134666409465
 20
-8.2434289120259621
 40
0.0838609381525613
 50
59.250032697795675
 51
255.51023740612038
  0
ARC
  8
_0-0_
  6
CONTINUOUS
 62
    7
 10
10.776400255618512
 20
-7.0122979575515956
 40
1.3227862794013467
 50
262.78921159015101
 51
283.39890452768361
  0
ARC
  8
_0-0_
  6
CONTINUOUS
 62
    7
 10
9.5390160341040655
 20
-8.3139018558963187
 40
0.0838609381525613
 50
59.250032697795675
 51
255.51023740612038
  0
ARC
  8
_0-0_
  6
CONTINUOUS
 62
    7
 10
9.6840696256278989
 20
-7.0827709014219522
 40
1.3227862794013467
 50
262.78921159015101
 51
283.39890452768361
  0
ARC
  8
_0-0_
  6
CONTINUOUS
 62
    7
 10
11.477021990538958
 20
-8.6134118673453486
 40
0.0838609381525613
 50
59.250032697795675
 51
255.51023740612038
  0
ARC
  8
_0-0_
  6
CONTINUOUS
 62
    7
 10
11.622075582062791
 20
-7.3822809128709821
 40
1.3227862794013467
 50
262.78921159015101
 51
283.39890452768361
  0
ARC
  8
_0-0_
  6
CONTINUOUS
 62
    7
 10
9.8561442815206988
 20
-8.7895942270212402
 40
0.0838609381525613
 50
59.250032697795675
 51
255.51023740612038
  0
ARC
  8
_0-0_
  6
CONTINUOUS
 62
    7
 10
10.001197873044532
 20
-7.5584632725468737
 40
1.3227862794013467
 50
262.78921159015101
 51
283.39890452768361
  0
LINE
  8
_0-0_
  6
CONTINUOUS
 62
    7
 10
-19.342169473229006
 20
-4.8917163938958339
 11
-10.265182391559549
 21
-4.3110337186375176
  0
LINE
  8
_0-0_
  6
CONTINUOUS
 62
    7
 10
-10.265182391559549
 20
-4.3110337186375176
 11
4.8936916572890823
 21
-7.9785032465847792
  0
LINE
  8
_0-0_
  6
CONTINUOUS
 62
    7
 10
4.7103181808917327
 20
-8.3146879533132676
 11
4.1296355056334164
 21
-8.3452501993794925
  0
LINE
  8
_0-0_
  6
CONTINUOUS
 62
    7
 10
4.2824467359645553
 20
-7.8868165083860902
 11
4.2518844898983161
 21
-8.1313144769159038
  0
LINE
  8
_0-0_
  6
CONTINUOUS
 62
    7
 10
4.2518844898983161
 20
-8.1313144769159038
 11
-9.8678731926985961
 21
-4.8000296556971591
  0
LINE
  8
_0-0_
  6
CONTINUOUS
 62
    7
 10
-9.8678731926985961
 20
-4.8000296556971591
 11
-9.7761864544999213
 21
-4.4944071950348814
  0
LINE
  8
_0-0_
  6
CONTINUOUS
 62
    7
 10
-9.7761864544999213
 20
-4.4944071950348814
 11
-15.063455023957204
 21
-4.6777806714322452
  0
LINE
  8
_0-0_
  6
CONTINUOUS
 62
    7
 10
-18.241928614844824
 20
-4.9222786399620588
 11
-18.272490860911049
 21
-5.1056521163594226
  0
LINE
  8
_0-0_
  6
CONTINUOUS
 62
    7
 10
-18.272490860911049
 20
-5.1056521163594226
 11
-9.8678731926985961
 21
-4.8000296556971591
  0
LINE
  8
_0-0_
  6
CONTINUOUS
 62
    7
 10
-18.272490860911049
 20
-5.1056521163594226
 11
-18.119679630579924
 21
-5.2890255927567864
  0
LINE
  8
_0-0_
  6
CONTINUOUS
 62
    7
 10
-18.119679630579924
 20
-5.2890255927567864
 11
-18.180804122712374
 21
-5.8697082680151027
  0
LINE
  8
_0-0_
  6
CONTINUOUS
 62
    7
 10
-18.180804122712374
 20
-5.8697082680151027
 11
-3.7554239794531838
 21
-8.9870573667702729
  0
LINE
  8
_0-0_
  6
CONTINUOUS
 62
    7
 10
-3.7554239794531838
 20
-8.9870573667702729
 11
4.0073865213685167
 21
-8.5897481679093204
  0
LINE
  8
_0-0_
  6
CONTINUOUS
 62
    7
 10
4.0073865213685167
 20
-8.5897481679093204
 11
4.0379487674347274
 21
-8.2841257072470427
  0
LINE
  8
_0-0_
  6
CONTINUOUS
 62
    7
 10
4.0379487674347274
 20
-8.2841257072470427
 11
4.2518844898983161
 21
-8.1313144769159038
  0
LINE
  8
_0-0_
  6
CONTINUOUS
 62
    7
 10
4.0379487674347274
 20
-8.2841257072470427
 11
-9.8678731926985961
 21
-4.8000296556971591
  0
LINE
  8
_0-0_
  6
CONTINUOUS
 62
    7
 10
-18.211366368778599
 20
-5.5640858073528392
 11
-19.617229687825045
 21
-5.2584633466905615
  0
ARC
  8
_0-0_
  6
CONTINUOUS
 62
    7
 10
-19.612135980147343
 20
-4.9783094244168211
 40
0.2802002248808355
 50
181.04162667600946
 51
268.95837332399054
  0
ARC
  8
_0-0_
  6
CONTINUOUS
 62
    7
 10
-19.544644353417752
 20
-5.3730717694388943
 40
0.522205969586371
 50
67.186677893448206
 51
131.73796652260486
  0
ARC
  8
_0-0_
  6
CONTINUOUS
 62
    7
 10
4.8820060926166775
 20
-8.1483933791294163
 40
0.1702915428250776
 50
321.85976000554206
 51
86.065217943623068
  0
ARC
  8
_0-0_
  6
CONTINUOUS
 62
    7
 10
4.9395350263884552
 20
-8.6661537830749182
 40
0.4196052808884944
 50
79.508522987670958
 51
123.11134196037132
  0
ARC
  8
_0-0_
  6
CONTINUOUS
 62
    7
 10
-14.29276566696808
 20
-5.0083222034740942
 40
0.7897183139097367
 50
231.70544531703794
 51
311.76596386081974
  0
ARC
  8
_0-0_
  6
CONTINUOUS
 62
    7
 10
-16.659136918911585
 20
-5.228109007060155
 40
0.7897183139097367
 50
231.70544531703794
 51
311.76596386081974
  0
ARC
  8
_0-0_
  6
CONTINUOUS
 62
    7
 10
-12.597476788640748
 20
-5.3050343883152919
 40
0.7897183139097367
 50
231.70544531703794
 51
311.76596386081974
  0
ARC
  8
_0-0_
  6
CONTINUOUS
 62
    7
 10
-10.135864588476608
 20
-4.9357925582906716
 40
0.7897183139097367
 50
231.70544531703794
 51
311.76596386081974
  0
ARC
  8
_0-0_
  6
CONTINUOUS
 62
    7
 10
-11.135894544793288
 20
-5.8742822096032512
 40
0.7897183139097367
 50
231.70544531703794
 51
311.76596386081974
  0
ARC
  8
_0-0_
  6
CONTINUOUS
 62
    7
 10
-8.6127420396250329
 20
-5.2742642358132343
 40
0.7897183139097367
 50
231.70544531703794
 51
311.76596386081974
  0
ARC
  8
_0-0_
  6
CONTINUOUS
 62
    7
 10
-7.2280851770327104
 20
-5.4127299220724723
 40
0.7897183139097367
 50
231.70544531703794
 51
311.76596386081974
  0
ARC
  8
_0-0_
  6
CONTINUOUS
 62
    7
 10
-5.8434283144403736
 20
-5.8281269808501719
 40
0.7897183139097367
 50
231.70544531703794
 51
311.76596386081974
  0
ARC
  8
_0-0_
  6
CONTINUOUS
 62
    7
 10
-3.4895116480334138
 20
-6.4896852596442756
 40
0.7897183139097367
 50
231.70544531703794
 51
311.76596386081974
  0
ARC
  8
_0-0_
  6
CONTINUOUS
 62
    7
 10
-1.8740786416756947
 20
-6.7666166321627514
 40
0.7897183139097367
 50
231.70544531703794
 51
311.76596386081974
  0
ARC
  8
_0-0_
  6
CONTINUOUS
 62
    7
 10
-0.6432725415936317
 20
-6.9820076996771121
 40
0.7107464825187631
 50
231.70544531703794
 51
311.76596386081974
  0
ARC
  8
_0-0_
  6
CONTINUOUS
 62
    7
 10
0.602918634739467
 20
-7.4281749109568551
 40
0.7107464825187631
 50
231.70544531703794
 51
311.76596386081974
  0
ARC
  8
_0-0_
  6
CONTINUOUS
 62
    7
 10
-0.2740307115689972
 20
-7.7974167409814754
 40
0.7107464825187631
 50
231.70544531703794
 51
311.76596386081974
  0
ARC
  8
_0-0_
  6
CONTINUOUS
 62
    7
 10
-3.4125862667782911
 20
-7.7358764359773744
 40
0.7107464825187631
 50
231.70544531703794
 51
311.76596386081974
  0
ARC
  8
_0-0_
  6
CONTINUOUS
 62
    7
 10
-4.6126222143583107
 20
-7.3204793771996748
 40
0.7107464825187631
 50
231.70544531703794
 51
311.76596386081974
  0
ARC
  8
_0-0_
  6
CONTINUOUS
 62
    7
 10
-5.9972790769506332
 20
-6.9820076996771121
 40
0.7107464825187631
 50
231.70544531703794
 51
311.76596386081974
  0
ARC
  8
_0-0_
  6
CONTINUOUS
 62
    7
 10
-7.4742463970491286
 20
-6.7666166321627514
 40
0.7107464825187631
 50
231.70544531703794
 51
311.76596386081974
  0
ARC
  8
_0-0_
  6
CONTINUOUS
 62
    7
 10
-9.4589212334314681
 20
-6.0281329721135108
 40
0.7107464825187631
 50
231.70544531703794
 51
311.76596386081974
  0
ARC
  8
_0-0_
  6
CONTINUOUS
 62
    7
 10
-11.41282591731175
 20
-5.043488092047852
 40
0.7107464825187631
 50
231.70544531703794
 51
311.76596386081974
  0
ARC
  8
_0-0_
  6
CONTINUOUS
 62
    7
 10
-8.4435062008637516
 20
-7.12047338593635
 40
0.7107464825187631
 50
231.70544531703794
 51
311.76596386081974
  0
ARC
  8
_0-0_
  6
CONTINUOUS
 62
    7
 10
-11.289745307303548
 20
-6.5050703358953115
 40
0.7107464825187631
 50
231.70544531703794
 51
311.76596386081974
  0
ARC
  8
_0-0_
  6
CONTINUOUS
 62
    7
 10
-1.6894577266633917
 20
-7.828186893483533
 40
0.7107464825187631
 50
231.70544531703794
 51
311.76596386081974
  0
ARC
  8
_0-0_
  6
CONTINUOUS
 62
    7
 10
2.2029665648461503
 20
-7.8589570459855906
 40
0.7107464825187631
 50
231.70544531703794
 51
311.76596386081974
  0
LINE
  8
_0-0_
  6
CONTINUOUS
 62
    7
 10
-5.7203477044321716
 20
-35.290548001564758
 11
-5.9665089244485756
 21
-41.321497891966906
  0
LINE
  8
_0-0_
  6
CONTINUOUS
 62
    7
 10
-5.9665089244485756
 20
-44.029271312147465
 11
-5.8434283144403736
 21
-45.875480462270566
  0
ENDBLK
  0
ENDSEC
  0
SECTION
  2
ENTITIES
  0
LINE
  8
_0-0_
  6
CONTINUOUS
 62
    7
 10
-1244.420826261083
 20
-1127.4836411798831
 11
1755.579173738917
 21
-1127.4836411798831
  0
LINE
  8
_0-0_
  6
CONTINUOUS
 62
    7
 10
1755.579173738917
 20
-1127.4836411798831
 11
1755.579173738917
 21
1392.5163588201169
  0
LINE
  8
_0-0_
  6
CONTINUOUS
 62
    7
 10
1755.579173738917
 20
1392.5163588201169
 11
-1244.420826261083
 21
1392.5163588201169
  0
LINE
  8
_0-0_
  6
CONTINUOUS
 62
    7
 10
-1244.420826261083
 20
1392.5163588201169
 11
-1244.420826261083
 21
-1127.4836411798831
  0
LINE
  8
_0-0_
  6
CONTINUOUS
 62
  252
 10
-1215.1881720287051
 20
-1099.7116744577415
 11
1784.8118279712949
 21
-1099.7116744577415
  0
LINE
  8
_0-0_
  6
CONTINUOUS
 62
  252
 10
1784.8118279712949
 20
-1099.7116744577415
 11
1784.8118279712949
 21
1420.2883255422585
  0
LINE
  8
_0-0_
  6
CONTINUOUS
 62
  252
 10
1784.8118279712949
 20
1420.2883255422585
 11
-1215.1881720287051
 21
1420.2883255422585
  0
LINE
  8
_0-0_
  6
CONTINUOUS
 62
  252
 10
-1215.1881720287051
 20
1420.2883255422585
 11
-1215.1881720287051
 21
-1099.7116744577415
  0
INSERT
  2
-007-44
  8
_0-0_
 10
151.69897959183675
 20
120.48979591836735
 41
1
 42
1
 50
0
  0
ENDSEC
  0
EOF
