  0
SECTION
  2
HEADER
  9
$ACADVER
  1
AC1009
  9
$INSBASE
 10
0
 20
0
 30
0
  9
$EXTMIN
 10
0
 20
0
  9
$EXTMAX
 10
297
 20
210
  9
$LIMMIN
 10
0
 20
0
  9
$LIMMAX
 10
297
 20
210
  9
$LTSCALE
 40
1
  0
ENDSEC
  0
SECTION
  2
TABLES
  0
TABLE
  2
LTYPE
 70
     9
  0
LTYPE
  2
CONTINUOUS
 70
    64
  3
実線
 72
    65
 73
     0
 40
0.0
  0
LTYPE
  2
DASHED1
 70
    64
  3
--  --  --  --  --  --  --  --  
 72
    65
 73
     2
 40
2.5
 49
1.25
 49
-1.25
  0
LTYPE
  2
DASHED2
 70
    64
  3
----    ----    ----    ----    
 72
    65
 73
     2
 40
5.0
 49
2.5
 49
-2.5
  0
LTYPE
  2
DASHED3
 70
    64
  3
------  ------  ------  ------  
 72
    65
 73
     2
 40
5.0
 49
3.75
 49
-1.25
  0
LTYPE
  2
CENTER1
 70
    64
  3
----- - ----- - ----- - ----- - 
 72
    65
 73
     4
 40
10.0
 49
6.25
 49
-1.25
 49
1.25
 49
-1.25
  0
LTYPE
  2
CENTER2
 70
    64
  3
----------  --  ----------  --  
 72
    65
 73
     4
 40
20.0
 49
12.5
 49
-2.5
 49
2.5
 49
-2.5
  0
LTYPE
  2
PHANTOM1
 70
    64
  3
--- - - --- - - --- - - --- - - 
 72
    65
 73
     6
 40
10.0
 49
3.25
 49
-1.25
 49
1.25
 49
-1.25
 49
1.25
 49
-1.25
  0
LTYPE
  2
PHANTOM2
 70
    64
  3
--------  -  -  --------  -  -  
 72
    65
 73
     6
 40
20.0
 49
10.0
 49
-2.5
 49
1.25
 49
-2.5
 49
1.25
 49
-2.5
  0
LTYPE
  2
DOT
 70
    64
  3
-   -   -   -   -   -   -   -   
 72
    65
 73
     2
 40
2.5
 49
0.625
 49
-1.875
  0
LTYPE
  2
DUMMY
 70
    64
  3
ダミー
 72
    65
 73
     0
 40
0.0
  0
LTYPE
  2
RAND1
 70
    64
  3
ランダム線1
 72
    65
 73
     4
 40
10.0
 49
1.0
 49
-2.0
 49
3.0
 49
-4.0
  0
LTYPE
  2
RAND2
 70
    64
  3
ランダム線2
 72
    65
 73
     4
 40
14.0
 49
2.0
 49
-3.0
 49
4.0
 49
-5.0
  0
LTYPE
  2
RAND3
 70
    64
  3
ランダム線3
 72
    65
 73
     4
 40
18.0
 49
3.0
 49
-4.0
 49
5.0
 49
-6.0
  0
LTYPE
  2
RAND4
 70
    64
  3
ランダム線4
 72
    65
 73
     4
 40
22.0
 49
4.0
 49
-5.0
 49
6.0
 49
-7.0
  0
LTYPE
  2
RAND5
 70
    64
  3
ランダム線5
 72
    65
 73
     4
 40
26.0
 49
5.0
 49
-6.0
 49
7.0
 49
-8.0
  0
LTYPE
  2
LONG1
 70
    64
  3
----------  --  ----------  --  
 72
    65
 73
     4
 40
40.0
 49
32.5
 49
-2.5
 49
2.5
 49
-2.5
  0
LTYPE
  2
LONG2
 70
    64
  3
--------  -  -  --------  -  -  
 72
    65
 73
     6
 40
40.0
 49
30.0
 49
-2.5
 49
1.25
 49
-2.5
 49
1.25
 49
-2.5
  0
LTYPE
  2
LONG3
 70
    64
  3
+++++++++++++++..+++++++++++++++
 72
    65
 73
     2
 40
40.0
 49
37.5
 49
-2.5
  0
LTYPE
  2
LONG4
 70
    64
  3
+++++++++++++++..+++++++++++++++
 72
    65
 73
     2
 40
80.0
 49
75.0
 49
-5.0
  0
LTYPE
  2
LONG5
 70
    64
  3
----------  --  ----------  --  
 72
    65
 73
     4
 40
60.0
 49
37.5
 49
-7.5
 49
7.5
 49
-7.5
  0
LTYPE
  2
dashed
 70
   64
  3
-------   -------------   ------
 72
   65
 73
    2
 40
7.5
 49
6
 49
-1.5
  0
LTYPE
  2
dashed_spaced
 70
   64
  3
----        --------        ----
 72
   65
 73
    2
 40
12
 49
6
 49
-6
  0
LTYPE
  2
long_dashed_dotted
 70
   64
  3
------------- --- --------------
 72
   65
 73
    4
 40
15.25
 49
12
 49
-1.5
 49
0.25
 49
-1.5
  0
LTYPE
  2
long_dashed_double-dotted
 70
   64
  3
----------- --- --- ------------
 72
   65
 73
    6
 40
17
 49
12
 49
-1.5
 49
0.25
 49
-1.5
 49
0.25
 49
-1.5
  0
LTYPE
  2
long_dashed_triplicate-dotted
 70
   64
  3
--------- --- --- --- ----------
 72
   65
 73
    8
 40
18.75
 49
12
 49
-1.5
 49
0.25
 49
-1.5
 49
0.25
 49
-1.5
 49
0.25
 49
-1.5
  0
LTYPE
  2
dotted
 70
   64
  3
   -       -       -       -    
 72
   65
 73
    2
 40
1.75
 49
0.25
 49
-1.5
  0
LTYPE
  2
chain
 70
   64
  3
-------------- -- --------------
 72
   65
 73
    4
 40
18.5
 49
12
 49
-1.5
 49
3.5
 49
-1.5
  0
LTYPE
  2
chain_double_dash
 70
   64
  3
------------ -- -- -------------
 72
   65
 73
    6
 40
23.5
 49
12
 49
-1.5
 49
3.5
 49
-1.5
 49
3.5
 49
-1.5
  0
LTYPE
  2
dashed_dotted
 70
   64
  3
-----------     -     ----------
 72
   65
 73
    4
 40
9.25
 49
6
 49
-1.5
 49
0.25
 49
-1.5
  0
LTYPE
  2
double-dashed_dotted
 70
   64
  3
------   -----------   -   -----
 72
   65
 73
    6
 40
16.75
 49
6
 49
-1.5
 49
6
 49
-1.5
 49
0.25
 49
-1.5
  0
LTYPE
  2
dashed_double-dotted
 70
   64
  3
---------    -    -    ---------
 72
   65
 73
    6
 40
11
 49
6
 49
-1.5
 49
0.25
 49
-1.5
 49
0.25
 49
-1.5
  0
LTYPE
  2
double-dashed_double-dotted
 70
   64
  3
-----   ---------   -   -   ----
 72
   65
 73
    8
 40
18.5
 49
6
 49
-1.5
 49
6
 49
-1.5
 49
0.25
 49
-1.5
 49
0.25
 49
-1.5
  0
LTYPE
  2
dashed_triplicate-dotted
 70
   64
  3
-------    -    -    -    ------
 72
   65
 73
    8
 40
12.75
 49
6
 49
-1.5
 49
0.25
 49
-1.5
 49
0.25
 49
-1.5
 49
0.25
 49
-1.5
  0
LTYPE
  2
double-dashed_triplicate-dotted
 70
   64
  3
-----  ---------  -  -  -  -----
 72
   65
 73
   10
 40
20.25
 49
6
 49
-1.5
 49
6
 49
-1.5
 49
0.25
 49
-1.5
 49
0.25
 49
-1.5
 49
0.25
 49
-1.5
  0
LTYPE
  2
undefined
 70
   64
  3
--------------------------------
 72
   65
 73
    0
 40
0
  0
LTYPE
  2
_
 70
   64
  3
                                
 72
   65
 73
    0
 40
0
  0
LTYPE
  2
__18
 70
   64
  3
                                
 72
   65
 73
    0
 40
0
  0
LTYPE
  2
__19
 70
   64
  3
                                
 72
   65
 73
    0
 40
0
  0
LTYPE
  2
__20
 70
   64
  3
                                
 72
   65
 73
    0
 40
0
  0
LTYPE
  2
__21
 70
   64
  3
                                
 72
   65
 73
    0
 40
0
  0
LTYPE
  2
__22
 70
   64
  3
                                
 72
   65
 73
    0
 40
0
  0
LTYPE
  2
__23
 70
   64
  3
                                
 72
   65
 73
    0
 40
0
  0
LTYPE
  2
__24
 70
   64
  3
                                
 72
   65
 73
    0
 40
0
  0
LTYPE
  2
__25
 70
   64
  3
                                
 72
   65
 73
    0
 40
0
  0
LTYPE
  2
__26
 70
   64
  3
                                
 72
   65
 73
    0
 40
0
  0
LTYPE
  2
__27
 70
   64
  3
                                
 72
   65
 73
    0
 40
0
  0
LTYPE
  2
__28
 70
   64
  3
                                
 72
   65
 73
    0
 40
0
  0
LTYPE
  2
__29
 70
   64
  3
                                
 72
   65
 73
    0
 40
0
  0
LTYPE
  2
__30
 70
   64
  3
                                
 72
   65
 73
    0
 40
0
  0
LTYPE
  2
__31
 70
   64
  3
                                
 72
   65
 73
    0
 40
0
  0
LTYPE
  2
__32
 70
   64
  3
                                
 72
   65
 73
    0
 40
0
  0
ENDTAB
  0
TABLE
  2
STYLE
  5
3
100
AcDbSymbolTable
 70
     1
  0
STYLE
  5
10
100
AcDbSymbolTableRecord
100
AcDbTextStyleTableRecord
  2
STANDARD
 70
     0
 40
0.0
 41
1.0
 50
0.0
 71
     0
 42
0.2
  3
txt
  4
bigfont.shx
  0
STYLE
  5
26
100
AcDbSymbolTableRecord
100
AcDbTextStyleTableRecord
  2
TATEGAKI
 70
    68
 40
0.0
 41
1.0
 50
0.0
 71
     0
 42
1.0
  3
txt
  4
bigfont.shx
  0
ENDTAB
  0
TABLE
  2
LAYER
 70
    2
  0
LAYER
  2
_0-0_
 70
   64
 62
    7
  6
CONTINUOUS
  0
LAYER
  2
ADD_LINE
 70
   64
 62
    7
  6
CONTINUOUS
  0
ENDTAB
  0
ENDSEC
  0
SECTION
  2
BLOCKS
  0
BLOCK
  2
-000-1
 70
   64
 10
0
 20
0
 30
0
  0
ARC
  8
_0-0_
  6
CONTINUOUS
 62
    7
 10
-19.432347307604523
 20
17.631207926410632
 40
6.1487628455799168
 50
136.64627713256149
 51
187.89846395868295
  0
ARC
  8
_0-0_
  6
CONTINUOUS
 62
    7
 10
24.672980060052105
 20
27.380946490686277
 40
1.2717590291163694
 50
31.191825155546564
 51
102.83074124029298
  0
ARC
  8
_0-0_
  6
CONTINUOUS
 62
    7
 10
21.986247126599345
 20
11.591450003928792
 40
1.0090034732834039
 50
114.56104408509023
 51
172.67025228323863
  0
ARC
  8
_0-0_
  6
CONTINUOUS
 62
    7
 10
-25.069018483364836
 20
4.8065919646300088
 40
3.6754891429743326
 50
91.247688419160312
 51
149.07243325701398
  0
ARC
  8
_0-0_
  6
CONTINUOUS
 62
    7
 10
-23.065178873061974
 20
6.5336572174594991
 40
1.7402567804385087
 50
72.192048746197457
 51
163.50310777337853
  0
ARC
  8
_0-0_
  6
CONTINUOUS
 62
    7
 10
-22.553723225898928
 20
7.2146899114868219
 40
0.9760639485486266
 50
51.911227119024879
 51
88.781124764868565
  0
LINE
  8
_0-0_
  6
CONTINUOUS
 62
    7
 10
-23.903293463132009
 20
21.852336330707054
 11
24.390558410777565
 21
28.620950135906774
  0
LINE
  8
_0-0_
  6
CONTINUOUS
 62
    7
 10
-25.48125250974298
 20
18.779468713622528
 11
25.802416505113705
 21
24.883678709722879
  0
LINE
  8
_0-0_
  6
CONTINUOUS
 62
    7
 10
25.76089126704499
 20
28.039596802944821
 11
25.594790314770158
 21
7.9829068157579641
  0
ARC
  8
_0-0_
  6
CONTINUOUS
 62
    7
 10
35.556818883388495
 20
7.0997207822070791
 40
10.001101477928676
 50
174.93367456378013
 51
206.83737954553712
  0
ARC
  8
_0-0_
  6
CONTINUOUS
 62
    7
 10
27.054562145339411
 20
2.5814316177434828
 40
0.4216529781062771
 50
179.56594936786234
 51
298.50653756799306
  0
LINE
  8
_0-0_
  6
CONTINUOUS
 62
    7
 10
27.255799837518559
 20
2.2108987242072895
 11
27.172749361381129
 21
3.9134334850243913
  0
LINE
  8
_0-0_
  6
CONTINUOUS
 62
    7
 10
25.76089126704499
 20
28.03959680294485
 11
27.588001742068222
 21
22.682841092081254
  0
LINE
  8
_0-0_
  6
CONTINUOUS
 62
    7
 10
27.588001742068222
 20
22.682841092081254
 11
27.504951265930792
 21
11.844753956147976
  0
LINE
  8
_0-0_
  6
CONTINUOUS
 62
    7
 10
-21.245678226734562
 20
12.010854908422822
 11
25.05496221987692
 21
16.786257286324449
  0
LINE
  8
_0-0_
  6
CONTINUOUS
 62
    7
 10
25.05496221987692
 20
16.786257286324449
 11
25.511739838632728
 21
16.371004905637356
  0
LINE
  8
_0-0_
  6
CONTINUOUS
 62
    7
 10
-21.245678226734562
 20
12.010854908422822
 11
-21.660930607421683
 21
9.8100172907811967
  0
LINE
  8
_0-0_
  6
CONTINUOUS
 62
    7
 10
-21.660930607421683
 20
9.8100172907811967
 11
-21.951607273902631
 21
7.4015534827960252
  0
LINE
  8
_0-0_
  6
CONTINUOUS
 62
    7
 10
-29.841402506957515
 20
6.6125739594905397
 11
-11.944024899343567
 21
7.8998563396205341
  0
LINE
  8
_0-0_
  6
CONTINUOUS
 62
    7
 10
-11.944024899343567
 20
7.8998563396205341
 11
-12.151651089687114
 21
6.7371496736966705
  0
LINE
  8
_0-0_
  6
CONTINUOUS
 62
    7
 10
-9.4109853771522651
 20
7.9413815776892491
 11
-9.7016620436332133
 21
6.8202001498340863
  0
LINE
  8
_0-0_
  6
CONTINUOUS
 62
    7
 10
-9.4109853771522651
 20
7.9413815776892491
 11
-6.2965925219990098
 21
8.1490077680327957
  0
LINE
  8
_0-0_
  6
CONTINUOUS
 62
    7
 10
-6.2965925219990098
 20
8.1490077680327957
 11
-6.3381177600677248
 21
7.1524020543837636
  0
LINE
  8
_0-0_
  6
CONTINUOUS
 62
    7
 10
-3.597452047532876
 20
8.2735834822389265
 11
-3.8050782378764225
 21
7.1939272924524786
  0
LINE
  8
_0-0_
  6
CONTINUOUS
 62
    7
 10
-3.597452047532876
 20
8.2735834822389265
 11
17.621944605577873
 21
10.474421099880551
  0
ARC
  8
_0-0_
  6
CONTINUOUS
 62
    7
 10
-10.953680927942976
 20
7.5758935696083043
 40
1.4624034434308142
 50
214.99730920246796
 51
328.88566357936054
  0
ARC
  8
_0-0_
  6
CONTINUOUS
 62
    7
 10
-5.0965644867753568
 20
8.6961204294187482
 40
1.9810403710787061
 50
231.19161885126118
 51
310.68676304020977
  0
ARC
  8
_0-0_
  6
CONTINUOUS
 62
    7
 10
17.616012428710853
 20
9.6557806922402207
 40
0.8186619007526214
 50
13.834853156660991
 51
89.584820458850871
  0
LINE
  8
_0-0_
  6
CONTINUOUS
 62
    7
 10
18.410924128883345
 20
9.8515425288498975
 11
18.286348414677228
 21
5.3668168174292461
  0
LINE
  8
_0-0_
  6
CONTINUOUS
 62
    7
 10
18.286348414677228
 20
5.3668168174292461
 11
19.116853176051414
 21
2.0032725338637429
  0
LINE
  8
_0-0_
  6
CONTINUOUS
 62
    7
 10
19.116853176051414
 20
2.0032725338637429
 11
22.854124602235309
 21
2.1693734861385745
  0
LINE
  8
_0-0_
  6
CONTINUOUS
 62
    7
 10
18.203297938539798
 20
5.9896953884598858
 11
22.604973173823048
 21
6.2388468168721474
  0
LINE
  8
_0-0_
  6
CONTINUOUS
 62
    7
 10
22.604973173823048
 20
6.2388468168721474
 11
22.854124602235309
 21
2.1693734861385745
  0
LINE
  8
_0-0_
  6
CONTINUOUS
 62
    7
 10
21.566842222105286
 20
12.509157765247345
 11
25.67784079090756
 21
13.132036336277984
  0
LINE
  8
_0-0_
  6
CONTINUOUS
 62
    7
 10
20.985488889143362
 20
11.720178241941845
 11
20.81938793686853
 21
6.3218972930095632
  0
LINE
  8
_0-0_
  6
CONTINUOUS
 62
    7
 10
26.882072694900152
 20
2.1693734861385745
 11
23.850730315884327
 21
1.8786968196576121
  0
LINE
  8
_0-0_
  6
CONTINUOUS
 62
    7
 10
22.604973173823048
 20
6.2388468168721474
 11
27.754102694343054
 21
-12.073783171428907
  0
LINE
  8
_0-0_
  6
CONTINUOUS
 62
    7
 10
22.854124602235309
 20
2.1693734861385745
 11
27.837153170480484
 21
-15.644953645337957
  0
LINE
  8
_0-0_
  6
CONTINUOUS
 62
    7
 10
27.837153170480484
 20
-15.644953645337957
 11
27.754102694343054
 21
-12.073783171428907
  0
LINE
  8
_0-0_
  6
CONTINUOUS
 62
    7
 10
21.17543820001179
 20
2.0678526546393878
 11
21.114472802719824
 21
-0.6959120225961119
  0
LINE
  8
_0-0_
  6
CONTINUOUS
 62
    7
 10
21.114472802719824
 20
-0.6959120225961119
 11
22.394746145850966
 21
-0.6755902234987805
  0
LINE
  8
_0-0_
  6
CONTINUOUS
 62
    7
 10
23.065365516062535
 20
1.2956242889412333
 11
22.313458949461698
 21
0.6046831196323618
  0
LINE
  8
_0-0_
  6
CONTINUOUS
 62
    7
 10
22.313458949461698
 20
0.6046831196323618
 11
22.394746145850966
 21
-0.6755902234987805
  0
LINE
  8
_0-0_
  6
CONTINUOUS
 62
    7
 10
18.75714410743074
 20
3.2261952031866126
 11
18.696178710138774
 21
0.5843613205350446
  0
LINE
  8
_0-0_
  6
CONTINUOUS
 62
    7
 10
18.696178710138774
 20
0.5843613205350446
 11
20.586106026189519
 21
0.6656485169243278
  0
LINE
  8
_0-0_
  6
CONTINUOUS
 62
    7
 10
20.586106026189519
 20
0.6656485169243278
 11
20.667393222578788
 21
2.0678526546393878
  0
LINE
  8
_0-0_
  6
CONTINUOUS
 62
    7
 10
16.989147585963899
 20
-1.2649223973210515
 11
17.00946938506123
 21
-3.6628946908047983
  0
LINE
  8
_0-0_
  6
CONTINUOUS
 62
    7
 10
15.383725457275652
 20
-0.7975210180826981
 11
17.2939745724237
 21
0.5843613205350446
  0
LINE
  8
_0-0_
  6
CONTINUOUS
 62
    7
 10
15.383725457275652
 20
-0.7975210180826981
 11
14.326991904215014
 21
-1.7526455756567363
  0
LINE
  8
_0-0_
  6
CONTINUOUS
 62
    7
 10
15.282116461789052
 20
0.8688665078975286
 11
17.050112983255865
 21
0.9095101060921631
  0
LINE
  8
_0-0_
  6
CONTINUOUS
 62
    7
 10
16.135632023876489
 20
2.6571848284616588
 11
17.3955835679103
 21
2.6571848284616588
  0
LINE
  8
_0-0_
  6
CONTINUOUS
 62
    7
 10
17.3955835679103
 20
2.6571848284616588
 11
17.2939745724237
 21
0.5843613205350446
  0
LINE
  8
_0-0_
  6
CONTINUOUS
 62
    7
 10
17.3955835679103
 20
2.6571848284616588
 11
18.736822308333409
 21
2.6775066275589761
  0
ARC
  8
_0-0_
  6
CONTINUOUS
 62
    7
 10
17.461629414976521
 20
1.8697151134406265
 40
5.551055749916908
 50
265.32780851433847
 51
332.70794356629654
  0
LINE
  8
_0-0_
  6
CONTINUOUS
 62
    7
 10
17.00946938506123
 20
-3.6628946908047983
 11
22.963756520575934
 21
-20.103230160536505
  0
ARC
  8
_0-0_
  6
CONTINUOUS
 62
    7
 10
23.956315971224022
 20
-16.818585685385678
 40
3.4313355404579231
 50
253.18614383231119
 51
325.50251471193127
  0
ARC
  8
_0-0_
  6
CONTINUOUS
 62
    7
 10
24.944567438145661
 20
-17.403535599899605
 40
2.2868868848456718
 50
323.55722103520168
 51
10.83424683422435
  0
ARC
  8
_0-0_
  6
CONTINUOUS
 62
    7
 10
24.867983375855054
 20
-12.849475392539198
 40
4.0780715946617176
 50
302.66057076331344
 51
316.72582649962283
  0
ARC
  8
_0-0_
  6
CONTINUOUS
 62
    7
 10
28.257050401241109
 20
-16.429262797415795
 40
1.1972909084711085
 50
172.97021200581673
 51
207.04574759706358
  0
LINE
  8
_0-0_
  6
CONTINUOUS
 62
    7
 10
22.313458949461698
 20
0.6046831196323618
 11
27.068759938234528
 21
-16.282731930240395
  0
ARC
  8
_0-0_
  6
CONTINUOUS
 62
    7
 10
-35.039167738178641
 20
-4.3874324280642796
 40
2.2212297996703478
 50
225.8600667679525
 51
293.63753573041259
  0
ARC
  8
_0-0_
  6
CONTINUOUS
 62
    7
 10
-35.603683413077881
 20
-4.7896592943068654
 40
1.5445059903914802
 50
166.36755721966196
 51
230.50234042618251
  0
ARC
  8
_0-0_
  6
CONTINUOUS
 62
    7
 10
-35.010008248924613
 20
1.4241191697612758
 40
0.672642065911199
 50
78.389090943065142
 51
151.42044667312473
  0
ARC
  8
_0-0_
  6
CONTINUOUS
 62
    7
 10
-29.819077967342828
 20
5.0203729507284791
 40
1.5923575092836193
 50
90.8033018954808
 51
147.80044576458448
  0
LINE
  8
_0-0_
  6
CONTINUOUS
 62
    7
 10
-25.522777747811695
 20
16.786257286324449
 11
-28.760289057661517
 21
6.6903338595558992
  0
LINE
  8
_0-0_
  6
CONTINUOUS
 62
    7
 10
-31.16652661130022
 20
5.8688920072435948
 11
-34.148567258033246
 21
-1.7806905213324389
  0
LINE
  8
_0-0_
  6
CONTINUOUS
 62
    7
 10
-34.148567258033246
 20
-1.7806905213324389
 11
-36.897230810674138
 21
-1.6769673684025936
  0
LINE
  8
_0-0_
  6
CONTINUOUS
 62
    7
 10
-36.897230810674138
 20
-1.6769673684025936
 11
-35.60069139905108
 21
1.7458966782822709
  0
LINE
  8
_0-0_
  6
CONTINUOUS
 62
    7
 10
-34.874629328542149
 20
2.0829969253042644
 11
-32.696443117015413
 21
2.0311353488393489
  0
LINE
  8
_0-0_
  6
CONTINUOUS
 62
    7
 10
-35.782206916678298
 20
-1.7547597330999811
 11
-36.741646081279363
 21
-4.1663230387188648
  0
LINE
  8
_0-0_
  6
CONTINUOUS
 62
    7
 10
-37.104677116533828
 20
-4.425630921043485
 11
-37.052815540068913
 21
-4.140392250486407
  0
LINE
  8
_0-0_
  6
CONTINUOUS
 62
    7
 10
-37.052815540068913
 20
-4.140392250486407
 11
-36.741646081279363
 21
-4.1663230387188648
  0
LINE
  8
_0-0_
  6
CONTINUOUS
 62
    7
 10
-33.059474152269878
 20
0.8383190901461357
 11
-31.529557646554686
 21
0.8123883019136779
  0
LINE
  8
_0-0_
  6
CONTINUOUS
 62
    7
 10
-31.529557646554686
 20
0.8123883019136779
 11
-31.659211587716989
 21
-1.9622060389596716
  0
LINE
  8
_0-0_
  6
CONTINUOUS
 62
    7
 10
-34.978352481472008
 20
-2.6623373212361163
 11
-32.540858387620666
 21
-5.4628624503419232
  0
LINE
  8
_0-0_
  6
CONTINUOUS
 62
    7
 10
-31.659211587716989
 20
-1.9622060389596716
 11
-31.685142375949432
 21
-2.4289602271439681
  0
LINE
  8
_0-0_
  6
CONTINUOUS
 62
    7
 10
-31.685142375949432
 20
-2.4289602271439681
 11
-30.829426364278227
 21
-2.4030294389115103
  0
LINE
  8
_0-0_
  6
CONTINUOUS
 62
    7
 10
-30.829426364278227
 20
-2.4030294389115103
 11
-30.563862301764409
 21
-4.0083652754592336
  0
LINE
  8
_0-0_
  6
CONTINUOUS
 62
    7
 10
-33.785536222778809
 20
-5.3332085091796202
 11
-34.148567258033246
 21
-6.4223016149429881
  0
LINE
  8
_0-0_
  6
CONTINUOUS
 62
    7
 10
-32.151896564133729
 20
-4.0366690975565618
 11
-30.563862301764409
 21
-4.0083652754592336
  0
LINE
  8
_0-0_
  6
CONTINUOUS
 62
    7
 10
-36.949092387139054
 20
-5.6443779679691559
 11
-22.453781765193277
 21
-20.813889083958919
  0
LINE
  8
_0-0_
  6
CONTINUOUS
 62
    7
 10
-22.453781765193277
 20
-20.813889083958919
 11
-21.183173141802691
 21
-21.073196966283525
  0
LINE
  8
_0-0_
  6
CONTINUOUS
 62
    7
 10
-21.183173141802691
 20
-21.073196966283525
 11
-20.76828053008331
 21
-20.839819872191377
  0
LINE
  8
_0-0_
  6
CONTINUOUS
 62
    7
 10
-20.76828053008331
 20
-20.839819872191377
 11
-20.638626588921007
 21
-20.295273319309693
  0
LINE
  8
_0-0_
  6
CONTINUOUS
 62
    7
 10
-20.638626588921007
 20
-20.295273319309693
 11
-20.457111071293788
 21
-19.9581730722877
  0
LINE
  8
_0-0_
  6
CONTINUOUS
 62
    7
 10
-20.664557377153479
 20
-20.243411742844778
 11
-34.148567258033246
 21
-6.4223016149429881
  0
LINE
  8
_0-0_
  6
CONTINUOUS
 62
    7
 10
-33.785536222778809
 20
-5.3332085091796202
 11
-20.612695800688535
 21
-20.191550166379848
  0
LINE
  8
_0-0_
  6
CONTINUOUS
 62
    7
 10
-32.151896564133729
 20
-4.0366690975565618
 11
-32.548578374252692
 21
-6.7284385233636002
  0
LINE
  8
_0-0_
  6
CONTINUOUS
 62
    7
 10
-35.012213118870029
 20
-1.7481001114895425
 11
-34.978352481472008
 21
-2.6623373212361163
  0
LINE
  8
_0-0_
  6
CONTINUOUS
 62
    7
 10
-36.897230810674138
 20
-1.6769673684025936
 11
-36.607972711543034
 21
-3.8303332174896885
  0
LINE
  8
_0-0_
  6
CONTINUOUS
 62
    7
 10
-26.939808129409052
 20
-2.4030294389115103
 11
-24.969068223742006
 21
-2.4030294389115103
  0
LINE
  8
_0-0_
  6
CONTINUOUS
 62
    7
 10
-21.98702757700898
 20
-2.2474447095167354
 11
-20.560834224223619
 21
-2.2215139212842776
  0
LINE
  8
_0-0_
  6
CONTINUOUS
 62
    7
 10
-17.708447518652896
 20
-1.7547597330999811
 11
-16.048877071775372
 21
-1.8325520977973686
  0
LINE
  8
_0-0_
  6
CONTINUOUS
 62
    7
 10
-14.41523741313032
 20
-1.8066213095648966
 11
-10.992373366445442
 21
-1.9103444624947419
  0
LINE
  8
_0-0_
  6
CONTINUOUS
 62
    7
 10
-10.992373366445442
 20
-1.9103444624947419
 11
-10.655273119423448
 21
-0.6138050508716834
  0
LINE
  8
_0-0_
  6
CONTINUOUS
 62
    7
 10
-10.992373366445442
 20
-1.9103444624947419
 11
-10.966442578212998
 21
-3.777361215231942
  0
LINE
  8
_0-0_
  6
CONTINUOUS
 62
    7
 10
-10.655273119423448
 20
-0.6138050508716834
 11
-7.5435785315281194
 21
-0.5619434744067679
  0
LINE
  8
_0-0_
  6
CONTINUOUS
 62
    7
 10
-7.5435785315281194
 20
-0.5619434744067679
 11
-7.6991632609228944
 21
-1.2880055449156846
  0
LINE
  8
_0-0_
  6
CONTINUOUS
 62
    7
 10
-7.6991632609228944
 20
-1.2880055449156846
 11
-8.3992945431993533
 21
-3.362468603512561
  0
LINE
  8
_0-0_
  6
CONTINUOUS
 62
    7
 10
-7.6991632609228944
 20
-1.2880055449156846
 11
-6.013662025812927
 21
-1.2880055449156846
  0
LINE
  8
_0-0_
  6
CONTINUOUS
 62
    7
 10
-6.013662025812927
 20
-1.2880055449156846
 11
-6.117385178742758
 21
-3.0253683564905676
  0
LINE
  8
_0-0_
  6
CONTINUOUS
 62
    7
 10
-6.013662025812927
 20
-1.2880055449156846
 11
-3.9910605436809377
 21
-1.3917286978455157
  0
LINE
  8
_0-0_
  6
CONTINUOUS
 62
    7
 10
-2.5648671908955762
 20
-0.9249745096612191
 11
-0.5422657087636153
 21
-0.9249745096612191
  0
LINE
  8
_0-0_
  6
CONTINUOUS
 62
    7
 10
2.8287367614563195
 20
-0.9249745096612191
 11
4.2808609024741529
 21
-0.8990437214287614
  0
LINE
  8
_0-0_
  6
CONTINUOUS
 62
    7
 10
7.7037249491590316
 20
-0.3285663803146197
 11
9.7522572195234645
 21
-0.3285663803146197
  0
LINE
  8
_0-0_
  6
CONTINUOUS
 62
    7
 10
9.907841948918211
 20
4.4945602309231631
 11
9.7522572195234645
 21
-0.3285663803146197
  0
LINE
  8
_0-0_
  6
CONTINUOUS
 62
    7
 10
7.7037249491590316
 20
-0.3285663803146197
 11
8.2482715020407156
 21
4.3389755015283882
  0
LINE
  8
_0-0_
  6
CONTINUOUS
 62
    7
 10
4.9550613965181398
 20
4.0796676192037822
 11
4.2808609024741529
 21
-0.8990437214287614
  0
LINE
  8
_0-0_
  6
CONTINUOUS
 62
    7
 10
3.3992141025704754
 20
4.1055984074362399
 11
2.8287367614563195
 21
-0.9249745096612191
  0
LINE
  8
_0-0_
  6
CONTINUOUS
 62
    7
 10
0.0541424205829841
 20
3.898152101576549
 11
-0.5422657087636153
 21
-0.9249745096612191
  0
LINE
  8
_0-0_
  6
CONTINUOUS
 62
    7
 10
-1.6313588145269833
 20
3.6647750074844008
 11
-2.2796285203385267
 21
-0.9768360861261347
  0
LINE
  8
_0-0_
  6
CONTINUOUS
 62
    7
 10
-3.1094137437772602
 20
3.5351210663220978
 11
-3.9910605436809377
 21
-1.3917286978455157
  0
LINE
  8
_0-0_
  6
CONTINUOUS
 62
    7
 10
-13.170559577972206
 20
2.8609205722781108
 11
-14.41523741313032
 21
-1.8066213095648966
  0
LINE
  8
_0-0_
  6
CONTINUOUS
 62
    7
 10
-14.830130024849701
 20
2.6016126899534906
 11
-16.048877071775372
 21
-1.8325520977973686
  0
LINE
  8
_0-0_
  6
CONTINUOUS
 62
    7
 10
-19.264294812600561
 20
2.4460279605587298
 11
-20.560834224223619
 21
-2.2215139212842776
  0
LINE
  8
_0-0_
  6
CONTINUOUS
 62
    7
 10
-20.716418953618394
 20
2.2645124429314971
 11
-21.98702757700898
 21
-2.2474447095167354
  0
LINE
  8
_0-0_
  6
CONTINUOUS
 62
    7
 10
-23.465082506259257
 20
2.2126508664665816
 11
-24.969068223742006
 21
-2.4030294389115103
  0
LINE
  8
_0-0_
  6
CONTINUOUS
 62
    7
 10
-29.299509858563034
 20
1.7458966782822709
 11
-30.829426364278227
 21
-2.4030294389115103
  0
LINE
  8
_0-0_
  6
CONTINUOUS
 62
    7
 10
-27.925178082242589
 20
1.8496198312121161
 11
-29.844223772305391
 21
-3.9722041723492585
  0
LINE
  8
_0-0_
  6
CONTINUOUS
 62
    7
 10
-26.576777094154615
 20
2.0052045606068911
 11
-28.291718054018908
 21
-3.8941923413262534
  0
LINE
  8
_0-0_
  6
CONTINUOUS
 62
    7
 10
-27.680943219392937
 20
-3.863501527997379
 11
-26.939808129409052
 21
-2.4030294389115103
  0
LINE
  8
_0-0_
  6
CONTINUOUS
 62
    7
 10
-25.020929800206922
 20
2.1867200782341096
 11
-26.405139972044516
 21
-2.4030294389115103
  0
LINE
  8
_0-0_
  6
CONTINUOUS
 62
    7
 10
-24.969068223742006
 20
-2.4030294389115103
 11
-25.119818797140489
 21
-3.6467216694490294
  0
LINE
  8
_0-0_
  6
CONTINUOUS
 62
    7
 10
-27.680943219392937
 20
-3.863501527997379
 11
-30.563862301764409
 21
-4.0083652754592336
  0
LINE
  8
_0-0_
  6
CONTINUOUS
 62
    7
 10
-22.58195667499357
 20
-3.6072826477672568
 11
-25.115403715026964
 21
-3.7345857810600269
  0
LINE
  8
_0-0_
  6
CONTINUOUS
 62
    7
 10
-22.58195667499357
 20
-3.6072826477672568
 11
-21.98702757700898
 21
-2.2474447095167354
  0
LINE
  8
_0-0_
  6
CONTINUOUS
 62
    7
 10
-20.560834224223619
 20
-2.2215139212842776
 11
-20.716500665438396
 21
-3.5135453833667971
  0
LINE
  8
_0-0_
  6
CONTINUOUS
 62
    7
 10
-18.629374503168442
 20
-3.4086694195768605
 11
-20.716500665438396
 21
-3.5135453833667971
  0
LINE
  8
_0-0_
  6
CONTINUOUS
 62
    7
 10
-18.629374503168442
 20
-3.4086694195768605
 11
-17.708447518652896
 21
-1.7547597330999811
  0
LINE
  8
_0-0_
  6
CONTINUOUS
 62
    7
 10
-16.048877071775372
 20
-1.8325520977973686
 11
-15.942129959141063
 21
-3.2736381183604597
  0
LINE
  8
_0-0_
  6
CONTINUOUS
 62
    7
 10
-14.517843875174272
 20
-3.2020691933625831
 11
-15.942129959141063
 21
-3.2736381183604597
  0
LINE
  8
_0-0_
  6
CONTINUOUS
 62
    7
 10
-14.517843875174272
 20
-3.2020691933625831
 11
-14.41523741313032
 21
-1.8066213095648966
  0
LINE
  8
_0-0_
  6
CONTINUOUS
 62
    7
 10
-3.9910605436809377
 20
-1.3917286978455157
 11
-4.0689571850239545
 21
-2.6770232800050953
  0
LINE
  8
_0-0_
  6
CONTINUOUS
 62
    7
 10
-3.296117217986513
 20
-2.6381888588456737
 11
-4.0689571850239545
 21
-2.6770232800050953
  0
LINE
  8
_0-0_
  6
CONTINUOUS
 62
    7
 10
-3.296117217986513
 20
-2.6381888588456737
 11
-2.5648671908955762
 21
-0.9249745096612191
  0
LINE
  8
_0-0_
  6
CONTINUOUS
 62
    7
 10
-0.5422657087636153
 20
-0.9249745096612191
 11
-0.5614828033396932
 21
-2.50077626490009
  0
LINE
  8
_0-0_
  6
CONTINUOUS
 62
    7
 10
2.418500136748996
 20
-2.3510351574533463
 11
-0.5614828033396932
 21
-2.50077626490009
  0
LINE
  8
_0-0_
  6
CONTINUOUS
 62
    7
 10
2.418500136748996
 20
-2.3510351574533463
 11
2.8287367614563195
 21
-0.9249745096612191
  0
LINE
  8
_0-0_
  6
CONTINUOUS
 62
    7
 10
4.2808609024741529
 20
-0.8990437214287614
 11
4.317036686691857
 21
-2.2556356295929381
  0
LINE
  8
_0-0_
  6
CONTINUOUS
 62
    7
 10
7.1882178688663245
 20
-2.1113616996602294
 11
4.317036686691857
 21
-2.2556356295929381
  0
LINE
  8
_0-0_
  6
CONTINUOUS
 62
    7
 10
7.1882178688663245
 20
-2.1113616996602294
 11
7.7037249491590316
 21
-0.3285663803146197
  0
LINE
  8
_0-0_
  6
CONTINUOUS
 62
    7
 10
9.7522572195234645
 20
-0.3285663803146197
 11
9.8149460134056241
 21
-1.9793712858784791
  0
LINE
  8
_0-0_
  6
CONTINUOUS
 62
    7
 10
14.326991904215014
 20
-1.7526455756567363
 11
9.8149460134056241
 21
-1.9793712858784791
  0
LINE
  8
_0-0_
  6
CONTINUOUS
 62
    7
 10
15.322760059983686
 20
5.0958007201400406
 11
15.10952546460225
 21
-1.0453556268452009
  0
LINE
  8
_0-0_
  6
CONTINUOUS
 62
    7
 10
13.575085337614176
 20
4.912904528264157
 11
13.278380654598543
 21
-1.8053372228760272
  0
LINE
  8
_0-0_
  6
CONTINUOUS
 62
    7
 10
11.852651066352813
 20
4.7538681132477691
 11
11.490446159241735
 21
-1.8951791101483697
  0
LINE
  8
_0-0_
  6
CONTINUOUS
 62
    7
 10
6.5887010551631917
 20
4.2871139250634727
 11
5.8861026215088188
 21
-2.1767916645568666
  0
LINE
  8
_0-0_
  6
CONTINUOUS
 62
    7
 10
1.6359205027631205
 20
3.9759444662739365
 11
0.8581235148065715
 21
-2.4294424933680792
  0
LINE
  8
_0-0_
  6
CONTINUOUS
 62
    7
 10
-4.665261037724953
 20
3.4054671251597948
 11
-5.5703911957329595
 21
-1.3107373823556761
  0
LINE
  8
_0-0_
  6
CONTINUOUS
 62
    7
 10
-11.770297013419288
 20
3.0424360899053293
 11
-12.740788459558907
 21
-1.8573621869458425
  0
LINE
  8
_0-0_
  6
CONTINUOUS
 62
    7
 10
-16.230392589402619
 20
2.4978895370236454
 11
-17.482865015380874
 21
-1.7653339129408541
  0
LINE
  8
_0-0_
  6
CONTINUOUS
 62
    7
 10
-17.864032248047671
 20
2.6275434781859626
 11
-19.388484882695259
 21
-3.4468139429482894
  0
LINE
  8
_0-0_
  6
CONTINUOUS
 62
    7
 10
-22.272266247566058
 20
2.2126508664665816
 11
-23.85135269649664
 21
-3.6710685048912315
  0
LINE
  8
_0-0_
  6
CONTINUOUS
 62
    7
 10
-11.583989297966788
 20
6.3000134115982505
 11
-10.05962938972997
 21
4.5578878021847444
  0
LINE
  8
_0-0_
  6
CONTINUOUS
 62
    7
 10
-10.05962938972997
 20
4.5578878021847444
 11
-10.08382557874959
 21
6.5661714908142059
  0
LINE
  8
_0-0_
  6
CONTINUOUS
 62
    7
 10
-5.4865496650194885
 20
6.856525759049795
 11
-4.5670944822734683
 21
5.1144001496362748
  0
LINE
  8
_0-0_
  6
CONTINUOUS
 62
    7
 10
-4.3735249701163994
 20
5.1869887166951756
 11
-4.3977211591360472
 21
6.8807219480694286
  0
LINE
  8
_0-0_
  6
CONTINUOUS
 62
    7
 10
-21.697996308173011
 20
9.6874798743467565
 11
4.8936154244026895
 21
11.93772545317254
  0
ARC
  8
_0-0_
  6
CONTINUOUS
 62
    7
 10
8.1461381036523264
 20
9.7340529900537476
 40
3.5070274948040594
 50
151.53815118647654
 51
188.30065283843834
  0
ARC
  8
_0-0_
  6
CONTINUOUS
 62
    7
 10
5.8164580736114644
 20
10.576447858928042
 40
1.1202201066731745
 50
60.411689323086783
 51
132.26869416873313
  0
ARC
  8
_0-0_
  6
CONTINUOUS
 62
    7
 10
3.2523072692385924
 20
7.3928746156527367
 40
5.1965349243719148
 50
43.868068217880442
 51
53.138995071688285
  0
ARC
  8
_0-0_
  6
CONTINUOUS
 62
    7
 10
3.8667006963047115
 20
9.5757504132854692
 40
3.4381623903319469
 50
358.01685143343423
 51
24.363472204872405
  0
LINE
  8
_0-0_
  6
CONTINUOUS
 62
    7
 10
4.8936154244026895
 20
11.93772545317254
 11
6.2727981985217056
 21
11.647371184936951
  0
LINE
  8
_0-0_
  6
CONTINUOUS
 62
    7
 10
-32.425138040135216
 20
-5.20914256548145
 11
15.261600119352373
 21
-2.3753902514543275
  0
LINE
  8
_0-0_
  6
CONTINUOUS
 62
    7
 10
-31.495313062095086
 20
-6.4931865827749888
 11
14.730271560472282
 21
-4.1022080678146082
  0
LINE
  8
_0-0_
  6
CONTINUOUS
 62
    7
 10
-29.104334547134705
 20
-7.113069901468414
 11
-25.2079251153474
 21
-11.407975752415773
  0
LINE
  8
_0-0_
  6
CONTINUOUS
 62
    7
 10
-25.2079251153474
 20
-11.407975752415773
 11
16.368534617019229
 21
-9.9025448355888628
  0
LINE
  8
_0-0_
  6
CONTINUOUS
 62
    7
 10
16.368534617019229
 20
-9.9025448355888628
 11
14.287497761405568
 21
-4.5892592467880107
  0
LINE
  8
_0-0_
  6
CONTINUOUS
 62
    7
 10
14.287497761405568
 20
-4.5892592467880107
 11
-29.104334547134705
 21
-7.113069901468414
  0
LINE
  8
_0-0_
  6
CONTINUOUS
 62
    7
 10
-26.66907865226765
 20
-13.267625708496062
 11
18.095352433379496
 21
-12.072136451015872
  0
LINE
  8
_0-0_
  6
CONTINUOUS
 62
    7
 10
-25.2079251153474
 20
-14.463114965976253
 11
-20.691632364866685
 21
-19.687845794963756
  0
LINE
  8
_0-0_
  6
CONTINUOUS
 62
    7
 10
-19.540420487293154
 20
-20.086342214123825
 11
20.663440467966574
 21
-19.820677934683779
  0
LINE
  8
_0-0_
  6
CONTINUOUS
 62
    7
 10
-24.765151316280658
 20
-14.064618546816199
 11
18.095352433379496
 21
-13.090516188869366
  0
LINE
  8
_0-0_
  6
CONTINUOUS
 62
    7
 10
19.069454791326301
 20
-13.577567367842782
 11
20.973382127313293
 21
-18.84657557673696
  0
LINE
  8
_0-0_
  6
CONTINUOUS
 62
    7
 10
21.239046406753339
 20
-19.377904135617037
 11
21.54898806610003
 21
-18.448079157576892
  0
LINE
  8
_0-0_
  6
CONTINUOUS
 62
    7
 10
21.54898806610003
 20
-18.448079157576892
 11
22.124594004886795
 21
-18.403801777670218
  0
ARC
  8
_0-0_
  6
CONTINUOUS
 62
    7
 10
14.843309129757095
 20
-4.7734210435442535
 40
2.4342389019543735
 50
27.142873624733177
 51
80.105388231705504
  0
ARC
  8
_0-0_
  6
CONTINUOUS
 62
    7
 10
14.581626070785596
 20
-5.7745576787341477
 40
1.6789427336115281
 50
16.500528688751501
 51
84.920657586248566
  0
ARC
  8
_0-0_
  6
CONTINUOUS
 62
    7
 10
18.073213743426145
 20
-14.352421516209581
 40
1.2620995114341977
 50
37.874983651098347
 51
88.994913994745147
  0
ARC
  8
_0-0_
  6
CONTINUOUS
 62
    7
 10
18.621572063808792
 20
-14.597650081846531
 40
2.5797531275222023
 50
65.54978475418929
 51
101.76983175399026
  0
ARC
  8
_0-0_
  6
CONTINUOUS
 62
    7
 10
20.122623899106507
 20
-19.112239856177005
 40
0.8912727260675905
 50
307.35785558151036
 51
17.341895978629019
  0
ARC
  8
_0-0_
  6
CONTINUOUS
 62
    7
 10
20.573583432273658
 20
-19.10833302853819
 40
0.7179899387700902
 50
277.1894660174562
 51
337.94771804019632
  0
ARC
  8
_0-0_
  6
CONTINUOUS
 62
    7
 10
-24.646644211236328
 20
-14.641526761482574
 40
0.5889541765668503
 50
101.6080864844479
 51
162.36633850718408
  0
ARC
  8
_0-0_
  6
CONTINUOUS
 62
    7
 10
-23.906170146091235
 20
-13.836590040296819
 40
1.4446797162280596
 50
158.70403248581337
 51
205.70116383771844
  0
ARC
  8
_0-0_
  6
CONTINUOUS
 62
    7
 10
-19.205177467999853
 20
-17.255752570090287
 40
2.8503728904995569
 50
238.56742072118675
 51
263.2455952778414
  0
ARC
  8
_0-0_
  6
CONTINUOUS
 62
    7
 10
-31.276877987888845
 20
-7.1160217267955304
 40
0.6600284071693967
 50
109.32632467329648
 51
233.18135080159286
  0
LINE
  8
_0-0_
  6
CONTINUOUS
 62
    7
 10
-22.639837080760323
 20
-14.64022448560295
 11
17.918242913752799
 21
-13.489012608029434
  0
LINE
  8
_0-0_
  6
CONTINUOUS
 62
    7
 10
17.918242913752799
 20
-13.489012608029434
 11
19.512228590393043
 21
-18.093860118323498
  0
LINE
  8
_0-0_
  6
CONTINUOUS
 62
    7
 10
19.512228590393043
 20
-18.093860118323498
 11
-19.274756207853137
 21
-18.669466057110263
  0
LINE
  8
_0-0_
  6
CONTINUOUS
 62
    7
 10
-19.274756207853137
 20
-18.669466057110263
 11
-22.639837080760323
 21
-14.64022448560295
  0
ARC
  8
_0-0_
  6
CONTINUOUS
 62
    7
 10
-25.761392364180843
 20
-7.113069901468414
 40
0.9033562155070519
 50
197.10272896905286
 51
342.89727103094742
  0
ARC
  8
_0-0_
  6
CONTINUOUS
 62
    7
 10
-21.905324545197409
 20
-6.3421515202045171
 40
1.408908595888192
 50
224.77364748074075
 51
320.09964901287969
  0
ARC
  8
_0-0_
  6
CONTINUOUS
 62
    7
 10
-25.497165662010481
 20
-8.9060162722347584
 40
0.688102513328195
 50
185.56289937142333
 51
358.13232116056594
  0
ARC
  8
_0-0_
  6
CONTINUOUS
 62
    7
 10
-24.369018015711141
 20
-10.238107675443366
 40
0.8018295213153208
 50
187.68391192853105
 51
355.49836861385825
  0
ARC
  8
_0-0_
  6
CONTINUOUS
 62
    7
 10
-21.91777519305149
 20
-8.3068561827983913
 40
1.2213378799531158
 50
208.20877093128081
 51
338.65848979362016
  0
ARC
  8
_0-0_
  6
CONTINUOUS
 62
    7
 10
-19.635541503608074
 20
-9.450406047741204
 40
1.2010024743025638
 50
197.62187497311339
 51
344.5815372572992
  0
ARC
  8
_0-0_
  6
CONTINUOUS
 62
    7
 10
-15.752244650833298
 20
-9.499128707550291
 40
1.0471586190898814
 50
197.49854843726129
 51
352.4409330189593
  0
ARC
  8
_0-0_
  6
CONTINUOUS
 62
    7
 10
-16.17379505462177
 20
-8.5304609117367036
 40
0.9324460092152533
 50
177.24660307389524
 51
354.58216336615499
  0
ARC
  8
_0-0_
  6
CONTINUOUS
 62
    7
 10
-17.773935146774853
 20
-7.00488057087383
 40
1.2445313869235979
 50
187.03694556156924
 51
359.09602544068264
  0
ARC
  8
_0-0_
  6
CONTINUOUS
 62
    7
 10
-14.005747998958959
 20
-5.1648651855747758
 40
2.3379127450490871
 50
232.69605172201651
 51
307.30394827798352
  0
ARC
  8
_0-0_
  6
CONTINUOUS
 62
    7
 10
-13.188786930484845
 20
-8.2946682162328003
 40
0.8233592832834618
 50
187.14749703549782
 51
355.94881836245816
  0
ARC
  8
_0-0_
  6
CONTINUOUS
 62
    7
 10
-11.967265541508176
 20
-9.5251468155179495
 40
1.1549065548481354
 50
183.34846635328819
 51
354.4481214162991
  0
ARC
  8
_0-0_
  6
CONTINUOUS
 62
    7
 10
-7.9899543378888396
 20
-8.9254774745232837
 40
1.2975068808850838
 50
198.02366951862865
 51
337.8111999219098
  0
ARC
  8
_0-0_
  6
CONTINUOUS
 62
    7
 10
-10.168741760089922
 20
-6.3650296943494524
 40
1.2310315677261978
 50
196.49572510622991
 51
341.34242652044856
  0
ARC
  8
_0-0_
  6
CONTINUOUS
 62
    7
 10
-6.0673246745374243
 20
-6.3498527567950518
 40
1.1868578394422471
 50
191.26693780653406
 51
355.2124627856702
  0
ARC
  8
_0-0_
  6
CONTINUOUS
 62
    7
 10
-4.2809234609200146
 20
-9.349617554803082
 40
1.0024372647772348
 50
178.70365727325904
 51
8.9244923953215789
  0
ARC
  8
_0-0_
  6
CONTINUOUS
 62
    7
 10
-1.0969383423441528
 20
-7.7114656681483424
 40
1.0003585405633735
 50
183.76942104911262
 51
353.68451891077399
  0
ARC
  8
_0-0_
  6
CONTINUOUS
 62
    7
 10
-0.4307952904606295
 20
-9.1941067570820891
 40
1.0011564051839696
 50
182.5348034802015
 51
7.6244122398277661
  0
ARC
  8
_0-0_
  6
CONTINUOUS
 62
    7
 10
-2.2722423236904277
 20
-5.9286499889648852
 40
1.1727760740803224
 50
199.29004621918901
 51
340.70995378081102
  0
ARC
  8
_0-0_
  6
CONTINUOUS
 62
    7
 10
2.213129446607546
 20
-5.8024960491068853
 40
1.4530331374258076
 50
202.57713217516257
 51
339.3012497163088
  0
ARC
  8
_0-0_
  6
CONTINUOUS
 62
    7
 10
2.3768825665103108
 20
-6.7145734823083316
 40
1.3640020404891537
 50
215.7538872544377
 51
324.24611274556264
  0
ARC
  8
_0-0_
  6
CONTINUOUS
 62
    7
 10
3.3655069006647338
 20
-8.7747271502344617
 40
1.1909291000376343
 50
205.24581069874182
 51
352.584043215554
  0
ARC
  8
_0-0_
  6
CONTINUOUS
 62
    7
 10
7.3928710108890741
 20
-8.784174172546507
 40
0.9177682426913189
 50
191.85521770984576
 51
2.0506972265020389
  0
ARC
  8
_0-0_
  6
CONTINUOUS
 62
    7
 10
8.1886310301368255
 20
-6.8074646865455364
 40
0.9415579673189018
 50
210.84228156317269
 51
338.18569535282973
  0
ARC
  8
_0-0_
  6
CONTINUOUS
 62
    7
 10
6.0634016816171865
 20
-5.2536529842297526
 40
1.2782618727601252
 50
204.54970949518639
 51
343.92308010293146
  0
ARC
  8
_0-0_
  6
CONTINUOUS
 62
    7
 10
10.501781779384963
 20
-5.2755586353414614
 40
1.1901476393021322
 50
189.63753811293103
 51
350.36246188706889
  0
ARC
  8
_0-0_
  6
CONTINUOUS
 62
    7
 10
13.025592434065338
 20
-6.7850147685235171
 40
1.1830199205827352
 50
187.33055002134196
 51
352.66944997865812
  0
ARC
  8
_0-0_
  6
CONTINUOUS
 62
    7
 10
11.767357156931318
 20
-8.4550060010463497
 40
1.0216890659940518
 50
196.86013163693016
 51
353.29908408309899
  0
ARC
  8
_0-0_
  6
CONTINUOUS
 62
    7
 10
-19.24126434356473
 20
-14.813738833356915
 40
0.9451135967121143
 50
202.24661069534585
 51
354.40468996550788
  0
ARC
  8
_0-0_
  6
CONTINUOUS
 62
    7
 10
-17.570077081446193
 20
-16.524964956963693
 40
1.1215712722375955
 50
194.71286181890667
 51
345.28713818109338
  0
ARC
  8
_0-0_
  6
CONTINUOUS
 62
    7
 10
-15.672475085445889
 20
-14.504229675889626
 40
1.0274054074682717
 50
203.01331782225603
 51
347.37553999321312
  0
ARC
  8
_0-0_
  6
CONTINUOUS
 62
    7
 10
-14.201110161898249
 20
-16.78909051894599
 40
0.8155088871835034
 50
197.27061394870373
 51
358.54371145721353
  0
ARC
  8
_0-0_
  6
CONTINUOUS
 62
    7
 10
-12.516066378022892
 20
-14.635684652979599
 40
0.9628640582621266
 50
185.54831454505847
 51
349.12568392280707
  0
ARC
  8
_0-0_
  6
CONTINUOUS
 62
    7
 10
-10.392786384443077
 20
-16.10537024530165
 40
0.9563271529919659
 50
179.76081597209614
 51
19.163828443955026
  0
ARC
  8
_0-0_
  6
CONTINUOUS
 62
    7
 10
-7.9966919242984105
 20
-16.894937588069801
 40
1.0839241188637248
 50
194.37471098243068
 51
352.77795776756398
  0
ARC
  8
_0-0_
  6
CONTINUOUS
 62
    7
 10
-8.5544576793274771
 20
-14.547738556545546
 40
0.8784878758528992
 50
204.05976989947436
 51
342.12834621835913
  0
ARC
  8
_0-0_
  6
CONTINUOUS
 62
    7
 10
-7.0735474523939175
 20
-15.902315852354526
 40
0.7417020596520548
 50
171.40243624506408
 51
22.847596452739708
  0
ARC
  8
_0-0_
  6
CONTINUOUS
 62
    7
 10
-4.4778569317566124
 20
-14.198678262078552
 40
1.3082757697453264
 50
215.05838869264818
 51
340.27521983097995
  0
ARC
  8
_0-0_
  6
CONTINUOUS
 62
    7
 10
-3.9815783364648283
 20
-16.847551664372794
 40
1.0451957867898907
 50
187.66305868501217
 51
359.64138687560052
  0
ARC
  8
_0-0_
  6
CONTINUOUS
 62
    7
 10
-1.1459867875188436
 20
-14.772251582051943
 40
0.8706597873793826
 50
171.27800467288918
 51
5.7843938983392036
  0
ARC
  8
_0-0_
  6
CONTINUOUS
 62
    7
 10
-0.7228919272563203
 20
-16.87009673718466
 40
0.9296048369142212
 50
179.01359771288313
 51
17.637702947970297
  0
ARC
  8
_0-0_
  6
CONTINUOUS
 62
    7
 10
2.5561225876806404
 20
-14.394846286078327
 40
1.0182980657177845
 50
196.52601602380139
 51
3.6351799512835479
  0
ARC
  8
_0-0_
  6
CONTINUOUS
 62
    7
 10
2.196583966284912
 20
-16.576551031730396
 40
0.7123643185858432
 50
188.10486794571116
 51
2.6067821399993036
  0
ARC
  8
_0-0_
  6
CONTINUOUS
 62
    7
 10
6.0302047987109617
 20
-14.020560361859587
 40
1.3101964448209118
 50
210.4475626835594
 51
344.32452361897543
  0
ARC
  8
_0-0_
  6
CONTINUOUS
 62
    7
 10
4.4853449634094531
 20
-16.696809653805467
 40
0.9152208242778908
 50
175.98365218610044
 51
9.6017525453261214
  0
ARC
  8
_0-0_
  6
CONTINUOUS
 62
    7
 10
7.2084452712078857
 20
-16.114060865242216
 40
1.3035004818174269
 50
197.21647299666219
 51
348.80910201170457
  0
ARC
  8
_0-0_
  6
CONTINUOUS
 62
    7
 10
10.032962462726054
 20
-14.297725929266029
 40
0.9338053622979024
 50
187.45207744340507
 51
0.7191561165442276
  0
ARC
  8
_0-0_
  6
CONTINUOUS
 62
    7
 10
12.423651002515662
 20
-15.224335056538273
 40
1.262047503191684
 50
191.75714506944385
 51
350.28891530789184
  0
ARC
  8
_0-0_
  6
CONTINUOUS
 62
    7
 10
10.748617827182436
 20
-16.740296476503595
 40
0.9334767878674241
 50
181.54953011872297
 51
352.99784789346444
  0
ARC
  8
_0-0_
  6
CONTINUOUS
 62
    7
 10
15.349047944668051
 20
-16.871583045999778
 40
0.9307697673927184
 50
176.19499037978386
 51
17.710924556563441
  0
ARC
  8
_0-0_
  6
CONTINUOUS
 62
    7
 10
15.946734313697725
 20
-15.137762412449
 40
1.1368408836174184
 50
197.59925117712802
 51
353.82193509787169
  0
ARC
  8
_0-0_
  6
CONTINUOUS
 62
    7
 10
14.407307142329493
 20
-14.241728066442896
 40
1.1416288431837005
 50
175.55116711666284
 51
11.1817542101968
  0
ARC
  8
_0-0_
  6
CONTINUOUS
 62
    7
 10
17.165527455339337
 20
-14.328357722782023
 40
0.6280825259185342
 50
140.84651127258971
 51
39.153488727410377
  0
ARC
  8
_0-0_
  6
CONTINUOUS
 62
    7
 10
-13.339895171190427
 20
19.331999726036678
 40
0.4419700830197125
 50
85.498429801281972
 51
277.51644171626941
  0
ARC
  8
_0-0_
  6
CONTINUOUS
 62
    7
 10
-8.9750500338406383
 20
19.754176490179809
 40
0.5080848512848155
 50
285.18853251087302
 51
82.793293685985503
  0
ARC
  8
_0-0_
  6
CONTINUOUS
 62
    7
 10
-6.5445864523923163
 20
20.181537628007355
 40
0.4858143149832288
 50
104.73001933606824
 51
249.54517021170727
  0
ARC
  8
_0-0_
  6
CONTINUOUS
 62
    7
 10
-2.5635705621846299
 20
20.715404380640059
 40
0.4461207084887369
 50
292.91798754489776
 51
85.504065536736988
  0
ARC
  8
_0-0_
  6
CONTINUOUS
 62
    7
 10
0.8153167377682493
 20
20.938904336995698
 40
0.9157659800751021
 50
92.31132497512381
 51
198.29836796240778
  0
ARC
  8
_0-0_
  6
CONTINUOUS
 62
    7
 10
0.7573540675796479
 20
21.266856784395479
 40
1.0184951689126165
 50
217.17811018572414
 51
306.03603943949099
  0
ARC
  8
_0-0_
  6
CONTINUOUS
 62
    7
 10
1.0254526706327667
 20
21.088887216922878
 40
0.7255715554726388
 50
297.14840622852682
 51
14.926615822317553
  0
ARC
  8
_0-0_
  6
CONTINUOUS
 62
    7
 10
0.7802518432403857
 20
20.790427362165694
 40
1.0634995665914873
 50
27.153389453946065
 51
90.100600265836079
  0
ARC
  8
_0-0_
  6
CONTINUOUS
 62
    7
 10
3.3550646860843116
 20
21.600048611010315
 40
0.4862449757896187
 50
93.873292271454218
 51
268.85456279175293
  0
ARC
  8
_0-0_
  6
CONTINUOUS
 62
    7
 10
8.101902856199807
 20
22.027695164315467
 40
0.5208953220598131
 50
268.26440423434406
 51
86.645987006030452
  0
ARC
  8
_0-0_
  6
CONTINUOUS
 62
    7
 10
11.456251953318933
 20
22.456039667485065
 40
0.4634017492413475
 50
94.95373758414577
 51
270.7710728680787
  0
ARC
  8
_0-0_
  6
CONTINUOUS
 62
    7
 10
15.872559256819891
 20
22.909530368894472
 40
0.4784072630237711
 50
273.6043626537172
 51
100.30155228263055
  0
LINE
  8
_0-0_
  6
CONTINUOUS
 62
    7
 10
-13.305206523238077
 20
19.772606412308782
 11
-8.9113111159388509
 21
20.25824748364186
  0
LINE
  8
_0-0_
  6
CONTINUOUS
 62
    7
 10
-8.8419338200341215
 20
19.263839575674133
 11
-13.282080757936491
 21
18.893827330848943
  0
LINE
  8
_0-0_
  6
CONTINUOUS
 62
    7
 10
-6.6681118816860945
 20
20.651385493768622
 11
-2.5285998927042002
 21
21.160152330403271
  0
LINE
  8
_0-0_
  6
CONTINUOUS
 62
    7
 10
-2.3898453008947413
 20
20.304499014245003
 11
-6.7143634122892379
 21
19.726354881705639
  0
LINE
  8
_0-0_
  6
CONTINUOUS
 62
    7
 10
3.3222187285942297
 20
22.085182942466268
 11
8.1323779113217753
 21
22.54769824849776
  0
LINE
  8
_0-0_
  6
CONTINUOUS
 62
    7
 10
8.0861263807186319
 20
21.507038809926904
 11
3.3453444938958157
 21
21.113900799800128
  0
LINE
  8
_0-0_
  6
CONTINUOUS
 62
    7
 10
11.416236584145416
 20
22.917710493322964
 11
15.787006226143056
 21
23.380225799354456
  0
LINE
  8
_0-0_
  6
CONTINUOUS
 62
    7
 10
15.902635052650929
 20
22.432069421989887
 11
11.46248811474856
 21
21.992679881259967
  0
LINE
  8
_0-0_
  6
CONTINUOUS
 62
    7
 10
-20.497319532027838
 20
12.32610998520169
 11
-19.526037389361683
 21
16.164987025263109
  0
ARC
  8
_0-0_
  6
CONTINUOUS
 62
    7
 10
-23.012600474369499
 20
15.397117226372067
 40
3.5701185097680095
 50
12.420363900735181
 51
62.71682015691956
  0
ARC
  8
_0-0_
  6
CONTINUOUS
 62
    7
 10
-22.827685112417278
 20
16.524325839949135
 40
2.5084175667613287
 50
54.641813757825091
 51
90.650136969652209
  0
LINE
  8
_0-0_
  6
CONTINUOUS
 62
    7
 10
-19.526037389361683
 20
16.164987025263109
 11
25.569204948709192
 21
20.605133963165478
  0
ARC
  8
_0-0_
  6
CONTINUOUS
 62
    7
 10
28.726449037072364
 20
9.8612108155368574
 40
2.0026586257549268
 50
152.59724680137191
 51
200.01998122572533
  0
ARC
  8
_0-0_
  6
CONTINUOUS
 62
    7
 10
29.424731727109695
 20
9.9098696174364207
 40
1.4854746666722862
 50
147.23559716649592
 51
215.15138168146893
  0
ARC
  8
_0-0_
  6
CONTINUOUS
 62
    7
 10
26.45057444095405
 20
9.8479080073081704
 40
1.9301377209013768
 50
335.73242665331185
 51
26.654552194652911
  0
ARC
  8
_0-0_
  6
CONTINUOUS
 62
    7
 10
32.997307231507783
 20
8.0406154721778975
 40
3.5987153633874143
 50
158.6900674203757
 51
199.74028337364132
  0
ARC
  8
_0-0_
  6
CONTINUOUS
 62
    7
 10
27.749278863239333
 20
8.8990777845237332
 40
1.9479025244160502
 50
358.47473314259798
 51
13.337549084943568
  0
ARC
  8
_0-0_
  6
CONTINUOUS
 62
    7
 10
16.742920291091245
 20
10.566882446480996
 40
13.40016663233604
 50
343.78561180539072
 51
345.16616620110591
  0
ARC
  8
_0-0_
  6
CONTINUOUS
 62
    7
 10
29.882282925676115
 20
7.374643047616523
 40
2.0198152078718885
 50
162.98164873534728
 51
207.40720908012327
  0
ARC
  8
_0-0_
  6
CONTINUOUS
 62
    7
 10
29.28974592903014
 20
6.8558159358942916
 40
2.2201272961190281
 50
152.04196061968526
 51
197.5691815648448
  0
ARC
  8
_0-0_
  6
CONTINUOUS
 62
    7
 10
32.854950302363385
 20
10.765636369883957
 40
4.2520118141425831
 50
170.6429656077529
 51
189.3570343922471
  0
ARC
  8
_0-0_
  6
CONTINUOUS
 62
    7
 10
27.683027555425831
 20
10.731070470155068
 40
1.2167307177467523
 50
323.37425902759071
 51
36.625740972409197
  0
ARC
  8
_0-0_
  6
CONTINUOUS
 62
    7
 10
30.042200746863607
 20
4.7546567279941243
 40
0.9526988126793054
 50
148.5045935906908
 51
217.03583800370973
  0
ARC
  8
_0-0_
  6
CONTINUOUS
 62
    7
 10
29.199087917534904
 20
4.890643222462721
 40
0.3630379371312149
 50
340.33149741930231
 51
85.138955124910282
  0
ARC
  8
_0-0_
  6
CONTINUOUS
 62
    7
 10
28.684529018622491
 20
4.7952868206581982
 40
0.8568359395252688
 50
314.18277328364428
 51
358.20533967944374
  0
LINE
  8
_0-0_
  6
CONTINUOUS
 62
    7
 10
28.659514222766767
 20
11.456954364461801
 11
27.27687823361105
 21
11.474237314326267
  0
LINE
  8
_0-0_
  6
CONTINUOUS
 62
    7
 10
27.504951265930792
 20
11.844753956147976
 11
27.466990682119949
 21
11.54336911378406
  0
LINE
  8
_0-0_
  6
CONTINUOUS
 62
    7
 10
28.175591626562259
 20
10.713787520290616
 11
26.948502186186566
 21
10.782919319748409
  0
LINE
  8
_0-0_
  6
CONTINUOUS
 62
    7
 10
28.210157526291162
 20
9.0546243333037566
 11
26.844804486999884
 21
9.1756049823548764
  0
LINE
  8
_0-0_
  6
CONTINUOUS
 62
    7
 10
27.328727083204392
 20
7.8966666923858426
 11
28.987890270191251
 21
7.931232592114732
  0
LINE
  8
_0-0_
  6
CONTINUOUS
 62
    7
 10
29.022456169920154
 20
7.9485155419791695
 11
29.160719768835712
 21
7.5164417953680029
  0
LINE
  8
_0-0_
  6
CONTINUOUS
 62
    7
 10
29.160719768835712
 20
7.5164417953680029
 11
29.005173220055717
 21
6.3757671043145407
  0
LINE
  8
_0-0_
  6
CONTINUOUS
 62
    7
 10
29.005173220055717
 20
6.3757671043145407
 11
28.089176877240043
 21
6.4448989037723337
  0
LINE
  8
_0-0_
  6
CONTINUOUS
 62
    7
 10
28.089176877240043
 20
6.4448989037723337
 11
27.190463484288806
 21
6.4276159539078819
  0
LINE
  8
_0-0_
  6
CONTINUOUS
 62
    7
 10
29.229851568293519
 20
5.2523753631255161
 11
28.918758470733472
 21
5.9264104078389224
  0
LINE
  8
_0-0_
  6
CONTINUOUS
 62
    7
 10
28.918758470733472
 20
5.9264104078389224
 11
28.970607320326813
 21
6.2720694051278585
  0
LINE
  8
_0-0_
  6
CONTINUOUS
 62
    7
 10
28.970607320326813
 20
6.2720694051278585
 11
29.610076465311344
 21
6.8251238007901449
  0
LINE
  8
_0-0_
  6
CONTINUOUS
 62
    7
 10
29.64464236504022
 20
9.3484344809993374
 11
29.298983367751298
 21
9.6249616788304948
  0
LINE
  8
_0-0_
  6
CONTINUOUS
 62
    7
 10
29.298983367751298
 20
9.6249616788304948
 11
28.763211921953449
 21
9.6595275785593842
  0
LINE
  8
_0-0_
  6
CONTINUOUS
 62
    7
 10
28.763211921953449
 20
9.6595275785593842
 11
28.659514222766767
 21
10.074318375306099
  0
LINE
  8
_0-0_
  6
CONTINUOUS
 62
    7
 10
27.622537230899972
 20
8.9854925338459637
 11
27.570688381306631
 21
8.5188528875059077
  0
LINE
  8
_0-0_
  6
CONTINUOUS
 62
    7
 10
27.570688381306631
 20
8.5188528875059077
 11
27.691669030357779
 21
8.0003643915725107
  0
LINE
  8
_0-0_
  6
CONTINUOUS
 62
    7
 10
27.294161183475488
 20
6.0992399064833975
 11
27.328727083204392
 21
5.4424878116344146
  0
LINE
  8
_0-0_
  6
CONTINUOUS
 62
    7
 10
27.328727083204392
 20
5.4424878116344146
 11
29.229851568293519
 21
5.2523753631255161
  0
LINE
  8
_0-0_
  6
CONTINUOUS
 62
    7
 10
29.28170041788686
 20
4.1808324715298184
 11
27.242312333882147
 21
4.0425688726142468
  0
LINE
  8
_0-0_
  6
CONTINUOUS
 62
    7
 10
27.242312333882147
 20
4.0425688726142468
 11
27.172749361381129
 21
3.9134334850243913
  0
LINE
  8
_0-0_
  6
CONTINUOUS
 62
    7
 10
27.411509110580589
 20
11.480512015869415
 11
27.260549331934435
 21
11.196352432535498
  0
LINE
  8
_0-0_
  6
CONTINUOUS
 62
    7
 10
27.260549331934435
 20
11.196352432535498
 11
27.216149397038514
 21
11.009872705972619
  0
LINE
  8
_0-0_
  6
CONTINUOUS
 62
    7
 10
27.216149397038514
 20
11.009872705972619
 11
27.225029384017709
 21
10.787873031493
  0
LINE
  8
_0-0_
  6
CONTINUOUS
 62
    7
 10
-30.219443209415992
 20
5.6806003201156656
 11
-28.16064368048395
 21
2.3473058447018995
  0
LINE
  8
_0-0_
  6
CONTINUOUS
 62
    7
 10
18.203147219042471
 20
10.1465711436067
 11
19.554375608487412
 21
6.4306930726330833
  0
LINE
  8
_0-0_
  6
CONTINUOUS
 62
    7
 10
-25.149050605193302
 20
8.481209672582473
 11
-22.524961136555852
 21
8.2883930372795831
  0
ENDBLK
  0
ENDSEC
  0
SECTION
  2
ENTITIES
  0
INSERT
  2
-000-1
  8
_0-0_
 10
146.63170264446981
 20
101.68732005618533
 41
1
 42
1
 50
0
  0
ENDSEC
  0
EOF
