  0
SECTION
  2
HEADER
  9
$ACADVER
  1
AC1009
  9
$INSBASE
 10
0
 20
0
 30
0
  9
$EXTMIN
 10
0
 20
0
  9
$EXTMAX
 10
297
 20
210
  9
$LIMMIN
 10
0
 20
0
  9
$LIMMAX
 10
297
 20
210
  9
$LTSCALE
 40
1
  0
ENDSEC
  0
SECTION
  2
TABLES
  0
TABLE
  2
LTYPE
 70
     9
  0
LTYPE
  2
CONTINUOUS
 70
    64
  3
実線
 72
    65
 73
     0
 40
0.0
  0
LTYPE
  2
DASHED1
 70
    64
  3
--  --  --  --  --  --  --  --  
 72
    65
 73
     2
 40
2.5
 49
1.25
 49
-1.25
  0
LTYPE
  2
DASHED2
 70
    64
  3
----    ----    ----    ----    
 72
    65
 73
     2
 40
5.0
 49
2.5
 49
-2.5
  0
LTYPE
  2
DASHED3
 70
    64
  3
------  ------  ------  ------  
 72
    65
 73
     2
 40
5.0
 49
3.75
 49
-1.25
  0
LTYPE
  2
CENTER1
 70
    64
  3
----- - ----- - ----- - ----- - 
 72
    65
 73
     4
 40
10.0
 49
6.25
 49
-1.25
 49
1.25
 49
-1.25
  0
LTYPE
  2
CENTER2
 70
    64
  3
----------  --  ----------  --  
 72
    65
 73
     4
 40
20.0
 49
12.5
 49
-2.5
 49
2.5
 49
-2.5
  0
LTYPE
  2
PHANTOM1
 70
    64
  3
--- - - --- - - --- - - --- - - 
 72
    65
 73
     6
 40
10.0
 49
3.25
 49
-1.25
 49
1.25
 49
-1.25
 49
1.25
 49
-1.25
  0
LTYPE
  2
PHANTOM2
 70
    64
  3
--------  -  -  --------  -  -  
 72
    65
 73
     6
 40
20.0
 49
10.0
 49
-2.5
 49
1.25
 49
-2.5
 49
1.25
 49
-2.5
  0
LTYPE
  2
DOT
 70
    64
  3
-   -   -   -   -   -   -   -   
 72
    65
 73
     2
 40
2.5
 49
0.625
 49
-1.875
  0
LTYPE
  2
DUMMY
 70
    64
  3
ダミー
 72
    65
 73
     0
 40
0.0
  0
LTYPE
  2
RAND1
 70
    64
  3
ランダム線1
 72
    65
 73
     4
 40
10.0
 49
1.0
 49
-2.0
 49
3.0
 49
-4.0
  0
LTYPE
  2
RAND2
 70
    64
  3
ランダム線2
 72
    65
 73
     4
 40
14.0
 49
2.0
 49
-3.0
 49
4.0
 49
-5.0
  0
LTYPE
  2
RAND3
 70
    64
  3
ランダム線3
 72
    65
 73
     4
 40
18.0
 49
3.0
 49
-4.0
 49
5.0
 49
-6.0
  0
LTYPE
  2
RAND4
 70
    64
  3
ランダム線4
 72
    65
 73
     4
 40
22.0
 49
4.0
 49
-5.0
 49
6.0
 49
-7.0
  0
LTYPE
  2
RAND5
 70
    64
  3
ランダム線5
 72
    65
 73
     4
 40
26.0
 49
5.0
 49
-6.0
 49
7.0
 49
-8.0
  0
LTYPE
  2
LONG1
 70
    64
  3
----------  --  ----------  --  
 72
    65
 73
     4
 40
40.0
 49
32.5
 49
-2.5
 49
2.5
 49
-2.5
  0
LTYPE
  2
LONG2
 70
    64
  3
--------  -  -  --------  -  -  
 72
    65
 73
     6
 40
40.0
 49
30.0
 49
-2.5
 49
1.25
 49
-2.5
 49
1.25
 49
-2.5
  0
LTYPE
  2
LONG3
 70
    64
  3
+++++++++++++++..+++++++++++++++
 72
    65
 73
     2
 40
40.0
 49
37.5
 49
-2.5
  0
LTYPE
  2
LONG4
 70
    64
  3
+++++++++++++++..+++++++++++++++
 72
    65
 73
     2
 40
80.0
 49
75.0
 49
-5.0
  0
LTYPE
  2
LONG5
 70
    64
  3
----------  --  ----------  --  
 72
    65
 73
     4
 40
60.0
 49
37.5
 49
-7.5
 49
7.5
 49
-7.5
  0
LTYPE
  2
dashed
 70
   64
  3
-------   -------------   ------
 72
   65
 73
    2
 40
7.5
 49
6
 49
-1.5
  0
LTYPE
  2
dashed_spaced
 70
   64
  3
----        --------        ----
 72
   65
 73
    2
 40
12
 49
6
 49
-6
  0
LTYPE
  2
long_dashed_dotted
 70
   64
  3
------------- --- --------------
 72
   65
 73
    4
 40
15.25
 49
12
 49
-1.5
 49
0.25
 49
-1.5
  0
LTYPE
  2
long_dashed_double-dotted
 70
   64
  3
----------- --- --- ------------
 72
   65
 73
    6
 40
17
 49
12
 49
-1.5
 49
0.25
 49
-1.5
 49
0.25
 49
-1.5
  0
LTYPE
  2
long_dashed_triplicate-dotted
 70
   64
  3
--------- --- --- --- ----------
 72
   65
 73
    8
 40
18.75
 49
12
 49
-1.5
 49
0.25
 49
-1.5
 49
0.25
 49
-1.5
 49
0.25
 49
-1.5
  0
LTYPE
  2
dotted
 70
   64
  3
   -       -       -       -    
 72
   65
 73
    2
 40
1.75
 49
0.25
 49
-1.5
  0
LTYPE
  2
chain
 70
   64
  3
-------------- -- --------------
 72
   65
 73
    4
 40
18.5
 49
12
 49
-1.5
 49
3.5
 49
-1.5
  0
LTYPE
  2
chain_double_dash
 70
   64
  3
------------ -- -- -------------
 72
   65
 73
    6
 40
23.5
 49
12
 49
-1.5
 49
3.5
 49
-1.5
 49
3.5
 49
-1.5
  0
LTYPE
  2
dashed_dotted
 70
   64
  3
-----------     -     ----------
 72
   65
 73
    4
 40
9.25
 49
6
 49
-1.5
 49
0.25
 49
-1.5
  0
LTYPE
  2
double-dashed_dotted
 70
   64
  3
------   -----------   -   -----
 72
   65
 73
    6
 40
16.75
 49
6
 49
-1.5
 49
6
 49
-1.5
 49
0.25
 49
-1.5
  0
LTYPE
  2
dashed_double-dotted
 70
   64
  3
---------    -    -    ---------
 72
   65
 73
    6
 40
11
 49
6
 49
-1.5
 49
0.25
 49
-1.5
 49
0.25
 49
-1.5
  0
LTYPE
  2
double-dashed_double-dotted
 70
   64
  3
-----   ---------   -   -   ----
 72
   65
 73
    8
 40
18.5
 49
6
 49
-1.5
 49
6
 49
-1.5
 49
0.25
 49
-1.5
 49
0.25
 49
-1.5
  0
LTYPE
  2
dashed_triplicate-dotted
 70
   64
  3
-------    -    -    -    ------
 72
   65
 73
    8
 40
12.75
 49
6
 49
-1.5
 49
0.25
 49
-1.5
 49
0.25
 49
-1.5
 49
0.25
 49
-1.5
  0
LTYPE
  2
double-dashed_triplicate-dotted
 70
   64
  3
-----  ---------  -  -  -  -----
 72
   65
 73
   10
 40
20.25
 49
6
 49
-1.5
 49
6
 49
-1.5
 49
0.25
 49
-1.5
 49
0.25
 49
-1.5
 49
0.25
 49
-1.5
  0
LTYPE
  2
undefined
 70
   64
  3
--------------------------------
 72
   65
 73
    0
 40
0
  0
LTYPE
  2
_
 70
   64
  3
                                
 72
   65
 73
    0
 40
0
  0
LTYPE
  2
__18
 70
   64
  3
                                
 72
   65
 73
    0
 40
0
  0
LTYPE
  2
__19
 70
   64
  3
                                
 72
   65
 73
    0
 40
0
  0
LTYPE
  2
__20
 70
   64
  3
                                
 72
   65
 73
    0
 40
0
  0
LTYPE
  2
__21
 70
   64
  3
                                
 72
   65
 73
    0
 40
0
  0
LTYPE
  2
__22
 70
   64
  3
                                
 72
   65
 73
    0
 40
0
  0
LTYPE
  2
__23
 70
   64
  3
                                
 72
   65
 73
    0
 40
0
  0
LTYPE
  2
__24
 70
   64
  3
                                
 72
   65
 73
    0
 40
0
  0
LTYPE
  2
__25
 70
   64
  3
                                
 72
   65
 73
    0
 40
0
  0
LTYPE
  2
__26
 70
   64
  3
                                
 72
   65
 73
    0
 40
0
  0
LTYPE
  2
__27
 70
   64
  3
                                
 72
   65
 73
    0
 40
0
  0
LTYPE
  2
__28
 70
   64
  3
                                
 72
   65
 73
    0
 40
0
  0
LTYPE
  2
__29
 70
   64
  3
                                
 72
   65
 73
    0
 40
0
  0
LTYPE
  2
__30
 70
   64
  3
                                
 72
   65
 73
    0
 40
0
  0
LTYPE
  2
__31
 70
   64
  3
                                
 72
   65
 73
    0
 40
0
  0
LTYPE
  2
__32
 70
   64
  3
                                
 72
   65
 73
    0
 40
0
  0
ENDTAB
  0
TABLE
  2
STYLE
  5
3
100
AcDbSymbolTable
 70
     1
  0
STYLE
  5
10
100
AcDbSymbolTableRecord
100
AcDbTextStyleTableRecord
  2
STANDARD
 70
     0
 40
0.0
 41
1.0
 50
0.0
 71
     0
 42
0.2
  3
txt
  4
bigfont.shx
  0
STYLE
  5
26
100
AcDbSymbolTableRecord
100
AcDbTextStyleTableRecord
  2
TATEGAKI
 70
    68
 40
0.0
 41
1.0
 50
0.0
 71
     0
 42
1.0
  3
txt
  4
bigfont.shx
  0
ENDTAB
  0
TABLE
  2
LAYER
 70
    2
  0
LAYER
  2
_0-0_
 70
   64
 62
    7
  6
CONTINUOUS
  0
LAYER
  2
ADD_LINE
 70
   64
 62
    7
  6
CONTINUOUS
  0
ENDTAB
  0
ENDSEC
  0
SECTION
  2
BLOCKS
  0
BLOCK
  2
-001-6
 70
   64
 10
0
 20
0
 30
0
  0
LINE
  8
_0-0_
  6
CONTINUOUS
 62
    7
 10
-23.459870508348985
 20
14.854648506959528
 11
33.357939218139379
 21
25.938356042716499
  0
LINE
  8
_0-0_
  6
CONTINUOUS
 62
    7
 10
-23.496693456972764
 20
13.602668253751098
 11
31.590437684198079
 21
23.581687330794743
  0
LINE
  8
_0-0_
  6
CONTINUOUS
 62
    7
 10
32.179604862178522
 20
22.808405409695425
 11
-23.423047559725205
 21
13.197615818889545
  0
LINE
  8
_0-0_
  6
CONTINUOUS
 62
    7
 10
33.357939218139379
 20
25.938356042716499
 11
33.986235665304989
 21
25.884528866225061
  0
LINE
  8
_0-0_
  6
CONTINUOUS
 62
    7
 10
33.986235665304989
 20
25.884528866225061
 11
34.80220406187901
 21
25.457116848971999
  0
LINE
  8
_0-0_
  6
CONTINUOUS
 62
    7
 10
34.627353691184581
 20
25.57368376276829
 11
35.676455915351184
 21
25.631967219666429
  0
LINE
  8
_0-0_
  6
CONTINUOUS
 62
    7
 10
35.676455915351184
 20
25.631967219666429
 11
38.318639294733728
 21
23.961174788586298
  0
LINE
  8
_0-0_
  6
CONTINUOUS
 62
    7
 10
38.318639294733728
 20
23.961174788586298
 11
38.338067113699751
 21
23.766896598925804
  0
LINE
  8
_0-0_
  6
CONTINUOUS
 62
    7
 10
38.338067113699751
 20
23.766896598925804
 11
37.871799458514616
 21
20.949862848848838
  0
LINE
  8
_0-0_
  6
CONTINUOUS
 62
    7
 10
36.045584475706093
 20
25.398833392073847
 11
35.793022829147461
 21
25.321122116209658
  0
LINE
  8
_0-0_
  6
CONTINUOUS
 62
    7
 10
35.793022829147461
 20
25.321122116209658
 11
35.229616079132072
 21
22.678938736827114
  0
LINE
  8
_0-0_
  6
CONTINUOUS
 62
    7
 10
35.540461182588828
 20
24.582864995499826
 11
33.889096570474734
 21
25.126843926549178
  0
LINE
  8
_0-0_
  6
CONTINUOUS
 62
    7
 10
33.889096570474734
 20
25.126843926549178
 11
33.986235665304989
 21
25.884528866225061
  0
LINE
  8
_0-0_
  6
CONTINUOUS
 62
    7
 10
35.229616079132072
 20
22.678938736827114
 11
40.358560286168753
 21
19.531632064327326
  0
LINE
  8
_0-0_
  6
CONTINUOUS
 62
    7
 10
35.229616079132072
 20
22.678938736827114
 11
33.655962742882181
 21
22.601227460962924
  0
LINE
  8
_0-0_
  6
CONTINUOUS
 62
    7
 10
33.791957475644509
 20
23.747468779959767
 11
33.597679285984029
 21
22.523516185098735
  0
LINE
  8
_0-0_
  6
CONTINUOUS
 62
    7
 10
33.850240932542661
 20
23.747468779959767
 11
34.41364768255805
 21
23.689185323061615
  0
LINE
  8
_0-0_
  6
CONTINUOUS
 62
    7
 10
34.41364768255805
 20
23.689185323061615
 11
34.588498053252479
 21
22.814933469589455
  0
LINE
  8
_0-0_
  6
CONTINUOUS
 62
    7
 10
35.074193527403693
 20
24.369158986873309
 11
32.276587596292742
 21
24.077741702382575
  0
LINE
  8
_0-0_
  6
CONTINUOUS
 62
    7
 10
33.597679285984029
 20
22.523516185098735
 11
34.80220406187901
 21
21.357847047135849
  0
LINE
  8
_0-0_
  6
CONTINUOUS
 62
    7
 10
34.80220406187901
 20
21.357847047135849
 11
34.80220406187901
 21
21.163568857475362
  0
LINE
  8
_0-0_
  6
CONTINUOUS
 62
    7
 10
34.80220406187901
 20
21.163568857475362
 11
33.345117639425396
 21
21.241280133339558
  0
LINE
  8
_0-0_
  6
CONTINUOUS
 62
    7
 10
33.131411630798866
 20
20.813868116086496
 11
33.345117639425396
 21
21.241280133339558
  0
LINE
  8
_0-0_
  6
CONTINUOUS
 62
    7
 10
33.131411630798866
 20
20.813868116086496
 11
33.03427253596864
 21
20.677873383324162
  0
LINE
  8
_0-0_
  6
CONTINUOUS
 62
    7
 10
33.03427253596864
 20
20.677873383324162
 11
32.062881587666212
 21
20.639017745392067
  0
LINE
  8
_0-0_
  6
CONTINUOUS
 62
    7
 10
31.810319941107608
 20
19.803621529851995
 11
33.500540191153775
 21
19.823049348818046
  0
LINE
  8
_0-0_
  6
CONTINUOUS
 62
    7
 10
33.500540191153775
 20
19.823049348818046
 11
33.733674018746356
 21
20.716729021256256
  0
LINE
  8
_0-0_
  6
CONTINUOUS
 62
    7
 10
33.733674018746356
 20
20.716729021256256
 11
34.452503320490152
 21
20.619589926426016
  0
LINE
  8
_0-0_
  6
CONTINUOUS
 62
    7
 10
34.452503320490152
 20
20.619589926426016
 11
34.452503320490152
 21
20.211605728139006
  0
LINE
  8
_0-0_
  6
CONTINUOUS
 62
    7
 10
34.452503320490152
 20
20.211605728139006
 11
36.414713036061002
 21
20.289317004003202
  0
LINE
  8
_0-0_
  6
CONTINUOUS
 62
    7
 10
36.414713036061002
 20
20.289317004003202
 11
36.531279949857279
 21
20.444739555731587
  0
LINE
  8
_0-0_
  6
CONTINUOUS
 62
    7
 10
36.531279949857279
 20
20.444739555731587
 11
36.608991225721482
 21
21.804686883354954
  0
LINE
  8
_0-0_
  6
CONTINUOUS
 62
    7
 10
35.054765708437643
 20
21.357847047135849
 11
36.414713036061002
 21
21.396702685067943
  0
LINE
  8
_0-0_
  6
CONTINUOUS
 62
    7
 10
40.475127199965058
 20
19.337353874666839
 11
40.358560286168753
 21
19.531632064327326
  0
LINE
  8
_0-0_
  6
CONTINUOUS
 62
    7
 10
40.475127199965058
 20
19.337353874666839
 11
32.703999613545804
 21
-23.520414764435284
  0
LINE
  8
_0-0_
  6
CONTINUOUS
 62
    7
 10
32.703999613545804
 20
-23.520414764435284
 11
26.525953182342491
 21
-23.170714023046418
  0
LINE
  8
_0-0_
  6
CONTINUOUS
 62
    7
 10
23.44407585836673
 20
-21.056294460065892
 11
23.822334419085266
 21
-21.056294460065892
  0
LINE
  8
_0-0_
  6
CONTINUOUS
 62
    7
 10
25.272325568506332
 20
-22.411720969307332
 11
26.942967545013218
 21
-22.380199422580787
  0
LINE
  8
_0-0_
  6
CONTINUOUS
 62
    7
 10
25.272325568506332
 20
-22.411720969307332
 11
25.114717834873616
 21
-23.89323366545495
  0
LINE
  8
_0-0_
  6
CONTINUOUS
 62
    7
 10
25.114717834873616
 20
-23.89323366545495
 11
25.650584129224868
 21
-23.830190572001861
  0
LINE
  8
_0-0_
  6
CONTINUOUS
 62
    7
 10
25.650584129224868
 20
-23.830190572001861
 11
25.682105675951433
 21
-23.105194997291324
  0
LINE
  8
_0-0_
  6
CONTINUOUS
 62
    7
 10
25.682105675951433
 20
-23.105194997291324
 11
26.407101250661967
 21
-23.010630357111687
  0
LINE
  8
_0-0_
  6
CONTINUOUS
 62
    7
 10
26.407101250661967
 20
-23.010630357111687
 11
26.060364236669969
 21
-24.586707693438942
  0
LINE
  8
_0-0_
  6
CONTINUOUS
 62
    7
 10
26.060364236669969
 20
-24.586707693438942
 11
24.42124380688962
 21
-24.523664599985853
  0
LINE
  8
_0-0_
  6
CONTINUOUS
 62
    7
 10
24.42124380688962
 20
-24.523664599985853
 11
24.452765353616158
 21
-25.24866017469639
  0
LINE
  8
_0-0_
  6
CONTINUOUS
 62
    7
 10
24.452765353616158
 20
-25.24866017469639
 11
25.965799596490328
 21
-25.122573987790211
  0
LINE
  8
_0-0_
  6
CONTINUOUS
 62
    7
 10
25.965799596490328
 20
-25.122573987790211
 11
25.93427804976379
 21
-25.784526469047655
  0
LINE
  8
_0-0_
  6
CONTINUOUS
 62
    7
 10
26.375579703935401
 20
-25.753004922321111
 11
26.690795171200861
 21
-23.294324277650595
  0
LINE
  8
_0-0_
  6
CONTINUOUS
 62
    7
 10
26.942967545013218
 20
-22.380199422580787
 11
26.879924451560143
 21
-23.136716544017869
  0
LINE
  8
_0-0_
  6
CONTINUOUS
 62
    7
 10
27.069053731919396
 20
-20.961729819886255
 11
28.361437147707747
 21
-21.655203847870247
  0
LINE
  8
_0-0_
  6
CONTINUOUS
 62
    7
 10
27.258183012278678
 20
-21.119337553518982
 11
26.186450423576147
 21
-21.119337553518982
  0
LINE
  8
_0-0_
  6
CONTINUOUS
 62
    7
 10
26.060364236669969
 20
-19.889997231183724
 11
26.186450423576147
 21
-21.119337553518982
  0
LINE
  8
_0-0_
  6
CONTINUOUS
 62
    7
 10
24.484286900342696
 20
-19.511738670465181
 11
25.335368661959436
 21
-20.142169604996084
  0
LINE
  8
_0-0_
  6
CONTINUOUS
 62
    7
 10
25.335368661959436
 20
-20.142169604996084
 11
25.492976395592152
 21
-21.371509927331342
  0
LINE
  8
_0-0_
  6
CONTINUOUS
 62
    7
 10
25.492976395592152
 20
-21.371509927331342
 11
26.753838264653965
 21
-21.749768488049884
  0
LINE
  8
_0-0_
  6
CONTINUOUS
 62
    7
 10
26.753838264653965
 20
-21.749768488049884
 11
26.785359811380502
 21
-22.411720969307332
  0
LINE
  8
_0-0_
  6
CONTINUOUS
 62
    7
 10
25.524497942318689
 20
-21.560639207690613
 11
24.232114526530339
 21
-21.434553020784435
  0
LINE
  8
_0-0_
  6
CONTINUOUS
 62
    7
 10
23.948420605991444
 20
-20.457385072261534
 11
25.114717834873616
 21
-20.488906618988082
  0
LINE
  8
_0-0_
  6
CONTINUOUS
 62
    7
 10
24.673416180701977
 20
-18.660656908848466
 11
25.650584129224868
 21
-19.480217123738637
  0
LINE
  8
_0-0_
  6
CONTINUOUS
 62
    7
 10
25.650584129224868
 20
-19.480217123738637
 11
26.186450423576147
 21
-19.763911044277542
  0
LINE
  8
_0-0_
  6
CONTINUOUS
 62
    7
 10
28.361437147707747
 20
-21.655203847870247
 11
28.42448024116085
 21
-23.168238090744413
  0
LINE
  8
_0-0_
  6
CONTINUOUS
 62
    7
 10
27.699484666450317
 20
-21.371509927331342
 11
27.731006213176855
 21
-22.979108810385142
  0
LINE
  8
_0-0_
  6
CONTINUOUS
 62
    7
 10
26.785359811380502
 20
-21.623682301143702
 11
27.604920026270676
 21
-21.655203847870247
  0
LINE
  8
_0-0_
  6
CONTINUOUS
 62
    7
 10
26.470144344115042
 20
-21.276945287151708
 11
26.722316717927399
 21
-21.560639207690613
  0
LINE
  8
_0-0_
  6
CONTINUOUS
 62
    7
 10
27.289704559005216
 20
-21.71824694132334
 11
27.321226105731753
 21
-22.789979530025875
  0
LINE
  8
_0-0_
  6
CONTINUOUS
 62
    7
 10
29.527734376589919
 20
-23.32584582437714
 11
29.464691283136844
 21
-35.587727501003187
  0
LINE
  8
_0-0_
  6
CONTINUOUS
 62
    7
 10
29.464691283136844
 20
-35.587727501003187
 11
24.200592979803801
 21
-37.731192678408249
  0
LINE
  8
_0-0_
  6
CONTINUOUS
 62
    7
 10
24.200592979803801
 20
-37.731192678408249
 11
22.59299409674999
 21
-37.731192678408249
  0
LINE
  8
_0-0_
  6
CONTINUOUS
 62
    7
 10
23.979942152717982
 20
-37.636628038228615
 11
23.538640498546343
 21
-25.280181721422935
  0
LINE
  8
_0-0_
  6
CONTINUOUS
 62
    7
 10
23.538640498546343
 20
-25.563875641961843
 11
29.40164818968374
 21
-26.162785029766198
  0
LINE
  8
_0-0_
  6
CONTINUOUS
 62
    7
 10
23.633205138725984
 20
-34.452951818847559
 11
22.183213989304917
 21
-34.421430272121015
  0
LINE
  8
_0-0_
  6
CONTINUOUS
 62
    7
 10
23.727769778905625
 20
-31.42688333309923
 11
-6.7220443589369552
 21
-24.176927585993859
  0
LINE
  8
_0-0_
  6
CONTINUOUS
 62
    7
 10
-6.7220443589369552
 20
-24.176927585993859
 11
-6.8481305458431336
 21
-26.257349669945835
  0
LINE
  8
_0-0_
  6
CONTINUOUS
 62
    7
 10
-6.8481305458431336
 20
-26.257349669945835
 11
-7.8568200410925755
 21
-26.131263483039653
  0
LINE
  8
_0-0_
  6
CONTINUOUS
 62
    7
 10
-7.8568200410925755
 20
-26.131263483039653
 11
-7.8568200410925755
 21
-19.826954137730631
  0
LINE
  8
_0-0_
  6
CONTINUOUS
 62
    7
 10
24.452765353616158
 20
-25.24866017469639
 11
-30.300161310392681
 21
-15.918282343639042
  0
LINE
  8
_0-0_
  6
CONTINUOUS
 62
    7
 10
-13.341569171511424
 20
-18.818264642481189
 11
-13.026353704245977
 21
-27.139952978289095
  0
LINE
  8
_0-0_
  6
CONTINUOUS
 62
    7
 10
-13.026353704245977
 20
-27.139952978289095
 11
-11.954621115543446
 21
-28.21168556699163
  0
LINE
  8
_0-0_
  6
CONTINUOUS
 62
    7
 10
-11.954621115543446
 20
-28.21168556699163
 11
22.59299409674999
 21
-37.731192678408249
  0
LINE
  8
_0-0_
  6
CONTINUOUS
 62
    7
 10
21.962563162219098
 20
-34.705124192659923
 11
22.214735536031455
 21
-36.974675556971171
  0
LINE
  8
_0-0_
  6
CONTINUOUS
 62
    7
 10
22.183213989304917
 20
-34.421430272121015
 11
-13.026353704245977
 21
-25.879091109227293
  0
LINE
  8
_0-0_
  6
CONTINUOUS
 62
    7
 10
-8.2981216952642143
 20
-26.194306576492743
 11
-10.252457592310009
 21
-26.257349669945835
  0
LINE
  8
_0-0_
  6
CONTINUOUS
 62
    7
 10
22.403864816390737
 20
-23.231281184197506
 11
-15.800249816181946
 21
-18.18783370795029
  0
LINE
  8
_0-0_
  6
CONTINUOUS
 62
    7
 10
23.853855965811803
 20
-20.835643632980076
 11
-29.039299441330883
 21
-13.207429325156163
  0
LINE
  8
_0-0_
  6
CONTINUOUS
 62
    7
 10
-29.039299441330883
 20
-13.207429325156163
 11
-29.858859656221057
 21
-13.270472418609252
  0
LINE
  8
_0-0_
  6
CONTINUOUS
 62
    7
 10
-29.858859656221057
 20
-13.270472418609252
 11
-30.111032030033428
 21
-14.405248100764872
  0
LINE
  8
_0-0_
  6
CONTINUOUS
 62
    7
 10
-30.111032030033428
 20
-14.405248100764872
 11
-30.300161310392681
 21
-15.918282343639042
  0
LINE
  8
_0-0_
  6
CONTINUOUS
 62
    7
 10
-29.795816562767968
 20
-13.648730979327794
 11
22.908209564015451
 21
-21.150859100245526
  0
ARC
  8
_0-0_
  6
CONTINUOUS
 62
    7
 10
26.510662176888999
 20
-22.497785501303454
 40
3.4354404090234469
 50
196.36812734977653
 51
233.20027187157882
  0
ARC
  8
_0-0_
  6
CONTINUOUS
 62
    7
 10
26.120852108726197
 20
-22.306145650303609
 40
3.1292501840042211
 50
159.71496731482108
 51
201.75407475368857
  0
ARC
  8
_0-0_
  6
CONTINUOUS
 62
    7
 10
22.907828525436159
 20
-20.501206467457862
 40
0.7718055983295096
 50
291.10027114298833
 51
314.01095196626477
  0
ARC
  8
_0-0_
  6
CONTINUOUS
 62
    7
 10
23.94828675653612
 20
-22.069614564514723
 40
1.0211178312954474
 50
89.192604697612708
 51
97.085336317342794
  0
LINE
  8
_0-0_
  6
CONTINUOUS
 62
    7
 10
24.484286900342696
 20
-19.511738670465181
 11
24.020230838767603
 21
-20.041380965144331
  0
LINE
  8
_0-0_
  6
CONTINUOUS
 62
    7
 10
24.673416180701977
 20
-18.660656908848466
 11
25.200113787364202
 21
-15.494514968113599
  0
LINE
  8
_0-0_
  6
CONTINUOUS
 62
    7
 10
25.200113787364202
 20
-15.494514968113599
 11
26.667773064886759
 21
-15.494514968113599
  0
LINE
  8
_0-0_
  6
CONTINUOUS
 62
    7
 10
26.667773064886759
 20
-15.494514968113599
 11
26.811661229349752
 21
-13.854189893235425
  0
LINE
  8
_0-0_
  6
CONTINUOUS
 62
    7
 10
26.811661229349752
 20
-13.854189893235425
 11
25.574223014967984
 21
-13.019638539350037
  0
LINE
  8
_0-0_
  6
CONTINUOUS
 62
    7
 10
25.574223014967984
 20
-13.019638539350037
 11
26.725328330671957
 21
-7.0051132647967265
  0
LINE
  8
_0-0_
  6
CONTINUOUS
 62
    7
 10
26.725328330671957
 20
-7.0051132647967265
 11
28.049099443731549
 21
-6.9475579990115293
  0
LINE
  8
_0-0_
  6
CONTINUOUS
 62
    7
 10
28.049099443731549
 20
-6.9475579990115293
 11
28.279320506872338
 21
-5.1057894938851547
  0
LINE
  8
_0-0_
  6
CONTINUOUS
 62
    7
 10
28.279320506872338
 20
-5.1057894938851547
 11
27.272103355631359
 21
-4.559014468925767
  0
LINE
  8
_0-0_
  6
CONTINUOUS
 62
    7
 10
26.322441470175576
 20
-9.1346580988490942
 11
27.358436254309154
 21
-9.5375449593454888
  0
LINE
  8
_0-0_
  6
CONTINUOUS
 62
    7
 10
27.358436254309154
 20
-9.5375449593454888
 11
27.156992824060964
 21
-11.177870034223666
  0
LINE
  8
_0-0_
  6
CONTINUOUS
 62
    7
 10
27.156992824060964
 20
-11.177870034223666
 11
25.977109875464365
 21
-11.062759502653265
  0
LINE
  8
_0-0_
  6
CONTINUOUS
 62
    7
 10
27.272103355631359
 20
-4.559014468925767
 11
27.44476915298695
 21
-2.4294696348733993
  0
LINE
  8
_0-0_
  6
CONTINUOUS
 62
    7
 10
27.44476915298695
 20
-2.4294696348733993
 11
28.768540266046543
 21
-2.4582472677659979
  0
LINE
  8
_0-0_
  6
CONTINUOUS
 62
    7
 10
28.768540266046543
 20
-2.4582472677659979
 11
28.45198630422793
 21
-3.8395736466107735
  0
LINE
  8
_0-0_
  6
CONTINUOUS
 62
    7
 10
28.45198630422793
 20
-3.8395736466107735
 11
27.358436254309154
 21
-3.9834618110737736
  0
LINE
  8
_0-0_
  6
CONTINUOUS
 62
    7
 10
28.768540266046543
 20
-2.4582472677659979
 11
29.085094227865127
 21
-1.0769208889212152
  0
LINE
  8
_0-0_
  6
CONTINUOUS
 62
    7
 10
29.085094227865127
 20
-1.0769208889212152
 11
27.387213887201753
 21
0.2756278570309618
  0
LINE
  8
_0-0_
  6
CONTINUOUS
 62
    7
 10
27.387213887201753
 20
0.2756278570309618
 11
27.64621258323514
 21
1.9159529319091391
  0
LINE
  8
_0-0_
  6
CONTINUOUS
 62
    7
 10
28.164209975301944
 20
1.8008424003387375
 11
28.336875772657535
 21
-0.3862576994988273
  0
LINE
  8
_0-0_
  6
CONTINUOUS
 62
    7
 10
29.660646885717128
 20
1.7432871345535403
 11
29.83331268307272
 21
-0.9905879902434193
  0
LINE
  8
_0-0_
  6
CONTINUOUS
 62
    7
 10
29.83331268307272
 20
-0.9905879902434193
 11
29.085094227865127
 21
-1.0769208889212152
  0
LINE
  8
_0-0_
  6
CONTINUOUS
 62
    7
 10
27.473546785879549
 20
-4.0410170768589708
 11
27.44476915298695
 21
-4.5014592031405698
  0
LINE
  8
_0-0_
  6
CONTINUOUS
 62
    7
 10
29.977200847535713
 20
3.3836122094317105
 11
30.005978480428311
 21
0.8224028819903495
  0
LINE
  8
_0-0_
  6
CONTINUOUS
 62
    7
 10
30.005978480428311
 20
0.8224028819903495
 11
29.890867948857917
 21
-0.789144559995222
  0
LINE
  8
_0-0_
  6
CONTINUOUS
 62
    7
 10
29.977200847535713
 20
3.3836122094317105
 11
29.6606468857171
 21
1.8583976661239348
  0
LINE
  8
_0-0_
  6
CONTINUOUS
 62
    7
 10
29.660646885717128
 20
1.7432871345535403
 11
28.192987608194542
 21
1.7145095016609346
  0
LINE
  8
_0-0_
  6
CONTINUOUS
 62
    7
 10
28.768540266046514
 20
4.2181635633170984
 11
29.977200847535713
 21
3.3836122094317105
  0
LINE
  8
_0-0_
  6
CONTINUOUS
 62
    7
 10
28.768540266046514
 20
4.2181635633170984
 11
29.113871860757726
 21
6.2613754986916703
  0
LINE
  8
_0-0_
  6
CONTINUOUS
 62
    7
 10
29.113871860757726
 20
6.2613754986916703
 11
30.581531138280283
 21
6.2325978657990717
  0
LINE
  8
_0-0_
  6
CONTINUOUS
 62
    7
 10
30.581531138280283
 20
6.2325978657990717
 11
30.782974568528502
 21
7.9017005735698405
  0
LINE
  8
_0-0_
  6
CONTINUOUS
 62
    7
 10
30.782974568528502
 20
7.9017005735698405
 11
29.142649493650325
 21
9.0815835221664258
  0
LINE
  8
_0-0_
  6
CONTINUOUS
 62
    7
 10
29.142649493650325
 20
9.0815835221664258
 11
29.746979784394895
 21
14.923442999364134
  0
LINE
  8
_0-0_
  6
CONTINUOUS
 62
    7
 10
30.581531138280283
 20
14.606889037545542
 11
29.977200847535713
 21
8.5635861300996297
  0
LINE
  8
_0-0_
  6
CONTINUOUS
 62
    7
 10
29.746979784394895
 20
14.923442999364134
 11
30.552753505387685
 21
14.549333771760338
  0
LINE
  8
_0-0_
  6
CONTINUOUS
 62
    7
 10
29.746979784394895
 20
14.923442999364134
 11
30.696641669850678
 21
15.124886429612332
  0
LINE
  8
_0-0_
  6
CONTINUOUS
 62
    7
 10
30.696641669850678
 20
15.124886429612332
 11
32.02041278291027
 21
14.549333771760338
  0
LINE
  8
_0-0_
  6
CONTINUOUS
 62
    7
 10
30.552753505387685
 20
14.549333771760338
 11
32.02041278291027
 21
14.549333771760338
  0
LINE
  8
_0-0_
  6
CONTINUOUS
 62
    7
 10
32.02041278291027
 20
14.549333771760338
 11
32.22185621315846
 21
16.247214112423713
  0
LINE
  8
_0-0_
  6
CONTINUOUS
 62
    7
 10
32.22185621315846
 20
16.247214112423713
 11
30.351310075139494
 21
17.484652326805495
  0
LINE
  8
_0-0_
  6
CONTINUOUS
 62
    7
 10
30.696641669850678
 20
17.398319428127699
 11
30.667864036958079
 21
15.211219328290127
  0
LINE
  8
_0-0_
  6
CONTINUOUS
 62
    7
 10
31.531193023736066
 20
16.73643387159791
 11
32.077968048695467
 21
21.053078805487843
  0
LINE
  8
_0-0_
  6
CONTINUOUS
 62
    7
 10
32.077968048695467
 20
21.053078805487843
 11
30.955640365884094
 21
21.686186729125033
  0
LINE
  8
_0-0_
  6
CONTINUOUS
 62
    7
 10
30.955640365884094
 20
21.686186729125033
 11
30.121089011998706
 21
21.686186729125033
  0
ARC
  8
_0-0_
  6
CONTINUOUS
 62
    7
 10
32.524531258401638
 20
23.682292073264783
 40
0.939495672994741
 50
186.14723503391153
 51
248.46066152205668
  0
ARC
  8
_0-0_
  6
CONTINUOUS
 62
    7
 10
34.464555182293893
 20
23.299690567598184
 40
2.8879185527493503
 50
133.38491542489476
 51
174.3963061089992
  0
ARC
  8
_0-0_
  6
CONTINUOUS
 62
    7
 10
33.822518133028225
 20
23.817280073004007
 40
2.0737215346928024
 50
85.471862866111579
 51
130.31454067163361
  0
LINE
  8
_0-0_
  6
CONTINUOUS
 62
    7
 10
33.500540191153775
 20
19.823049348818046
 11
36.221947185229808
 21
18.319203680690883
  0
LINE
  8
_0-0_
  6
CONTINUOUS
 62
    7
 10
36.02050375498159
 20
16.966654934738706
 11
31.790191719769481
 21
18.952311604328074
  0
LINE
  8
_0-0_
  6
CONTINUOUS
 62
    7
 10
31.588748289521263
 20
17.657318124161094
 11
35.646394527377808
 21
15.729216720356924
  0
LINE
  8
_0-0_
  6
CONTINUOUS
 62
    7
 10
35.531283995807414
 20
14.405445607297345
 11
32.22185621315846
 21
15.901882517712522
  0
LINE
  8
_0-0_
  6
CONTINUOUS
 62
    7
 10
35.214730033988829
 20
13.081674494237767
 11
32.02041278291027
 21
14.549333771760338
  0
LINE
  8
_0-0_
  6
CONTINUOUS
 62
    7
 10
35.01328660374061
 20
11.757903381178181
 11
30.523975872495086
 21
13.599671886304556
  0
LINE
  8
_0-0_
  6
CONTINUOUS
 62
    7
 10
30.293754809354297
 20
12.362233671922773
 11
31.531193023736066
 21
11.757903381178181
  0
LINE
  8
_0-0_
  6
CONTINUOUS
 62
    7
 10
31.531193023736066
 20
11.757903381178181
 11
31.272194327702678
 21
10.405354635226004
  0
LINE
  8
_0-0_
  6
CONTINUOUS
 62
    7
 10
31.272194327702678
 20
10.405354635226004
 11
30.092311379106107
 21
10.664353331259399
  0
LINE
  8
_0-0_
  6
CONTINUOUS
 62
    7
 10
34.783065540599821
 20
10.347799369440807
 11
31.531193023736066
 21
11.757903381178181
  0
LINE
  8
_0-0_
  6
CONTINUOUS
 62
    7
 10
34.495289211673835
 20
8.9952506234886229
 11
31.272194327702678
 21
10.405354635226004
  0
LINE
  8
_0-0_
  6
CONTINUOUS
 62
    7
 10
34.322623414318215
 20
7.7002571433216431
 11
30.06353374621348
 21
9.2830269524146232
  0
LINE
  8
_0-0_
  6
CONTINUOUS
 62
    7
 10
34.149957616962624
 20
6.2901531315842689
 11
30.782974568528502
 21
7.9017005735698405
  0
LINE
  8
_0-0_
  6
CONTINUOUS
 62
    7
 10
33.747070756466243
 20
5.0527149172024863
 11
30.581531138280283
 21
6.2325978657990717
  0
LINE
  8
_0-0_
  6
CONTINUOUS
 62
    7
 10
29.257760025220719
 20
6.2613754986916703
 11
29.430425822576311
 21
5.4268241448062824
  0
LINE
  8
_0-0_
  6
CONTINUOUS
 62
    7
 10
29.430425822576311
 20
5.4268241448062824
 11
30.264977176461699
 21
5.1678254487728807
  0
LINE
  8
_0-0_
  6
CONTINUOUS
 62
    7
 10
30.264977176461699
 20
5.1678254487728807
 11
29.977200847535684
 21
3.5562780067873092
  0
LINE
  8
_0-0_
  6
CONTINUOUS
 62
    7
 10
29.372870556791113
 20
5.1390478158802821
 11
29.200204759435493
 21
4.1318306646393026
  0
LINE
  8
_0-0_
  6
CONTINUOUS
 62
    7
 10
30.2361995435691
 20
4.7937162211690847
 11
33.545627326218053
 21
3.5275003738947035
  0
LINE
  8
_0-0_
  6
CONTINUOUS
 62
    7
 10
33.315406263077236
 20
2.3188397924055266
 11
30.034756113320881
 21
3.4411674752169077
  0
LINE
  8
_0-0_
  6
CONTINUOUS
 62
    7
 10
32.077968048695467
 20
-3.810796013718182
 11
28.624652101583521
 21
-2.602135432228998
  0
LINE
  8
_0-0_
  6
CONTINUOUS
 62
    7
 10
31.847746985554679
 20
-5.1345671267777604
 11
27.905211279268528
 21
-3.9259065452885764
  0
LINE
  8
_0-0_
  6
CONTINUOUS
 62
    7
 10
31.761414086876854
 20
-6.4871158727299374
 11
28.221765241087112
 21
-5.4511210885963592
  0
LINE
  8
_0-0_
  6
CONTINUOUS
 62
    7
 10
31.416082492165671
 20
-7.9547751502525159
 11
28.077877076624119
 21
-6.9187803661189378
  0
LINE
  8
_0-0_
  6
CONTINUOUS
 62
    7
 10
30.984417998776692
 20
-9.3073238962047
 11
26.638995431994132
 21
-8.1274409476081146
  0
LINE
  8
_0-0_
  6
CONTINUOUS
 62
    7
 10
30.840529834313671
 20
-10.60231737637168
 11
27.387213887201725
 21
-9.6238778580232953
  0
LINE
  8
_0-0_
  6
CONTINUOUS
 62
    7
 10
30.523975872495086
 20
-11.983643755216459
 11
27.156992824060964
 21
-11.177870034223666
  0
LINE
  8
_0-0_
  6
CONTINUOUS
 62
    7
 10
30.351310075139494
 20
-13.336192501168636
 11
25.746888812323547
 21
-12.185087185464656
  0
LINE
  8
_0-0_
  6
CONTINUOUS
 62
    7
 10
30.264977176461699
 20
-14.659963614228218
 11
26.86921649513495
 21
-13.940522791913228
  0
LINE
  8
_0-0_
  6
CONTINUOUS
 62
    7
 10
29.833312683072691
 20
-16.185178157535994
 11
26.667773064886759
 21
-15.494514968113599
  0
LINE
  8
_0-0_
  6
CONTINUOUS
 62
    7
 10
29.603091619931902
 20
-17.422616371917776
 11
24.941115091330758
 21
-16.47295448646199
  0
LINE
  8
_0-0_
  6
CONTINUOUS
 62
    7
 10
29.286537658113318
 20
-18.832720383655154
 11
24.826004559760364
 21
-17.969391396877167
  0
LINE
  8
_0-0_
  6
CONTINUOUS
 62
    7
 10
29.027538962079902
 20
-20.271602028285134
 11
26.186450423576147
 21
-19.763911044277542
  0
ARC
  8
_0-0_
  6
CONTINUOUS
 62
    7
 10
36.444000973393699
 20
1.1309137493417865
 40
0.7207831915761102
 50
348.31942249936446
 51
134.23992390489678
  0
ARC
  8
_0-0_
  6
CONTINUOUS
 62
    7
 10
36.468452130498761
 20
0.801605372903289
 40
0.6533603061729954
 50
190.10724489063355
 51
332.98269975501199
  0
ARC
  8
_0-0_
  6
CONTINUOUS
 62
    7
 10
35.409442941026796
 20
-4.0252281298932928
 40
0.752655579971165
 50
341.51638215034711
 51
110.45913864893269
  0
ARC
  8
_0-0_
  6
CONTINUOUS
 62
    7
 10
35.534604450997065
 20
-4.3544087494734143
 40
0.5874423280131141
 50
177.62609033893892
 51
341.03434405206798
  0
ARC
  8
_0-0_
  6
CONTINUOUS
 62
    7
 10
-20.154779368063942
 20
14.130908303455399
 40
3.3834046946469298
 50
167.64848025326393
 51
188.98215111094336
  0
ARC
  8
_0-0_
  6
CONTINUOUS
 62
    7
 10
-22.690469416782619
 20
13.540033143877849
 40
0.8086534238902034
 50
175.55764502458155
 51
205.05204791295154
  0
ARC
  8
_0-0_
  6
CONTINUOUS
 62
    7
 10
-25.219415291296144
 20
10.314814577602675
 40
3.3966866243141167
 50
49.43485299704826
 51
58.071616701332466
  0
LINE
  8
_0-0_
  6
CONTINUOUS
 62
    7
 10
-23.621856868493722
 20
12.903244273530532
 11
-29.676586001889845
 21
-12.896629311551806
  0
LINE
  8
_0-0_
  6
CONTINUOUS
 62
    7
 10
-22.881834418856414
 20
11.995034903521116
 11
-28.36472802298735
 21
-11.719320868947001
  0
LINE
  8
_0-0_
  6
CONTINUOUS
 62
    7
 10
-22.108174585144695
 20
11.658661062776886
 11
-27.42288126890351
 21
-11.517496564500465
  0
LINE
  8
_0-0_
  6
CONTINUOUS
 62
    7
 10
-28.263815870764077
 20
-13.233003152296032
 11
-24.361879318131031
 21
-13.636651761189107
  0
LINE
  8
_0-0_
  6
CONTINUOUS
 62
    7
 10
-24.79916531109852
 20
-13.132091000072762
 11
-28.061991566317545
 21
-12.862991927477381
  0
LINE
  8
_0-0_
  6
CONTINUOUS
 62
    7
 10
-27.389243884829085
 20
-11.887507789319116
 11
-24.597341006651988
 21
-12.089332093765655
  0
LINE
  8
_0-0_
  6
CONTINUOUS
 62
    7
 10
-24.630978390726412
 20
-12.156606861914501
 11
-18.946260482148944
 21
12.432320896488612
  0
LINE
  8
_0-0_
  6
CONTINUOUS
 62
    7
 10
-22.14181196921912
 20
12.095947055744382
 11
-19.080810018446641
 21
12.533233048711885
  0
LINE
  8
_0-0_
  6
CONTINUOUS
 62
    7
 10
-21.872712896623739
 20
11.793210599074577
 11
-19.248996938818749
 21
12.196859207967655
  0
LINE
  8
_0-0_
  6
CONTINUOUS
 62
    7
 10
-22.579097962186609
 20
12.970519041679374
 11
-18.878985714000095
 21
13.575991955018992
  0
LINE
  8
_0-0_
  6
CONTINUOUS
 62
    7
 10
-18.071688496213952
 20
13.273255498349187
 11
-23.790043788865844
 21
-13.064816231923917
  0
LINE
  8
_0-0_
  6
CONTINUOUS
 62
    7
 10
-17.096204358055687
 20
14.013277947986488
 11
-13.2951799576459
 21
14.517838709102826
  0
LINE
  8
_0-0_
  6
CONTINUOUS
 62
    7
 10
-17.096204358055687
 20
12.903244273530532
 11
-13.463366878018022
 21
13.374167650572453
  0
LINE
  8
_0-0_
  6
CONTINUOUS
 62
    7
 10
-16.894380053609154
 20
12.667782585009569
 11
-13.497004262092446
 21
13.004156425753798
  0
LINE
  8
_0-0_
  6
CONTINUOUS
 62
    7
 10
-13.362454725794748
 20
13.407805034646877
 11
-19.080810018446641
 21
-13.165728384147187
  0
LINE
  8
_0-0_
  6
CONTINUOUS
 62
    7
 10
-18.979897866223368
 20
-12.896629311551806
 11
-22.579097962186609
 21
-12.526618086733151
  0
LINE
  8
_0-0_
  6
CONTINUOUS
 62
    7
 10
-22.108174585144695
 20
-12.459343318584303
 11
-16.793467901385881
 21
12.634145200935151
  0
LINE
  8
_0-0_
  6
CONTINUOUS
 62
    7
 10
-17.062566973981262
 20
12.735057353158417
 11
-22.343636273665652
 21
-12.291156398212191
  0
LINE
  8
_0-0_
  6
CONTINUOUS
 62
    7
 10
-23.352757795898341
 20
-12.492980702658727
 11
-17.90350157584183
 21
12.970519041679374
  0
LINE
  8
_0-0_
  6
CONTINUOUS
 62
    7
 10
-23.218208259600644
 20
-13.165728384147187
 11
-19.51809601141413
 21
-13.670289145263531
  0
LINE
  8
_0-0_
  6
CONTINUOUS
 62
    7
 10
-22.579097962186609
 20
-13.939388217858912
 11
-18.946260482148944
 21
-14.343036826751987
  0
LINE
  8
_0-0_
  6
CONTINUOUS
 62
    7
 10
-12.622432276157454
 20
13.575991955018992
 11
-18.340787568809333
 21
-13.502102224891413
  0
LINE
  8
_0-0_
  6
CONTINUOUS
 62
    7
 10
-12.016959362817829
 20
13.777816259465524
 11
-17.90350157584183
 21
-12.997541463775072
  0
LINE
  8
_0-0_
  6
CONTINUOUS
 62
    7
 10
-12.58879489208303
 20
14.450563940953984
 11
-12.117871515041102
 21
14.046915332060912
  0
LINE
  8
_0-0_
  6
CONTINUOUS
 62
    7
 10
-10.974200456510729
 20
14.854212549847055
 11
-6.2986040701659505
 21
15.493322847261091
  0
LINE
  8
_0-0_
  6
CONTINUOUS
 62
    7
 10
-5.827680693124023
 20
15.392410695037825
 11
-5.5922190046030664
 21
15.257861158740134
  0
LINE
  8
_0-0_
  6
CONTINUOUS
 62
    7
 10
-5.9622302294217207
 20
15.123311622442444
 11
-12.185146283189951
 21
-14.645773283421793
  0
LINE
  8
_0-0_
  6
CONTINUOUS
 62
    7
 10
-12.656069660231864
 20
-13.939388217858912
 11
-6.9377143675799857
 21
14.618750861326099
  0
LINE
  8
_0-0_
  6
CONTINUOUS
 62
    7
 10
-10.6378266157665
 20
13.306892882423604
 11
-7.4086377446218989
 21
13.575991955018992
  0
LINE
  8
_0-0_
  6
CONTINUOUS
 62
    7
 10
-7.2068134401753667
 20
14.013277947986488
 11
-11.007837840585154
 21
13.710541491316683
  0
LINE
  8
_0-0_
  6
CONTINUOUS
 62
    7
 10
-11.007837840585154
 20
12.735057353158417
 11
-16.591643596939349
 21
-13.031178847849493
  0
LINE
  8
_0-0_
  6
CONTINUOUS
 62
    7
 10
-16.759830517311457
 20
-12.694805007105266
 11
-11.007837840585154
 21
13.575991955018992
  0
LINE
  8
_0-0_
  6
CONTINUOUS
 62
    7
 10
-16.827105285460306
 20
-13.165728384147187
 11
-13.093355653199367
 21
-13.535739608965837
  0
LINE
  8
_0-0_
  6
CONTINUOUS
 62
    7
 10
-17.567127735097614
 20
-14.006662986007758
 11
-13.429729493943597
 21
-14.511223747124099
  0
LINE
  8
_0-0_
  6
CONTINUOUS
 62
    7
 10
-17.432578198799916
 20
-14.612135899347368
 11
-12.92516873282726
 21
-15.2512461967614
  0
LINE
  8
_0-0_
  6
CONTINUOUS
 62
    7
 10
-11.848772442445721
 20
-13.939388217858912
 11
-5.726768540900764
 21
14.88784993392148
  0
LINE
  8
_0-0_
  6
CONTINUOUS
 62
    7
 10
-4.8521965549657722
 20
14.88784993392148
 11
0.0588615198999775
 21
15.392410695037825
  0
LINE
  8
_0-0_
  6
CONTINUOUS
 62
    7
 10
-4.482185330147118
 20
14.316014404656293
 11
0.0588615198999775
 21
14.786937781698214
  0
LINE
  8
_0-0_
  6
CONTINUOUS
 62
    7
 10
0.1261362880488121
 20
15.82969668800532
 11
-5.9958676134961451
 21
-14.410311594900833
  0
LINE
  8
_0-0_
  6
CONTINUOUS
 62
    7
 10
-6.1640545338682529
 20
-14.443948978975257
 11
-10.469639695394378
 21
-13.973025601933337
  0
LINE
  8
_0-0_
  6
CONTINUOUS
 62
    7
 10
-10.065991086501313
 20
-13.939388217858912
 11
-4.2467236416261613
 21
14.21510225243302
  0
LINE
  8
_0-0_
  6
CONTINUOUS
 62
    7
 10
-4.6503722505192258
 20
14.753300397623789
 11
-10.335090159096694
 21
-13.670289145263531
  0
LINE
  8
_0-0_
  6
CONTINUOUS
 62
    7
 10
-11.411486449478218
 20
-14.612135899347368
 11
-6.6686152949846047
 21
-15.217608812686983
  0
LINE
  8
_0-0_
  6
CONTINUOUS
 62
    7
 10
-11.24329952910611
 20
-15.453070501207943
 11
-5.558581620528642
 21
-16.26036771899409
  0
LINE
  8
_0-0_
  6
CONTINUOUS
 62
    7
 10
-5.3231199320076854
 20
-15.453070501207943
 11
1.4379942669513071
 21
16.098795760600701
  0
LINE
  8
_0-0_
  6
CONTINUOUS
 62
    7
 10
1.1352578102815016
 20
16.704268673940312
 11
1.5725438032490047
 21
16.367894833196083
  0
LINE
  8
_0-0_
  6
CONTINUOUS
 62
    7
 10
1.7407307236211125
 20
15.930608840228579
 11
-4.7176470186680746
 21
-15.015784508240451
  0
LINE
  8
_0-0_
  6
CONTINUOUS
 62
    7
 10
-4.2803610257005715
 20
-15.755806957877752
 11
1.5725438032490047
 21
-16.529466791589478
  0
LINE
  8
_0-0_
  6
CONTINUOUS
 62
    7
 10
-4.1121741053284637
 20
-16.428554639366212
 11
1.9425550280676589
 21
-17.235851857152358
  0
LINE
  8
_0-0_
  6
CONTINUOUS
 62
    7
 10
-3.4057890397655797
 20
-14.746685435645066
 11
1.7070933395466881
 21
-15.419433117133526
  0
LINE
  8
_0-0_
  6
CONTINUOUS
 62
    7
 10
-2.9348656627236664
 20
-14.679410667496221
 11
3.3216877751190026
 21
15.560597615409925
  0
LINE
  8
_0-0_
  6
CONTINUOUS
 62
    7
 10
2.8507643980770609
 20
15.997883608377428
 11
8.2663832340591483
 21
16.502444369493766
  0
LINE
  8
_0-0_
  6
CONTINUOUS
 62
    7
 10
3.3553251591934128
 20
15.459685463186659
 11
8.1991084659102995
 21
15.863334072079731
  0
LINE
  8
_0-0_
  6
CONTINUOUS
 62
    7
 10
2.9516765503003484
 20
15.997883608377428
 11
-3.1366899671701987
 21
-14.477586363049692
  0
LINE
  8
_0-0_
  6
CONTINUOUS
 62
    7
 10
8.3336580022079971
 20
16.771543442089154
 11
2.0771045643653423
 21
-15.957631262324298
  0
LINE
  8
_0-0_
  6
CONTINUOUS
 62
    7
 10
-4.4149105619982691
 20
15.930608840228587
 11
-0.1093254004721444
 21
16.468806985419349
  0
LINE
  8
_0-0_
  6
CONTINUOUS
 62
    7
 10
-3.7758002645842339
 20
16.166070528749543
 11
0.899796121760545
 21
16.73790605801473
  0
LINE
  8
_0-0_
  6
CONTINUOUS
 62
    7
 10
3.4898746954911104
 20
17.444291123577614
 11
9.1073178359197158
 21
18.251588341363764
  0
LINE
  8
_0-0_
  6
CONTINUOUS
 62
    7
 10
3.0525887025236074
 20
17.040642514684542
 11
7.9636467773893429
 21
17.747027580247419
  0
LINE
  8
_0-0_
  6
CONTINUOUS
 62
    7
 10
9.7464281333337652
 20
17.948851884693958
 11
10.318263662598937
 21
17.612478043949729
  0
LINE
  8
_0-0_
  6
CONTINUOUS
 62
    7
 10
9.7800655174081754
 20
17.780664964321844
 11
2.8507643980770609
 21
-16.529466791589485
  0
LINE
  8
_0-0_
  6
CONTINUOUS
 62
    7
 10
4.0280728406818724
 20
-16.93311540048256
 11
10.923736575938548
 21
-17.774050002343131
  0
LINE
  8
_0-0_
  6
CONTINUOUS
 62
    7
 10
11.529209489278159
 20
-18.715896756426972
 11
4.0953476088307212
 21
-17.774050002343131
  0
LINE
  8
_0-0_
  6
CONTINUOUS
 62
    7
 10
5.0708317469889863
 20
-15.823081726026608
 11
11.226473032608354
 21
-16.563104175663909
  0
LINE
  8
_0-0_
  6
CONTINUOUS
 62
    7
 10
3.4898746954911104
 20
-16.058543414547565
 11
10.284626278524527
 21
17.444291123577607
  0
LINE
  8
_0-0_
  6
CONTINUOUS
 62
    7
 10
11.495572105203749
 20
17.276104203205492
 11
5.1044691310633965
 21
-15.722169573803338
  0
LINE
  8
_0-0_
  6
CONTINUOUS
 62
    7
 10
5.2726560514355327
 20
-15.722169573803338
 11
11.899220714096813
 21
16.838818210237996
  0
LINE
  8
_0-0_
  6
CONTINUOUS
 62
    7
 10
11.966495482245662
 20
16.838818210237996
 11
17.752125543046404
 21
17.747027580247412
  0
LINE
  8
_0-0_
  6
CONTINUOUS
 62
    7
 10
11.596484257427008
 20
17.410653739503182
 11
17.853037695269663
 21
18.251588341363757
  0
LINE
  8
_0-0_
  6
CONTINUOUS
 62
    7
 10
11.630121641501447
 20
18.756149102480101
 11
18.862159217502366
 21
19.933457545084906
  0
LINE
  8
_0-0_
  6
CONTINUOUS
 62
    7
 10
14.590211440050652
 20
19.092522943224331
 11
17.550301238599857
 21
19.395259399894137
  0
LINE
  8
_0-0_
  6
CONTINUOUS
 62
    7
 10
18.458510608609274
 20
18.924336022852216
 11
11.39465995298049
 21
-16.798565864184869
  0
LINE
  8
_0-0_
  6
CONTINUOUS
 62
    7
 10
12.437418859287575
 20
-17.538588313822171
 11
19.703093819362934
 21
19.02524817507549
  0
LINE
  8
_0-0_
  6
CONTINUOUS
 62
    7
 10
20.342204116776955
 20
19.227072479522022
 11
13.110166540776035
 21
-17.807687386417555
  0
LINE
  8
_0-0_
  6
CONTINUOUS
 62
    7
 10
13.749276838190085
 20
-18.951358444947932
 11
22.225897624944636
 21
-20.397765960148114
  0
LINE
  8
_0-0_
  6
CONTINUOUS
 62
    7
 10
21.754974247902723
 20
-19.388644437915431
 11
13.513815149669128
 21
-18.379522915682742
  0
LINE
  8
_0-0_
  6
CONTINUOUS
 62
    7
 10
14.691123592273911
 20
-17.03402755270583
 11
21.956798552349269
 21
-18.110423843087361
  0
LINE
  8
_0-0_
  6
CONTINUOUS
 62
    7
 10
15.296596505613522
 20
-17.134939704929096
 11
22.427721929391183
 21
18.386137877661447
  0
LINE
  8
_0-0_
  6
CONTINUOUS
 62
    7
 10
22.024073320498118
 20
18.756149102480101
 11
14.926585280794868
 21
-16.93311540048256
  0
LINE
  8
_0-0_
  6
CONTINUOUS
 62
    7
 10
21.99043593642368
 20
-18.278610763459476
 11
29.390660432796736
 21
19.899820161010481
  0
LINE
  8
_0-0_
  6
CONTINUOUS
 62
    7
 10
29.357023048722297
 20
19.899820161010481
 11
22.124985472721377
 21
18.924336022852216
  0
LINE
  8
_0-0_
  6
CONTINUOUS
 62
    7
 10
22.461359313465621
 20
18.453412645810296
 11
29.08792397612693
 21
19.193435095447605
  0
LINE
  8
_0-0_
  6
CONTINUOUS
 62
    7
 10
21.822249016051572
 20
20.269831385829136
 11
29.188836128350189
 21
21.245315523987394
  0
LINE
  8
_0-0_
  6
CONTINUOUS
 62
    7
 10
22.225897624944665
 20
20.707117378796632
 11
30.063408114285167
 21
21.749876285103738
  0
LINE
  8
_0-0_
  6
CONTINUOUS
 62
    7
 10
30.736155795773627
 20
20.538930458424517
 11
30.351310075139494
 21
17.484652326805495
  0
LINE
  8
_0-0_
  6
CONTINUOUS
 62
    7
 10
22.158622856795816
 20
18.857061254703375
 11
22.394084545316773
 21
18.587962182107994
  0
LINE
  8
_0-0_
  6
CONTINUOUS
 62
    7
 10
11.630121641501447
 20
17.276104203205499
 11
11.899220714096842
 21
16.973367746535693
  0
LINE
  8
_0-0_
  6
CONTINUOUS
 62
    7
 10
19.669456435288524
 20
19.765270624712791
 11
20.073105044181588
 21
19.15979771137318
  0
LINE
  8
_0-0_
  6
CONTINUOUS
 62
    7
 10
30.837067947996914
 20
21.514414596582782
 11
30.803430563922475
 21
20.942579067317588
  0
ARC
  8
_0-0_
  6
CONTINUOUS
 62
    7
 10
3.1580289641415646
 20
15.585825653465683
 40
1.4586328353827622
 50
94.145358321217401
 51
166.32735829733039
  0
ARC
  8
_0-0_
  6
CONTINUOUS
 62
    7
 10
7.4952620708437081
 20
17.011447803978477
 40
0.8720446322188426
 50
344.03169266192015
 51
57.512816702171264
  0
ARC
  8
_0-0_
  6
CONTINUOUS
 62
    7
 10
9.0938628822899972
 20
17.397198785873492
 40
0.8544954934392801
 50
40.209869277634802
 51
89.097778838473161
  0
ARC
  8
_0-0_
  6
CONTINUOUS
 62
    7
 10
11.647251215092027
 20
17.392653697563169
 40
1.3636029999677279
 50
90.719768206917223
 51
177.82978319496414
  0
ARC
  8
_0-0_
  6
CONTINUOUS
 62
    7
 10
17.596073628321463
 20
18.372299713327202
 40
1.0239832186134412
 50
32.622855085609537
 51
92.561994038753255
  0
ARC
  8
_0-0_
  6
CONTINUOUS
 62
    7
 10
18.943295545022565
 20
19.165157514330119
 40
0.7725723531820647
 50
349.5664267370417
 51
96.028376939426522
  0
ARC
  8
_0-0_
  6
CONTINUOUS
 62
    7
 10
21.721336863828313
 20
18.841327639571766
 40
1.4320636213303077
 50
85.959232530825489
 51
164.37363954076022
  0
ARC
  8
_0-0_
  6
CONTINUOUS
 62
    7
 10
28.557779852475093
 20
20.462772578284181
 40
1.0052887571196698
 50
325.9448411143058
 51
51.116690105590948
  0
ARC
  8
_0-0_
  6
CONTINUOUS
 62
    7
 10
-0.3324533814990928
 20
16.023672269501176
 40
0.4979267127125333
 50
337.07246969715811
 51
63.377249165178085
  0
ARC
  8
_0-0_
  6
CONTINUOUS
 62
    7
 10
0.5789472275123017
 20
15.921552621439396
 40
0.8771413491271984
 50
11.657978921845329
 51
68.543836170579567
  0
ARC
  8
_0-0_
  6
CONTINUOUS
 62
    7
 10
-4.2793478514814325
 20
14.413481764534538
 40
1.5231716292941695
 50
95.106096891652811
 51
161.85429960503305
  0
ARC
  8
_0-0_
  6
CONTINUOUS
 62
    7
 10
-6.2776665147726618
 20
15.174454175780106
 40
0.3195553330456186
 50
350.79061531319235
 51
93.756762698995814
  0
ARC
  8
_0-0_
  6
CONTINUOUS
 62
    7
 10
-10.823618148364446
 20
13.427138671287722
 40
1.4349964760908096
 50
96.023459905477239
 51
154.41172603090763
  0
ARC
  8
_0-0_
  6
CONTINUOUS
 62
    7
 10
-13.283743247060585
 20
13.814817381947407
 40
0.7031143468770758
 50
340.14335334361135
 51
90.932002240336757
  0
ARC
  8
_0-0_
  6
CONTINUOUS
 62
    7
 10
-16.248542279379947
 20
12.523141833489355
 40
1.714361875262479
 50
119.63332966468982
 51
164.87305956076187
  0
ARC
  8
_0-0_
  6
CONTINUOUS
 62
    7
 10
-18.670343020889831
 20
12.904607951263273
 40
0.7030563660812406
 50
31.624490278137223
 51
107.26341928269557
  0
ARC
  8
_0-0_
  6
CONTINUOUS
 62
    7
 10
-21.774725734320015
 20
11.060500624236155
 40
2.1734003707545417
 50
107.0205256115194
 51
141.99652036381818
  0
ARC
  8
_0-0_
  6
CONTINUOUS
 62
    7
 10
-27.017703688006762
 20
-11.974659193511865
 40
1.3710113854456023
 50
169.26651479853714
 51
220.38644514217398
  0
ARC
  8
_0-0_
  6
CONTINUOUS
 62
    7
 10
-27.88013945866517
 20
-12.78415430855296
 40
0.3984052483254991
 50
151.47399393819012
 51
253.28627616572908
  0
ARC
  8
_0-0_
  6
CONTINUOUS
 62
    7
 10
-24.462791470354233
 20
-10.575649810417648
 40
2.5784760842215144
 50
262.50414236026586
 51
285.12400730831502
  0
ARC
  8
_0-0_
  6
CONTINUOUS
 62
    7
 10
-24.6814344668378
 20
-12.745261083217159
 40
0.946938664244043
 50
289.72227776443816
 51
340.27772223556235
  0
ARC
  8
_0-0_
  6
CONTINUOUS
 62
    7
 10
-22.822968996726146
 20
-12.736851737198286
 40
0.5832231590186597
 50
155.28255908891865
 51
227.3373058591223
  0
ARC
  8
_0-0_
  6
CONTINUOUS
 62
    7
 10
-22.910666462348757
 20
-13.319499282773133
 40
0.6025866433745508
 50
147.70402361405689
 51
256.62866803010689
  0
ARC
  8
_0-0_
  6
CONTINUOUS
 62
    7
 10
-19.255051667952131
 20
-12.629099983546546
 40
1.0739027875484233
 50
255.82156927287798
 51
336.06302170686365
  0
ARC
  8
_0-0_
  6
CONTINUOUS
 62
    7
 10
-19.570901757736806
 20
-13.198129099689467
 40
1.3042202370211469
 50
298.61609628307281
 51
5.86682251480525
  0
ARC
  8
_0-0_
  6
CONTINUOUS
 62
    7
 10
-17.003206884438143
 20
-13.610929055720426
 40
1.0893919723048144
 50
145.73266455665646
 51
246.78774485996706
  0
ARC
  8
_0-0_
  6
CONTINUOUS
 62
    7
 10
-16.648215561064333
 20
-13.139735860089637
 40
1.2633139852147661
 50
173.5372833844331
 51
223.33261426140959
  0
ARC
  8
_0-0_
  6
CONTINUOUS
 62
    7
 10
-16.646304346060276
 20
-12.951290060672743
 40
0.2804866739480943
 50
113.87528085392792
 51
229.86451443775917
  0
ARC
  8
_0-0_
  6
CONTINUOUS
 62
    7
 10
-12.845279945650432
 20
-14.593915649640476
 40
0.6621674006585343
 50
263.07053162736185
 51
355.50828209763847
  0
ARC
  8
_0-0_
  6
CONTINUOUS
 62
    7
 10
-13.40769120782582
 20
-13.731764364434092
 40
0.7797708736023006
 50
268.38046150907263
 51
344.55800727103093
  0
ARC
  8
_0-0_
  6
CONTINUOUS
 62
    7
 10
-10.941363962533316
 20
-14.454360550236391
 40
1.0433535606548887
 50
150.42422886274417
 51
253.1785901099592
  0
ARC
  8
_0-0_
  6
CONTINUOUS
 62
    7
 10
-11.119339539646788
 20
-13.943748619498269
 40
0.729445935479891
 50
179.65750155473162
 51
246.39023355686308
  0
ARC
  8
_0-0_
  6
CONTINUOUS
 62
    7
 10
-9.9538664729198985
 20
-13.479677302175162
 40
0.4822661982343557
 50
178.66778014612856
 51
252.40757543782033
  0
ARC
  8
_0-0_
  6
CONTINUOUS
 62
    7
 10
-6.176668552896146
 20
-14.128598503277569
 40
1.1949707322990963
 50
245.68952378885547
 51
323.00914029703779
  0
ARC
  8
_0-0_
  6
CONTINUOUS
 62
    7
 10
-8.6027648792636171
 20
-14.775896848130778
 40
3.386842995948292
 50
334.00420434725589
 51
356.50866997980103
  0
ARC
  8
_0-0_
  6
CONTINUOUS
 62
    7
 10
-3.2245209144754341
 20
-14.63269207850384
 40
1.5414880384689935
 50
194.39002061546478
 51
226.76843312951382
  0
ARC
  8
_0-0_
  6
CONTINUOUS
 62
    7
 10
-3.8842518304793714
 20
-15.53762792531229
 40
0.8387444479139694
 50
162.46210388151422
 51
244.39528173597719
  0
ARC
  8
_0-0_
  6
CONTINUOUS
 62
    7
 10
1.0770392609222199
 20
-15.583738800881925
 40
1.0676732570755076
 50
297.65183263006884
 51
339.50083611992551
  0
ARC
  8
_0-0_
  6
CONTINUOUS
 62
    7
 10
1.7575494156584739
 20
-16.060946084838783
 40
1.1893824660043786
 50
278.94855781583937
 51
336.80140948635716
  0
ARC
  8
_0-0_
  6
CONTINUOUS
 62
    7
 10
4.7963650067223824
 20
-15.857434799123755
 40
1.3218780611458991
 50
188.7508792263055
 51
234.4641252661915
  0
ARC
  8
_0-0_
  6
CONTINUOUS
 62
    7
 10
4.5450263222466702
 20
-16.672868271064662
 40
1.0911469757159591
 50
165.24224215692027
 51
251.35926937509382
  0
ARC
  8
_0-0_
  6
CONTINUOUS
 62
    7
 10
10.322323346883692
 20
-16.633278718301831
 40
1.2895956709664518
 50
297.79814348363743
 51
351.12650093241189
  0
ARC
  8
_0-0_
  6
CONTINUOUS
 62
    7
 10
11.101097328330994
 20
-17.403274291522798
 40
1.2851155217365235
 50
275.59867421248805
 51
350.92991660965532
  0
ARC
  8
_0-0_
  6
CONTINUOUS
 62
    7
 10
13.93428245059944
 20
-17.605863081971016
 40
0.8682420693046608
 50
171.08507304285223
 51
238.46520809481103
  0
ARC
  8
_0-0_
  6
CONTINUOUS
 62
    7
 10
14.348022274714523
 20
-18.049876551753552
 40
1.1106858442615191
 50
186.60846433831082
 51
228.68348638916729
  0
ARC
  8
_0-0_
  6
CONTINUOUS
 62
    7
 10
21.452237791232974
 20
-17.874962154566461
 40
1.4448421386427901
 50
282.0947570770104
 51
347.90524292298983
  0
ARC
  8
_0-0_
  6
CONTINUOUS
 62
    7
 10
22.471709277796222
 20
-18.341141797956844
 40
2.0237875228702582
 50
271.61182001652327
 51
319.41592083854562
  0
LINE
  8
_0-0_
  6
CONTINUOUS
 62
    7
 10
22.932282690507563
 20
-17.807687386417555
 11
30.668881027624806
 21
20.068007081382596
  0
ARC
  8
_0-0_
  6
CONTINUOUS
 62
    7
 10
25.803231054575988
 20
16.65420420524385
 40
1.4972565505780506
 50
82.697813710875337
 51
145.35519944648337
  0
ARC
  8
_0-0_
  6
CONTINUOUS
 62
    7
 10
25.798213366826857
 20
16.967381350359979
 40
1.3395470033824857
 50
156.32026712234159
 51
229.66896646149269
  0
ARC
  8
_0-0_
  6
CONTINUOUS
 62
    7
 10
25.345040816676615
 20
17.210285800668139
 40
1.3300674479984713
 50
251.87437507963716
 51
299.18070522367594
  0
ARC
  8
_0-0_
  6
CONTINUOUS
 62
    7
 10
26.142026963158756
 20
16.017610568466772
 40
0.1517769377661424
 50
94.316027519885949
 51
168.05582281153374
  0
ARC
  8
_0-0_
  6
CONTINUOUS
 62
    7
 10
25.686225450526919
 20
17.094215320993762
 40
0.5493678074372356
 50
93.690468061901555
 51
180.00475247008822
  0
ARC
  8
_0-0_
  6
CONTINUOUS
 62
    7
 10
25.772905054207698
 20
16.952019219120068
 40
0.6517385066623508
 50
167.40196526053833
 51
249.8189540713899
  0
ARC
  8
_0-0_
  6
CONTINUOUS
 62
    7
 10
25.367382013405077
 20
17.142455262596236
 40
0.8222593215772906
 50
282.69361944138331
 51
307.99873244251046
  0
ARC
  8
_0-0_
  6
CONTINUOUS
 62
    7
 10
23.525348726813135
 20
15.128023045642742
 40
1.4972565505780506
 50
82.697813710875337
 51
145.35519944648337
  0
ARC
  8
_0-0_
  6
CONTINUOUS
 62
    7
 10
23.520331039064004
 20
15.44120019075887
 40
1.3395470033824857
 50
156.32026712234159
 51
229.66896646149269
  0
ARC
  8
_0-0_
  6
CONTINUOUS
 62
    7
 10
23.067158488913762
 20
15.68410464106703
 40
1.3300674479984713
 50
251.87437507963716
 51
299.18070522367594
  0
ARC
  8
_0-0_
  6
CONTINUOUS
 62
    7
 10
23.864144635395903
 20
14.491429408865663
 40
0.1517769377661424
 50
94.316027519885949
 51
168.05582281153374
  0
ARC
  8
_0-0_
  6
CONTINUOUS
 62
    7
 10
23.408343122764066
 20
15.568034161392653
 40
0.5493678074372356
 50
93.690468061901555
 51
180.00475247008822
  0
ARC
  8
_0-0_
  6
CONTINUOUS
 62
    7
 10
23.495022726444844
 20
15.425838059518959
 40
0.6517385066623508
 50
167.40196526053833
 51
249.8189540713899
  0
ARC
  8
_0-0_
  6
CONTINUOUS
 62
    7
 10
23.089499685642224
 20
15.616274102995128
 40
0.8222593215772906
 50
282.69361944138331
 51
307.99873244251046
  0
ARC
  8
_0-0_
  6
CONTINUOUS
 62
    7
 10
25.279318119190535
 20
13.556284239486367
 40
1.4972565505780506
 50
82.697813710875337
 51
145.35519944648337
  0
ARC
  8
_0-0_
  6
CONTINUOUS
 62
    7
 10
25.274300431441404
 20
13.869461384602495
 40
1.3395470033824857
 50
156.32026712234159
 51
229.66896646149269
  0
ARC
  8
_0-0_
  6
CONTINUOUS
 62
    7
 10
24.821127881291162
 20
14.112365834910655
 40
1.3300674479984713
 50
251.87437507963716
 51
299.18070522367594
  0
ARC
  8
_0-0_
  6
CONTINUOUS
 62
    7
 10
25.618114027773302
 20
12.919690602709288
 40
0.1517769377661424
 50
94.316027519885949
 51
168.05582281153374
  0
ARC
  8
_0-0_
  6
CONTINUOUS
 62
    7
 10
25.162312515141465
 20
13.996295355236278
 40
0.5493678074372356
 50
93.690468061901555
 51
180.00475247008822
  0
ARC
  8
_0-0_
  6
CONTINUOUS
 62
    7
 10
25.248992118822244
 20
13.854099253362584
 40
0.6517385066623508
 50
167.40196526053833
 51
249.8189540713899
  0
ARC
  8
_0-0_
  6
CONTINUOUS
 62
    7
 10
24.843469078019623
 20
14.044535296838752
 40
0.8222593215772906
 50
282.69361944138331
 51
307.99873244251046
  0
ARC
  8
_0-0_
  6
CONTINUOUS
 62
    7
 10
27.830546326284932
 20
15.651935981028195
 40
1.4972565505780506
 50
82.697813710875337
 51
145.35519944648337
  0
ARC
  8
_0-0_
  6
CONTINUOUS
 62
    7
 10
27.8255286385358
 20
15.965113126144324
 40
1.3395470033824857
 50
156.32026712234159
 51
229.66896646149269
  0
ARC
  8
_0-0_
  6
CONTINUOUS
 62
    7
 10
27.372356088385558
 20
16.208017576452484
 40
1.3300674479984713
 50
251.87437507963716
 51
299.18070522367594
  0
ARC
  8
_0-0_
  6
CONTINUOUS
 62
    7
 10
28.169342234867699
 20
15.015342344251117
 40
0.1517769377661424
 50
94.316027519885949
 51
168.05582281153374
  0
ARC
  8
_0-0_
  6
CONTINUOUS
 62
    7
 10
27.713540722235862
 20
16.091947096778107
 40
0.5493678074372356
 50
93.690468061901555
 51
180.00475247008822
  0
ARC
  8
_0-0_
  6
CONTINUOUS
 62
    7
 10
27.800220325916641
 20
15.949750994904413
 40
0.6517385066623508
 50
167.40196526053833
 51
249.8189540713899
  0
ARC
  8
_0-0_
  6
CONTINUOUS
 62
    7
 10
27.39469728511402
 20
16.140187038380581
 40
0.8222593215772906
 50
282.69361944138331
 51
307.99873244251046
  0
ARC
  8
_0-0_
  6
CONTINUOUS
 62
    7
 10
27.192739274511339
 20
12.280670135939168
 40
1.4972565505780506
 50
82.697813710875337
 51
145.35519944648337
  0
ARC
  8
_0-0_
  6
CONTINUOUS
 62
    7
 10
27.187721586762208
 20
12.593847281055297
 40
1.3395470033824857
 50
156.32026712234159
 51
229.66896646149269
  0
ARC
  8
_0-0_
  6
CONTINUOUS
 62
    7
 10
26.734549036611966
 20
12.836751731363456
 40
1.3300674479984713
 50
251.87437507963716
 51
299.18070522367594
  0
ARC
  8
_0-0_
  6
CONTINUOUS
 62
    7
 10
27.531535183094107
 20
11.64407649916209
 40
0.1517769377661424
 50
94.316027519885949
 51
168.05582281153374
  0
ARC
  8
_0-0_
  6
CONTINUOUS
 62
    7
 10
27.07573367046227
 20
12.720681251689079
 40
0.5493678074372356
 50
93.690468061901555
 51
180.00475247008822
  0
ARC
  8
_0-0_
  6
CONTINUOUS
 62
    7
 10
27.162413274143049
 20
12.578485149815386
 40
0.6517385066623508
 50
167.40196526053833
 51
249.8189540713899
  0
ARC
  8
_0-0_
  6
CONTINUOUS
 62
    7
 10
26.756890233340428
 20
12.768921193291554
 40
0.8222593215772906
 50
282.69361944138331
 51
307.99873244251046
  0
ARC
  8
_0-0_
  6
CONTINUOUS
 62
    7
 10
22.659753442263238
 20
11.870651316941853
 40
1.4972565505780506
 50
82.697813710875337
 51
145.35519944648337
  0
ARC
  8
_0-0_
  6
CONTINUOUS
 62
    7
 10
22.654735754514107
 20
12.183828462057981
 40
1.3395470033824857
 50
156.32026712234159
 51
229.66896646149269
  0
ARC
  8
_0-0_
  6
CONTINUOUS
 62
    7
 10
22.201563204363865
 20
12.426732912366141
 40
1.3300674479984713
 50
251.87437507963716
 51
299.18070522367594
  0
ARC
  8
_0-0_
  6
CONTINUOUS
 62
    7
 10
22.998549350846005
 20
11.234057680164774
 40
0.1517769377661424
 50
94.316027519885949
 51
168.05582281153374
  0
ARC
  8
_0-0_
  6
CONTINUOUS
 62
    7
 10
22.542747838214169
 20
12.310662432691764
 40
0.5493678074372356
 50
93.690468061901555
 51
180.00475247008822
  0
ARC
  8
_0-0_
  6
CONTINUOUS
 62
    7
 10
22.629427441894947
 20
12.16846633081807
 40
0.6517385066623508
 50
167.40196526053833
 51
249.8189540713899
  0
ARC
  8
_0-0_
  6
CONTINUOUS
 62
    7
 10
22.223904401092327
 20
12.358902374294239
 40
0.8222593215772906
 50
282.69361944138331
 51
307.99873244251046
  0
ARC
  8
_0-0_
  6
CONTINUOUS
 62
    7
 10
22.113061683600151
 20
8.4082701787423133
 40
1.4972565505780506
 50
82.697813710875337
 51
145.35519944648337
  0
ARC
  8
_0-0_
  6
CONTINUOUS
 62
    7
 10
22.10804399585102
 20
8.7214473238584418
 40
1.3395470033824857
 50
156.32026712234159
 51
229.66896646149269
  0
ARC
  8
_0-0_
  6
CONTINUOUS
 62
    7
 10
21.654871445700778
 20
8.9643517741666017
 40
1.3300674479984713
 50
251.87437507963716
 51
299.18070522367594
  0
ARC
  8
_0-0_
  6
CONTINUOUS
 62
    7
 10
22.451857592182918
 20
7.7716765419652347
 40
0.1517769377661424
 50
94.316027519885949
 51
168.05582281153374
  0
ARC
  8
_0-0_
  6
CONTINUOUS
 62
    7
 10
21.996056079551082
 20
8.8482812944922244
 40
0.5493678074372356
 50
93.690468061901555
 51
180.00475247008822
  0
ARC
  8
_0-0_
  6
CONTINUOUS
 62
    7
 10
22.08273568323186
 20
8.7060851926185308
 40
0.6517385066623508
 50
167.40196526053833
 51
249.8189540713899
  0
ARC
  8
_0-0_
  6
CONTINUOUS
 62
    7
 10
21.67721264242924
 20
8.8965212360946992
 40
0.8222593215772906
 50
282.69361944138331
 51
307.99873244251046
  0
ARC
  8
_0-0_
  6
CONTINUOUS
 62
    7
 10
24.163155778586727
 20
8.157703122688396
 40
1.4972565505780506
 50
82.697813710875337
 51
145.35519944648337
  0
ARC
  8
_0-0_
  6
CONTINUOUS
 62
    7
 10
24.158138090837596
 20
8.4708802678045245
 40
1.3395470033824857
 50
156.32026712234159
 51
229.66896646149269
  0
ARC
  8
_0-0_
  6
CONTINUOUS
 62
    7
 10
23.704965540687354
 20
8.7137847181126844
 40
1.3300674479984713
 50
251.87437507963716
 51
299.18070522367594
  0
ARC
  8
_0-0_
  6
CONTINUOUS
 62
    7
 10
24.501951687169495
 20
7.5211094859113174
 40
0.1517769377661424
 50
94.316027519885949
 51
168.05582281153374
  0
ARC
  8
_0-0_
  6
CONTINUOUS
 62
    7
 10
24.046150174537658
 20
8.5977142384383072
 40
0.5493678074372356
 50
93.690468061901555
 51
180.00475247008822
  0
ARC
  8
_0-0_
  6
CONTINUOUS
 62
    7
 10
24.132829778218436
 20
8.4555181365646135
 40
0.6517385066623508
 50
167.40196526053833
 51
249.8189540713899
  0
ARC
  8
_0-0_
  6
CONTINUOUS
 62
    7
 10
23.727306737415816
 20
8.645954180040782
 40
0.8222593215772906
 50
282.69361944138331
 51
307.99873244251046
  0
ARC
  8
_0-0_
  6
CONTINUOUS
 62
    7
 10
26.600489869292986
 20
8.8638466442948882
 40
1.4972565505780506
 50
82.697813710875337
 51
145.35519944648337
  0
ARC
  8
_0-0_
  6
CONTINUOUS
 62
    7
 10
26.595472181543855
 20
9.1770237894110167
 40
1.3395470033824857
 50
156.32026712234159
 51
229.66896646149269
  0
ARC
  8
_0-0_
  6
CONTINUOUS
 62
    7
 10
26.142299631393612
 20
9.4199282397191766
 40
1.3300674479984713
 50
251.87437507963716
 51
299.18070522367594
  0
ARC
  8
_0-0_
  6
CONTINUOUS
 62
    7
 10
26.939285777875753
 20
8.2272530075178096
 40
0.1517769377661424
 50
94.316027519885949
 51
168.05582281153374
  0
ARC
  8
_0-0_
  6
CONTINUOUS
 62
    7
 10
26.483484265243916
 20
9.3038577600447994
 40
0.5493678074372356
 50
93.690468061901555
 51
180.00475247008822
  0
ARC
  8
_0-0_
  6
CONTINUOUS
 62
    7
 10
26.570163868924695
 20
9.1616616581711057
 40
0.6517385066623508
 50
167.40196526053833
 51
249.8189540713899
  0
ARC
  8
_0-0_
  6
CONTINUOUS
 62
    7
 10
26.164640828122074
 20
9.3520977016472742
 40
0.8222593215772906
 50
282.69361944138331
 51
307.99873244251046
  0
ARC
  8
_0-0_
  6
CONTINUOUS
 62
    7
 10
25.780452231298355
 20
5.5381384457611134
 40
1.4972565505780506
 50
82.697813710875337
 51
145.35519944648337
  0
ARC
  8
_0-0_
  6
CONTINUOUS
 62
    7
 10
25.775434543549224
 20
5.8513155908772418
 40
1.3395470033824857
 50
156.32026712234159
 51
229.66896646149269
  0
ARC
  8
_0-0_
  6
CONTINUOUS
 62
    7
 10
25.322261993398982
 20
6.0942200411854017
 40
1.3300674479984713
 50
251.87437507963716
 51
299.18070522367594
  0
ARC
  8
_0-0_
  6
CONTINUOUS
 62
    7
 10
26.119248139881122
 20
4.9015448089840348
 40
0.1517769377661424
 50
94.316027519885949
 51
168.05582281153374
  0
ARC
  8
_0-0_
  6
CONTINUOUS
 62
    7
 10
25.663446627249286
 20
5.9781495615110245
 40
0.5493678074372356
 50
93.690468061901555
 51
180.00475247008822
  0
ARC
  8
_0-0_
  6
CONTINUOUS
 62
    7
 10
25.750126230930064
 20
5.8359534596373308
 40
0.6517385066623508
 50
167.40196526053833
 51
249.8189540713899
  0
ARC
  8
_0-0_
  6
CONTINUOUS
 62
    7
 10
25.344603190127444
 20
6.0263895031134993
 40
0.8222593215772906
 50
282.69361944138331
 51
307.99873244251046
  0
ARC
  8
_0-0_
  6
CONTINUOUS
 62
    7
 10
23.684800489756512
 20
5.5609172690387467
 40
1.4972565505780506
 50
82.697813710875337
 51
145.35519944648337
  0
ARC
  8
_0-0_
  6
CONTINUOUS
 62
    7
 10
23.679782802007381
 20
5.8740944141548752
 40
1.3395470033824857
 50
156.32026712234159
 51
229.66896646149269
  0
ARC
  8
_0-0_
  6
CONTINUOUS
 62
    7
 10
23.226610251857139
 20
6.1169988644630351
 40
1.3300674479984713
 50
251.87437507963716
 51
299.18070522367594
  0
ARC
  8
_0-0_
  6
CONTINUOUS
 62
    7
 10
24.023596398339279
 20
4.9243236322616681
 40
0.1517769377661424
 50
94.316027519885949
 51
168.05582281153374
  0
ARC
  8
_0-0_
  6
CONTINUOUS
 62
    7
 10
23.567794885707443
 20
6.0009283847886579
 40
0.5493678074372356
 50
93.690468061901555
 51
180.00475247008822
  0
ARC
  8
_0-0_
  6
CONTINUOUS
 62
    7
 10
23.654474489388221
 20
5.8587322829149642
 40
0.6517385066623508
 50
167.40196526053833
 51
249.8189540713899
  0
ARC
  8
_0-0_
  6
CONTINUOUS
 62
    7
 10
23.248951448585601
 20
6.0491683263911327
 40
0.8222593215772906
 50
282.69361944138331
 51
307.99873244251046
  0
ARC
  8
_0-0_
  6
CONTINUOUS
 62
    7
 10
21.406918161993659
 20
5.2420137431519436
 40
1.4972565505780506
 50
82.697813710875337
 51
145.35519944648337
  0
ARC
  8
_0-0_
  6
CONTINUOUS
 62
    7
 10
21.401900474244528
 20
5.5551908882680721
 40
1.3395470033824857
 50
156.32026712234159
 51
229.66896646149269
  0
ARC
  8
_0-0_
  6
CONTINUOUS
 62
    7
 10
20.948727924094285
 20
5.7980953385762319
 40
1.3300674479984713
 50
251.87437507963716
 51
299.18070522367594
  0
ARC
  8
_0-0_
  6
CONTINUOUS
 62
    7
 10
21.745714070576426
 20
4.605420106374865
 40
0.1517769377661424
 50
94.316027519885949
 51
168.05582281153374
  0
ARC
  8
_0-0_
  6
CONTINUOUS
 62
    7
 10
21.289912557944589
 20
5.6820248589018547
 40
0.5493678074372356
 50
93.690468061901555
 51
180.00475247008822
  0
ARC
  8
_0-0_
  6
CONTINUOUS
 62
    7
 10
21.376592161625368
 20
5.539828757028161
 40
0.6517385066623508
 50
167.40196526053833
 51
249.8189540713899
  0
ARC
  8
_0-0_
  6
CONTINUOUS
 62
    7
 10
20.971069120822747
 20
5.7302648005043295
 40
0.8222593215772906
 50
282.69361944138331
 51
307.99873244251046
  0
ARC
  8
_0-0_
  6
CONTINUOUS
 62
    7
 10
20.860226403330572
 20
1.7796326049524041
 40
1.4972565505780506
 50
82.697813710875337
 51
145.35519944648337
  0
ARC
  8
_0-0_
  6
CONTINUOUS
 62
    7
 10
20.855208715581441
 20
2.0928097500685325
 40
1.3395470033824857
 50
156.32026712234159
 51
229.66896646149269
  0
ARC
  8
_0-0_
  6
CONTINUOUS
 62
    7
 10
20.402036165431198
 20
2.3357142003766924
 40
1.3300674479984713
 50
251.87437507963716
 51
299.18070522367594
  0
ARC
  8
_0-0_
  6
CONTINUOUS
 62
    7
 10
21.199022311913339
 20
1.1430389681753255
 40
0.1517769377661424
 50
94.316027519885949
 51
168.05582281153374
  0
ARC
  8
_0-0_
  6
CONTINUOUS
 62
    7
 10
20.743220799281502
 20
2.2196437207023152
 40
0.5493678074372356
 50
93.690468061901555
 51
180.00475247008822
  0
ARC
  8
_0-0_
  6
CONTINUOUS
 62
    7
 10
20.829900402962281
 20
2.0774476188286215
 40
0.6517385066623508
 50
167.40196526053833
 51
249.8189540713899
  0
ARC
  8
_0-0_
  6
CONTINUOUS
 62
    7
 10
20.42437736215966
 20
2.26788366230479
 40
0.8222593215772906
 50
282.69361944138331
 51
307.99873244251046
  0
ARC
  8
_0-0_
  6
CONTINUOUS
 62
    7
 10
25.005972239858963
 20
2.007420837728688
 40
1.4972565505780506
 50
82.697813710875337
 51
145.35519944648337
  0
ARC
  8
_0-0_
  6
CONTINUOUS
 62
    7
 10
25.000954552109832
 20
2.3205979828448164
 40
1.3395470033824857
 50
156.32026712234159
 51
229.66896646149269
  0
ARC
  8
_0-0_
  6
CONTINUOUS
 62
    7
 10
24.54778200195959
 20
2.5635024331529763
 40
1.3300674479984713
 50
251.87437507963716
 51
299.18070522367594
  0
ARC
  8
_0-0_
  6
CONTINUOUS
 62
    7
 10
25.34476814844173
 20
1.3708272009516094
 40
0.1517769377661424
 50
94.316027519885949
 51
168.05582281153374
  0
ARC
  8
_0-0_
  6
CONTINUOUS
 62
    7
 10
24.888966635809894
 20
2.4474319534785991
 40
0.5493678074372356
 50
93.690468061901555
 51
180.00475247008822
  0
ARC
  8
_0-0_
  6
CONTINUOUS
 62
    7
 10
24.975646239490672
 20
2.3052358516049054
 40
0.6517385066623508
 50
167.40196526053833
 51
249.8189540713899
  0
ARC
  8
_0-0_
  6
CONTINUOUS
 62
    7
 10
24.570123198688052
 20
2.4956718950810739
 40
0.8222593215772906
 50
282.69361944138331
 51
307.99873244251046
  0
ARC
  8
_0-0_
  6
CONTINUOUS
 62
    7
 10
24.094819308753827
 20
-1.4094026539155919
 40
1.4972565505780506
 50
82.697813710875337
 51
145.35519944648337
  0
ARC
  8
_0-0_
  6
CONTINUOUS
 62
    7
 10
24.089801621004696
 20
-1.0962255087994635
 40
1.3395470033824857
 50
156.32026712234159
 51
229.66896646149269
  0
ARC
  8
_0-0_
  6
CONTINUOUS
 62
    7
 10
23.636629070854454
 20
-0.8533210584913035
 40
1.3300674479984713
 50
251.87437507963716
 51
299.18070522367594
  0
ARC
  8
_0-0_
  6
CONTINUOUS
 62
    7
 10
24.433615217336595
 20
-2.0459962906926705
 40
0.1517769377661424
 50
94.316027519885949
 51
168.05582281153374
  0
ARC
  8
_0-0_
  6
CONTINUOUS
 62
    7
 10
23.977813704704758
 20
-0.9693915381656808
 40
0.5493678074372356
 50
93.690468061901555
 51
180.00475247008822
  0
ARC
  8
_0-0_
  6
CONTINUOUS
 62
    7
 10
24.064493308385536
 20
-1.1115876400393745
 40
0.6517385066623508
 50
167.40196526053833
 51
249.8189540713899
  0
ARC
  8
_0-0_
  6
CONTINUOUS
 62
    7
 10
23.658970267582916
 20
-0.921151596563206
 40
0.8222593215772906
 50
282.69361944138331
 51
307.99873244251046
  0
ARC
  8
_0-0_
  6
CONTINUOUS
 62
    7
 10
20.176861705001713
 20
-1.1360567745840484
 40
1.4972565505780506
 50
82.697813710875337
 51
145.35519944648337
  0
ARC
  8
_0-0_
  6
CONTINUOUS
 62
    7
 10
20.171844017252582
 20
-0.8228796294679199
 40
1.3395470033824857
 50
156.32026712234159
 51
229.66896646149269
  0
ARC
  8
_0-0_
  6
CONTINUOUS
 62
    7
 10
19.71867146710234
 20
-0.57997517915976
 40
1.3300674479984713
 50
251.87437507963716
 51
299.18070522367594
  0
ARC
  8
_0-0_
  6
CONTINUOUS
 62
    7
 10
20.51565761358448
 20
-1.772650411361127
 40
0.1517769377661424
 50
94.316027519885949
 51
168.05582281153374
  0
ARC
  8
_0-0_
  6
CONTINUOUS
 62
    7
 10
20.059856100952643
 20
-0.6960456588341372
 40
0.5493678074372356
 50
93.690468061901555
 51
180.00475247008822
  0
ARC
  8
_0-0_
  6
CONTINUOUS
 62
    7
 10
20.146535704633422
 20
-0.8382417607078309
 40
0.6517385066623508
 50
167.40196526053833
 51
249.8189540713899
  0
ARC
  8
_0-0_
  6
CONTINUOUS
 62
    7
 10
19.741012663830801
 20
-0.6478057172316624
 40
0.8222593215772906
 50
282.69361944138331
 51
307.99873244251046
  0
ARC
  8
_0-0_
  6
CONTINUOUS
 62
    7
 10
19.493497006672854
 20
-4.8262261455598789
 40
1.4972565505780506
 50
82.697813710875337
 51
145.35519944648337
  0
ARC
  8
_0-0_
  6
CONTINUOUS
 62
    7
 10
19.488479318923723
 20
-4.5130490004437505
 40
1.3395470033824857
 50
156.32026712234159
 51
229.66896646149269
  0
ARC
  8
_0-0_
  6
CONTINUOUS
 62
    7
 10
19.035306768773481
 20
-4.2701445501355906
 40
1.3300674479984713
 50
251.87437507963716
 51
299.18070522367594
  0
ARC
  8
_0-0_
  6
CONTINUOUS
 62
    7
 10
19.832292915255621
 20
-5.4628197823369575
 40
0.1517769377661424
 50
94.316027519885949
 51
168.05582281153374
  0
ARC
  8
_0-0_
  6
CONTINUOUS
 62
    7
 10
19.376491402623785
 20
-4.3862150298099678
 40
0.5493678074372356
 50
93.690468061901555
 51
180.00475247008822
  0
ARC
  8
_0-0_
  6
CONTINUOUS
 62
    7
 10
19.463171006304563
 20
-4.5284111316836615
 40
0.6517385066623508
 50
167.40196526053833
 51
249.8189540713899
  0
ARC
  8
_0-0_
  6
CONTINUOUS
 62
    7
 10
19.057647965501943
 20
-4.337975088207493
 40
0.8222593215772906
 50
282.69361944138331
 51
307.99873244251046
  0
ARC
  8
_0-0_
  6
CONTINUOUS
 62
    7
 10
21.634706394769935
 20
-4.9628990852256507
 40
1.4972565505780506
 50
82.697813710875337
 51
145.35519944648337
  0
ARC
  8
_0-0_
  6
CONTINUOUS
 62
    7
 10
21.629688707020804
 20
-4.6497219401095222
 40
1.3395470033824857
 50
156.32026712234159
 51
229.66896646149269
  0
ARC
  8
_0-0_
  6
CONTINUOUS
 62
    7
 10
21.176516156870562
 20
-4.4068174898013623
 40
1.3300674479984713
 50
251.87437507963716
 51
299.18070522367594
  0
ARC
  8
_0-0_
  6
CONTINUOUS
 62
    7
 10
21.973502303352703
 20
-5.5994927220027293
 40
0.1517769377661424
 50
94.316027519885949
 51
168.05582281153374
  0
ARC
  8
_0-0_
  6
CONTINUOUS
 62
    7
 10
21.517700790720866
 20
-4.5228879694757396
 40
0.5493678074372356
 50
93.690468061901555
 51
180.00475247008822
  0
ARC
  8
_0-0_
  6
CONTINUOUS
 62
    7
 10
21.604380394401645
 20
-4.6650840713494333
 40
0.6517385066623508
 50
167.40196526053833
 51
249.8189540713899
  0
ARC
  8
_0-0_
  6
CONTINUOUS
 62
    7
 10
21.198857353599024
 20
-4.4746480278732648
 40
0.8222593215772906
 50
282.69361944138331
 51
307.99873244251046
  0
ARC
  8
_0-0_
  6
CONTINUOUS
 62
    7
 10
23.86703107597755
 20
-5.0084567317809032
 40
1.4972565505780506
 50
82.697813710875337
 51
145.35519944648337
  0
ARC
  8
_0-0_
  6
CONTINUOUS
 62
    7
 10
23.862013388228419
 20
-4.6952795866647747
 40
1.3395470033824857
 50
156.32026712234159
 51
229.66896646149269
  0
ARC
  8
_0-0_
  6
CONTINUOUS
 62
    7
 10
23.408840838078177
 20
-4.4523751363566149
 40
1.3300674479984713
 50
251.87437507963716
 51
299.18070522367594
  0
ARC
  8
_0-0_
  6
CONTINUOUS
 62
    7
 10
24.205826984560318
 20
-5.6450503685579818
 40
0.1517769377661424
 50
94.316027519885949
 51
168.05582281153374
  0
ARC
  8
_0-0_
  6
CONTINUOUS
 62
    7
 10
23.750025471928481
 20
-4.5684456160309921
 40
0.5493678074372356
 50
93.690468061901555
 51
180.00475247008822
  0
ARC
  8
_0-0_
  6
CONTINUOUS
 62
    7
 10
23.83670507560926
 20
-4.7106417179046858
 40
0.6517385066623508
 50
167.40196526053833
 51
249.8189540713899
  0
ARC
  8
_0-0_
  6
CONTINUOUS
 62
    7
 10
23.431182034806639
 20
-4.5202056744285173
 40
0.8222593215772906
 50
282.69361944138331
 51
307.99873244251046
  0
ARC
  8
_0-0_
  6
CONTINUOUS
 62
    7
 10
23.001435791427653
 20
-8.1063766975383871
 40
1.4972565505780506
 50
82.697813710875337
 51
145.35519944648337
  0
ARC
  8
_0-0_
  6
CONTINUOUS
 62
    7
 10
22.996418103678522
 20
-7.7931995524222586
 40
1.3395470033824857
 50
156.32026712234159
 51
229.66896646149269
  0
ARC
  8
_0-0_
  6
CONTINUOUS
 62
    7
 10
22.54324555352828
 20
-7.5502951021140987
 40
1.3300674479984713
 50
251.87437507963716
 51
299.18070522367594
  0
ARC
  8
_0-0_
  6
CONTINUOUS
 62
    7
 10
23.34023170001042
 20
-8.7429703343154657
 40
0.1517769377661424
 50
94.316027519885949
 51
168.05582281153374
  0
ARC
  8
_0-0_
  6
CONTINUOUS
 62
    7
 10
22.884430187378584
 20
-7.6663655817884759
 40
0.5493678074372356
 50
93.690468061901555
 51
180.00475247008822
  0
ARC
  8
_0-0_
  6
CONTINUOUS
 62
    7
 10
22.971109791059362
 20
-7.8085616836621696
 40
0.6517385066623508
 50
167.40196526053833
 51
249.8189540713899
  0
ARC
  8
_0-0_
  6
CONTINUOUS
 62
    7
 10
22.565586750256742
 20
-7.6181256401860011
 40
0.8222593215772906
 50
282.69361944138331
 51
307.99873244251046
  0
ARC
  8
_0-0_
  6
CONTINUOUS
 62
    7
 10
21.088014636106848
 20
-7.6508002319858193
 40
1.4972565505780506
 50
82.697813710875337
 51
145.35519944648337
  0
ARC
  8
_0-0_
  6
CONTINUOUS
 62
    7
 10
21.082996948357717
 20
-7.3376230868696908
 40
1.3395470033824857
 50
156.32026712234159
 51
229.66896646149269
  0
ARC
  8
_0-0_
  6
CONTINUOUS
 62
    7
 10
20.629824398207475
 20
-7.0947186365615309
 40
1.3300674479984713
 50
251.87437507963716
 51
299.18070522367594
  0
ARC
  8
_0-0_
  6
CONTINUOUS
 62
    7
 10
21.426810544689616
 20
-8.2873938687628979
 40
0.1517769377661424
 50
94.316027519885949
 51
168.05582281153374
  0
ARC
  8
_0-0_
  6
CONTINUOUS
 62
    7
 10
20.971009032057779
 20
-7.2107891162359081
 40
0.5493678074372356
 50
93.690468061901555
 51
180.00475247008822
  0
ARC
  8
_0-0_
  6
CONTINUOUS
 62
    7
 10
21.057688635738558
 20
-7.3529852181096018
 40
0.6517385066623508
 50
167.40196526053833
 51
249.8189540713899
  0
ARC
  8
_0-0_
  6
CONTINUOUS
 62
    7
 10
20.652165594935937
 20
-7.1625491746334333
 40
0.8222593215772906
 50
282.69361944138331
 51
307.99873244251046
  0
ARC
  8
_0-0_
  6
CONTINUOUS
 62
    7
 10
18.582344075567718
 20
-8.0608190509831346
 40
1.4972565505780506
 50
82.697813710875337
 51
145.35519944648337
  0
ARC
  8
_0-0_
  6
CONTINUOUS
 62
    7
 10
18.577326387818587
 20
-7.7476419058670061
 40
1.3395470033824857
 50
156.32026712234159
 51
229.66896646149269
  0
ARC
  8
_0-0_
  6
CONTINUOUS
 62
    7
 10
18.124153837668345
 20
-7.5047374555588462
 40
1.3300674479984713
 50
251.87437507963716
 51
299.18070522367594
  0
ARC
  8
_0-0_
  6
CONTINUOUS
 62
    7
 10
18.921139984150486
 20
-8.6974126877602131
 40
0.1517769377661424
 50
94.316027519885949
 51
168.05582281153374
  0
ARC
  8
_0-0_
  6
CONTINUOUS
 62
    7
 10
18.465338471518649
 20
-7.6208079352332234
 40
0.5493678074372356
 50
93.690468061901555
 51
180.00475247008822
  0
ARC
  8
_0-0_
  6
CONTINUOUS
 62
    7
 10
18.552018075199427
 20
-7.7630040371069171
 40
0.6517385066623508
 50
167.40196526053833
 51
249.8189540713899
  0
ARC
  8
_0-0_
  6
CONTINUOUS
 62
    7
 10
18.146495034396807
 20
-7.5725679936307486
 40
0.8222593215772906
 50
282.69361944138331
 51
307.99873244251046
  0
ARC
  8
_0-0_
  6
CONTINUOUS
 62
    7
 10
18.172325256570403
 20
-11.386527249516902
 40
1.4972565505780506
 50
82.697813710875337
 51
145.35519944648337
  0
ARC
  8
_0-0_
  6
CONTINUOUS
 62
    7
 10
18.167307568821272
 20
-11.073350104400774
 40
1.3395470033824857
 50
156.32026712234159
 51
229.66896646149269
  0
ARC
  8
_0-0_
  6
CONTINUOUS
 62
    7
 10
17.71413501867103
 20
-10.830445654092614
 40
1.3300674479984713
 50
251.87437507963716
 51
299.18070522367594
  0
ARC
  8
_0-0_
  6
CONTINUOUS
 62
    7
 10
18.51112116515317
 20
-12.023120886293981
 40
0.1517769377661424
 50
94.316027519885949
 51
168.05582281153374
  0
ARC
  8
_0-0_
  6
CONTINUOUS
 62
    7
 10
18.055319652521334
 20
-10.946516133766991
 40
0.5493678074372356
 50
93.690468061901555
 51
180.00475247008822
  0
ARC
  8
_0-0_
  6
CONTINUOUS
 62
    7
 10
18.141999256202112
 20
-11.088712235640685
 40
0.6517385066623508
 50
167.40196526053833
 51
249.8189540713899
  0
ARC
  8
_0-0_
  6
CONTINUOUS
 62
    7
 10
17.736476215399492
 20
-10.898276192164516
 40
0.8222593215772906
 50
282.69361944138331
 51
307.99873244251046
  0
ARC
  8
_0-0_
  6
CONTINUOUS
 62
    7
 10
19.949073472225436
 20
-13.026602525506156
 40
1.4972565505780506
 50
82.697813710875337
 51
145.35519944648337
  0
ARC
  8
_0-0_
  6
CONTINUOUS
 62
    7
 10
19.944055784476305
 20
-12.713425380390028
 40
1.3395470033824857
 50
156.32026712234159
 51
229.66896646149269
  0
ARC
  8
_0-0_
  6
CONTINUOUS
 62
    7
 10
19.490883234326063
 20
-12.470520930081868
 40
1.3300674479984713
 50
251.87437507963716
 51
299.18070522367594
  0
ARC
  8
_0-0_
  6
CONTINUOUS
 62
    7
 10
20.287869380808203
 20
-13.663196162283235
 40
0.1517769377661424
 50
94.316027519885949
 51
168.05582281153374
  0
ARC
  8
_0-0_
  6
CONTINUOUS
 62
    7
 10
19.832067868176367
 20
-12.586591409756245
 40
0.5493678074372356
 50
93.690468061901555
 51
180.00475247008822
  0
ARC
  8
_0-0_
  6
CONTINUOUS
 62
    7
 10
19.918747471857145
 20
-12.728787511629939
 40
0.6517385066623508
 50
167.40196526053833
 51
249.8189540713899
  0
ARC
  8
_0-0_
  6
CONTINUOUS
 62
    7
 10
19.513224431054525
 20
-12.53835146815377
 40
0.8222593215772906
 50
282.69361944138331
 51
307.99873244251046
  0
ARC
  8
_0-0_
  6
CONTINUOUS
 62
    7
 10
22.135840506877784
 20
-11.659873128848446
 40
1.4972565505780506
 50
82.697813710875337
 51
145.35519944648337
  0
ARC
  8
_0-0_
  6
CONTINUOUS
 62
    7
 10
22.130822819128653
 20
-11.346695983732317
 40
1.3395470033824857
 50
156.32026712234159
 51
229.66896646149269
  0
ARC
  8
_0-0_
  6
CONTINUOUS
 62
    7
 10
21.677650268978411
 20
-11.103791533424157
 40
1.3300674479984713
 50
251.87437507963716
 51
299.18070522367594
  0
ARC
  8
_0-0_
  6
CONTINUOUS
 62
    7
 10
22.474636415460552
 20
-12.296466765625524
 40
0.1517769377661424
 50
94.316027519885949
 51
168.05582281153374
  0
ARC
  8
_0-0_
  6
CONTINUOUS
 62
    7
 10
22.018834902828715
 20
-11.219862013098535
 40
0.5493678074372356
 50
93.690468061901555
 51
180.00475247008822
  0
ARC
  8
_0-0_
  6
CONTINUOUS
 62
    7
 10
22.105514506509493
 20
-11.362058114972228
 40
0.6517385066623508
 50
167.40196526053833
 51
249.8189540713899
  0
ARC
  8
_0-0_
  6
CONTINUOUS
 62
    7
 10
21.699991465706873
 20
-11.17162207149606
 40
0.8222593215772906
 50
282.69361944138331
 51
307.99873244251046
  0
ARC
  8
_0-0_
  6
CONTINUOUS
 62
    7
 10
17.534518204796811
 20
-14.803350741161189
 40
1.4972565505780506
 50
82.697813710875337
 51
145.35519944648337
  0
ARC
  8
_0-0_
  6
CONTINUOUS
 62
    7
 10
17.52950051704768
 20
-14.490173596045061
 40
1.3395470033824857
 50
156.32026712234159
 51
229.66896646149269
  0
ARC
  8
_0-0_
  6
CONTINUOUS
 62
    7
 10
17.076327966897438
 20
-14.247269145736901
 40
1.3300674479984713
 50
251.87437507963716
 51
299.18070522367594
  0
ARC
  8
_0-0_
  6
CONTINUOUS
 62
    7
 10
17.873314113379578
 20
-15.439944377938268
 40
0.1517769377661424
 50
94.316027519885949
 51
168.05582281153374
  0
ARC
  8
_0-0_
  6
CONTINUOUS
 62
    7
 10
17.417512600747742
 20
-14.363339625411278
 40
0.5493678074372356
 50
93.690468061901555
 51
180.00475247008822
  0
ARC
  8
_0-0_
  6
CONTINUOUS
 62
    7
 10
17.50419220442852
 20
-14.505535727284972
 40
0.6517385066623508
 50
167.40196526053833
 51
249.8189540713899
  0
ARC
  8
_0-0_
  6
CONTINUOUS
 62
    7
 10
17.0986691636259
 20
-14.315099683808803
 40
0.8222593215772906
 50
282.69361944138331
 51
307.99873244251046
  0
ARC
  8
_0-0_
  6
CONTINUOUS
 62
    7
 10
19.356824067007082
 20
-16.261195430929419
 40
1.4972565505780506
 50
82.697813710875337
 51
145.35519944648337
  0
ARC
  8
_0-0_
  6
CONTINUOUS
 62
    7
 10
19.351806379257951
 20
-15.948018285813291
 40
1.3395470033824857
 50
156.32026712234159
 51
229.66896646149269
  0
ARC
  8
_0-0_
  6
CONTINUOUS
 62
    7
 10
18.898633829107709
 20
-15.705113835505131
 40
1.3300674479984713
 50
251.87437507963716
 51
299.18070522367594
  0
ARC
  8
_0-0_
  6
CONTINUOUS
 62
    7
 10
19.69561997558985
 20
-16.897789067706498
 40
0.1517769377661424
 50
94.316027519885949
 51
168.05582281153374
  0
ARC
  8
_0-0_
  6
CONTINUOUS
 62
    7
 10
19.239818462958013
 20
-15.821184315179508
 40
0.5493678074372356
 50
93.690468061901555
 51
180.00475247008822
  0
ARC
  8
_0-0_
  6
CONTINUOUS
 62
    7
 10
19.326498066638791
 20
-15.963380417053202
 40
0.6517385066623508
 50
167.40196526053833
 51
249.8189540713899
  0
ARC
  8
_0-0_
  6
CONTINUOUS
 62
    7
 10
18.920975025836171
 20
-15.772944373577033
 40
0.8222593215772906
 50
282.69361944138331
 51
307.99873244251046
  0
ARC
  8
_0-0_
  6
CONTINUOUS
 62
    7
 10
21.725821687880469
 20
-15.167811913603252
 40
1.4972565505780506
 50
82.697813710875337
 51
145.35519944648337
  0
ARC
  8
_0-0_
  6
CONTINUOUS
 62
    7
 10
21.720804000131338
 20
-14.854634768487124
 40
1.3395470033824857
 50
156.32026712234159
 51
229.66896646149269
  0
ARC
  8
_0-0_
  6
CONTINUOUS
 62
    7
 10
21.267631449981096
 20
-14.611730318178964
 40
1.3300674479984713
 50
251.87437507963716
 51
299.18070522367594
  0
ARC
  8
_0-0_
  6
CONTINUOUS
 62
    7
 10
22.064617596463236
 20
-15.804405550380331
 40
0.1517769377661424
 50
94.316027519885949
 51
168.05582281153374
  0
ARC
  8
_0-0_
  6
CONTINUOUS
 62
    7
 10
21.6088160838314
 20
-14.727800797853341
 40
0.5493678074372356
 50
93.690468061901555
 51
180.00475247008822
  0
ARC
  8
_0-0_
  6
CONTINUOUS
 62
    7
 10
21.695495687512178
 20
-14.869996899727035
 40
0.6517385066623508
 50
167.40196526053833
 51
249.8189540713899
  0
ARC
  8
_0-0_
  6
CONTINUOUS
 62
    7
 10
21.289972646709558
 20
-14.679560856250866
 40
0.8222593215772906
 50
282.69361944138331
 51
307.99873244251046
  0
ARC
  8
_0-0_
  6
CONTINUOUS
 62
    7
 10
11.156447687060805
 20
-14.256658982498102
 40
1.4972565505780506
 50
82.697813710875337
 51
145.35519944648337
  0
ARC
  8
_0-0_
  6
CONTINUOUS
 62
    7
 10
11.151429999311674
 20
-13.943481837381974
 40
1.3395470033824857
 50
156.32026712234159
 51
229.66896646149269
  0
ARC
  8
_0-0_
  6
CONTINUOUS
 62
    7
 10
10.698257449161432
 20
-13.700577387073814
 40
1.3300674479984713
 50
251.87437507963716
 51
299.18070522367594
  0
ARC
  8
_0-0_
  6
CONTINUOUS
 62
    7
 10
11.495243595643572
 20
-14.893252619275181
 40
0.1517769377661424
 50
94.316027519885949
 51
168.05582281153374
  0
ARC
  8
_0-0_
  6
CONTINUOUS
 62
    7
 10
11.039442083011735
 20
-13.816647866748191
 40
0.5493678074372356
 50
93.690468061901555
 51
180.00475247008822
  0
ARC
  8
_0-0_
  6
CONTINUOUS
 62
    7
 10
11.126121686692514
 20
-13.958843968621885
 40
0.6517385066623508
 50
167.40196526053833
 51
249.8189540713899
  0
ARC
  8
_0-0_
  6
CONTINUOUS
 62
    7
 10
10.720598645889893
 20
-13.768407925145716
 40
0.8222593215772906
 50
282.69361944138331
 51
307.99873244251046
  0
ARC
  8
_0-0_
  6
CONTINUOUS
 62
    7
 10
9.1974688851847617
 20
-14.940023680826961
 40
1.4972565505780506
 50
82.697813710875337
 51
145.35519944648337
  0
ARC
  8
_0-0_
  6
CONTINUOUS
 62
    7
 10
9.1924511974356307
 20
-14.626846535710833
 40
1.3395470033824857
 50
156.32026712234159
 51
229.66896646149269
  0
ARC
  8
_0-0_
  6
CONTINUOUS
 62
    7
 10
8.7392786472853885
 20
-14.383942085402673
 40
1.3300674479984713
 50
251.87437507963716
 51
299.18070522367594
  0
ARC
  8
_0-0_
  6
CONTINUOUS
 62
    7
 10
9.5362647937675291
 20
-15.57661731760404
 40
0.1517769377661424
 50
94.316027519885949
 51
168.05582281153374
  0
ARC
  8
_0-0_
  6
CONTINUOUS
 62
    7
 10
9.0804632811356925
 20
-14.50001256507705
 40
0.5493678074372356
 50
93.690468061901555
 51
180.00475247008822
  0
ARC
  8
_0-0_
  6
CONTINUOUS
 62
    7
 10
9.1671428848164709
 20
-14.642208666950744
 40
0.6517385066623508
 50
167.40196526053833
 51
249.8189540713899
  0
ARC
  8
_0-0_
  6
CONTINUOUS
 62
    7
 10
8.7616198440138504
 20
-14.451772623474575
 40
0.8222593215772906
 50
282.69361944138331
 51
307.99873244251046
  0
ARC
  8
_0-0_
  6
CONTINUOUS
 62
    7
 10
7.6029512557507388
 20
-13.573294284169243
 40
1.4972565505780506
 50
82.697813710875337
 51
145.35519944648337
  0
ARC
  8
_0-0_
  6
CONTINUOUS
 62
    7
 10
7.5979335680016078
 20
-13.260117139053115
 40
1.3395470033824857
 50
156.32026712234159
 51
229.66896646149269
  0
ARC
  8
_0-0_
  6
CONTINUOUS
 62
    7
 10
7.1447610178513656
 20
-13.017212688744955
 40
1.3300674479984713
 50
251.87437507963716
 51
299.18070522367594
  0
ARC
  8
_0-0_
  6
CONTINUOUS
 62
    7
 10
7.9417471643335062
 20
-14.209887920946322
 40
0.1517769377661424
 50
94.316027519885949
 51
168.05582281153374
  0
ARC
  8
_0-0_
  6
CONTINUOUS
 62
    7
 10
7.4859456517016696
 20
-13.133283168419332
 40
0.5493678074372356
 50
93.690468061901555
 51
180.00475247008822
  0
ARC
  8
_0-0_
  6
CONTINUOUS
 62
    7
 10
7.572625255382448
 20
-13.275479270293026
 40
0.6517385066623508
 50
167.40196526053833
 51
249.8189540713899
  0
ARC
  8
_0-0_
  6
CONTINUOUS
 62
    7
 10
7.1671022145798275
 20
-13.085043226816857
 40
0.8222593215772906
 50
282.69361944138331
 51
307.99873244251046
  0
ARC
  8
_0-0_
  6
CONTINUOUS
 62
    7
 10
7.6029512557507388
 20
-10.247586085635483
 40
1.4972565505780506
 50
82.697813710875337
 51
145.35519944648337
  0
ARC
  8
_0-0_
  6
CONTINUOUS
 62
    7
 10
7.5979335680016078
 20
-9.9344089405193543
 40
1.3395470033824857
 50
156.32026712234159
 51
229.66896646149269
  0
ARC
  8
_0-0_
  6
CONTINUOUS
 62
    7
 10
7.1447610178513656
 20
-9.6915044902111944
 40
1.3300674479984713
 50
251.87437507963716
 51
299.18070522367594
  0
ARC
  8
_0-0_
  6
CONTINUOUS
 62
    7
 10
7.9417471643335062
 20
-10.884179722412561
 40
0.1517769377661424
 50
94.316027519885949
 51
168.05582281153374
  0
ARC
  8
_0-0_
  6
CONTINUOUS
 62
    7
 10
7.4859456517016696
 20
-9.8075749698855716
 40
0.5493678074372356
 50
93.690468061901555
 51
180.00475247008822
  0
ARC
  8
_0-0_
  6
CONTINUOUS
 62
    7
 10
7.572625255382448
 20
-9.9497710717592653
 40
0.6517385066623508
 50
167.40196526053833
 51
249.8189540713899
  0
ARC
  8
_0-0_
  6
CONTINUOUS
 62
    7
 10
7.1671022145798275
 20
-9.7593350282830968
 40
0.8222593215772906
 50
282.69361944138331
 51
307.99873244251046
  0
ARC
  8
_0-0_
  6
CONTINUOUS
 62
    7
 10
9.3341418248505335
 20
-11.978776654735249
 40
1.4972565505780506
 50
82.697813710875337
 51
145.35519944648337
  0
ARC
  8
_0-0_
  6
CONTINUOUS
 62
    7
 10
9.3291241371014024
 20
-11.665599509619121
 40
1.3395470033824857
 50
156.32026712234159
 51
229.66896646149269
  0
ARC
  8
_0-0_
  6
CONTINUOUS
 62
    7
 10
8.8759515869511603
 20
-11.422695059310961
 40
1.3300674479984713
 50
251.87437507963716
 51
299.18070522367594
  0
ARC
  8
_0-0_
  6
CONTINUOUS
 62
    7
 10
9.6729377334333009
 20
-12.615370291512328
 40
0.1517769377661424
 50
94.316027519885949
 51
168.05582281153374
  0
ARC
  8
_0-0_
  6
CONTINUOUS
 62
    7
 10
9.2171362208014642
 20
-11.538765538985338
 40
0.5493678074372356
 50
93.690468061901555
 51
180.00475247008822
  0
ARC
  8
_0-0_
  6
CONTINUOUS
 62
    7
 10
9.3038158244822426
 20
-11.680961640859032
 40
0.6517385066623508
 50
167.40196526053833
 51
249.8189540713899
  0
ARC
  8
_0-0_
  6
CONTINUOUS
 62
    7
 10
8.8982927836796222
 20
-11.490525597382863
 40
0.8222593215772906
 50
282.69361944138331
 51
307.99873244251046
  0
ARC
  8
_0-0_
  6
CONTINUOUS
 62
    7
 10
11.657581799168625
 20
-10.976508430519594
 40
1.4972565505780506
 50
82.697813710875337
 51
145.35519944648337
  0
ARC
  8
_0-0_
  6
CONTINUOUS
 62
    7
 10
11.652564111419494
 20
-10.663331285403466
 40
1.3395470033824857
 50
156.32026712234159
 51
229.66896646149269
  0
ARC
  8
_0-0_
  6
CONTINUOUS
 62
    7
 10
11.199391561269252
 20
-10.420426835095306
 40
1.3300674479984713
 50
251.87437507963716
 51
299.18070522367594
  0
ARC
  8
_0-0_
  6
CONTINUOUS
 62
    7
 10
11.996377707751392
 20
-11.613102067296673
 40
0.1517769377661424
 50
94.316027519885949
 51
168.05582281153374
  0
ARC
  8
_0-0_
  6
CONTINUOUS
 62
    7
 10
11.540576195119556
 20
-10.536497314769683
 40
0.5493678074372356
 50
93.690468061901555
 51
180.00475247008822
  0
ARC
  8
_0-0_
  6
CONTINUOUS
 62
    7
 10
11.627255798800334
 20
-10.678693416643377
 40
0.6517385066623508
 50
167.40196526053833
 51
249.8189540713899
  0
ARC
  8
_0-0_
  6
CONTINUOUS
 62
    7
 10
11.221732757997714
 20
-10.488257373167208
 40
0.8222593215772906
 50
282.69361944138331
 51
307.99873244251046
  0
ARC
  8
_0-0_
  6
CONTINUOUS
 62
    7
 10
12.340946497497484
 20
-7.6508002319858193
 40
1.4972565505780506
 50
82.697813710875337
 51
145.35519944648337
  0
ARC
  8
_0-0_
  6
CONTINUOUS
 62
    7
 10
12.335928809748353
 20
-7.3376230868696908
 40
1.3395470033824857
 50
156.32026712234159
 51
229.66896646149269
  0
ARC
  8
_0-0_
  6
CONTINUOUS
 62
    7
 10
11.882756259598111
 20
-7.0947186365615309
 40
1.3300674479984713
 50
251.87437507963716
 51
299.18070522367594
  0
ARC
  8
_0-0_
  6
CONTINUOUS
 62
    7
 10
12.679742406080251
 20
-8.2873938687628979
 40
0.1517769377661424
 50
94.316027519885949
 51
168.05582281153374
  0
ARC
  8
_0-0_
  6
CONTINUOUS
 62
    7
 10
12.223940893448415
 20
-7.2107891162359081
 40
0.5493678074372356
 50
93.690468061901555
 51
180.00475247008822
  0
ARC
  8
_0-0_
  6
CONTINUOUS
 62
    7
 10
12.310620497129193
 20
-7.3529852181096018
 40
0.6517385066623508
 50
167.40196526053833
 51
249.8189540713899
  0
ARC
  8
_0-0_
  6
CONTINUOUS
 62
    7
 10
11.905097456326573
 20
-7.1625491746334333
 40
0.8222593215772906
 50
282.69361944138331
 51
307.99873244251046
  0
ARC
  8
_0-0_
  6
CONTINUOUS
 62
    7
 10
10.746428868063489
 20
-7.4230119992095354
 40
1.4972565505780506
 50
82.697813710875337
 51
145.35519944648337
  0
ARC
  8
_0-0_
  6
CONTINUOUS
 62
    7
 10
10.741411180314358
 20
-7.1098348540934069
 40
1.3395470033824857
 50
156.32026712234159
 51
229.66896646149269
  0
ARC
  8
_0-0_
  6
CONTINUOUS
 62
    7
 10
10.288238630164116
 20
-6.866930403785247
 40
1.3300674479984713
 50
251.87437507963716
 51
299.18070522367594
  0
ARC
  8
_0-0_
  6
CONTINUOUS
 62
    7
 10
11.085224776646257
 20
-8.0596056359866139
 40
0.1517769377661424
 50
94.316027519885949
 51
168.05582281153374
  0
ARC
  8
_0-0_
  6
CONTINUOUS
 62
    7
 10
10.62942326401442
 20
-6.9830008834596242
 40
0.5493678074372356
 50
93.690468061901555
 51
180.00475247008822
  0
ARC
  8
_0-0_
  6
CONTINUOUS
 62
    7
 10
10.716102867695199
 20
-7.1251969853333179
 40
0.6517385066623508
 50
167.40196526053833
 51
249.8189540713899
  0
ARC
  8
_0-0_
  6
CONTINUOUS
 62
    7
 10
10.310579826892578
 20
-6.9347609418571494
 40
0.8222593215772906
 50
282.69361944138331
 51
307.99873244251046
  0
ARC
  8
_0-0_
  6
CONTINUOUS
 62
    7
 10
8.8330077127426847
 20
-7.2407814129885111
 40
1.4972565505780506
 50
82.697813710875337
 51
145.35519944648337
  0
ARC
  8
_0-0_
  6
CONTINUOUS
 62
    7
 10
8.8279900249935537
 20
-6.9276042678723826
 40
1.3395470033824857
 50
156.32026712234159
 51
229.66896646149269
  0
ARC
  8
_0-0_
  6
CONTINUOUS
 62
    7
 10
8.3748174748433115
 20
-6.6846998175642227
 40
1.3300674479984713
 50
251.87437507963716
 51
299.18070522367594
  0
ARC
  8
_0-0_
  6
CONTINUOUS
 62
    7
 10
9.1718036213254521
 20
-7.8773750497655897
 40
0.1517769377661424
 50
94.316027519885949
 51
168.05582281153374
  0
ARC
  8
_0-0_
  6
CONTINUOUS
 62
    7
 10
8.7160021086936155
 20
-6.8007702972385999
 40
0.5493678074372356
 50
93.690468061901555
 51
180.00475247008822
  0
ARC
  8
_0-0_
  6
CONTINUOUS
 62
    7
 10
8.8026817123743939
 20
-6.9429663991122936
 40
0.6517385066623508
 50
167.40196526053833
 51
249.8189540713899
  0
ARC
  8
_0-0_
  6
CONTINUOUS
 62
    7
 10
8.3971586715717734
 20
-6.7525303556361251
 40
0.8222593215772906
 50
282.69361944138331
 51
307.99873244251046
  0
ARC
  8
_0-0_
  6
CONTINUOUS
 62
    7
 10
8.9241230058532182
 20
-4.4617649731178233
 40
1.4972565505780506
 50
82.697813710875337
 51
145.35519944648337
  0
ARC
  8
_0-0_
  6
CONTINUOUS
 62
    7
 10
8.9191053181040871
 20
-4.1485878280016948
 40
1.3395470033824857
 50
156.32026712234159
 51
229.66896646149269
  0
ARC
  8
_0-0_
  6
CONTINUOUS
 62
    7
 10
8.465932767953845
 20
-3.9056833776935349
 40
1.3300674479984713
 50
251.87437507963716
 51
299.18070522367594
  0
ARC
  8
_0-0_
  6
CONTINUOUS
 62
    7
 10
9.2629189144359856
 20
-5.0983586098949019
 40
0.1517769377661424
 50
94.316027519885949
 51
168.05582281153374
  0
ARC
  8
_0-0_
  6
CONTINUOUS
 62
    7
 10
8.8071174018041489
 20
-4.0217538573679121
 40
0.5493678074372356
 50
93.690468061901555
 51
180.00475247008822
  0
ARC
  8
_0-0_
  6
CONTINUOUS
 62
    7
 10
8.8937970054849274
 20
-4.1639499592416058
 40
0.6517385066623508
 50
167.40196526053833
 51
249.8189540713899
  0
ARC
  8
_0-0_
  6
CONTINUOUS
 62
    7
 10
8.4882739646823069
 20
-3.9735139157654373
 40
0.8222593215772906
 50
282.69361944138331
 51
307.99873244251046
  0
ARC
  8
_0-0_
  6
CONTINUOUS
 62
    7
 10
10.746428868063489
 20
-4.598437912783595
 40
1.4972565505780506
 50
82.697813710875337
 51
145.35519944648337
  0
ARC
  8
_0-0_
  6
CONTINUOUS
 62
    7
 10
10.741411180314358
 20
-4.2852607676674666
 40
1.3395470033824857
 50
156.32026712234159
 51
229.66896646149269
  0
ARC
  8
_0-0_
  6
CONTINUOUS
 62
    7
 10
10.288238630164116
 20
-4.0423563173593067
 40
1.3300674479984713
 50
251.87437507963716
 51
299.18070522367594
  0
ARC
  8
_0-0_
  6
CONTINUOUS
 62
    7
 10
11.085224776646257
 20
-5.2350315495606736
 40
0.1517769377661424
 50
94.316027519885949
 51
168.05582281153374
  0
ARC
  8
_0-0_
  6
CONTINUOUS
 62
    7
 10
10.62942326401442
 20
-4.1584267970336839
 40
0.5493678074372356
 50
93.690468061901555
 51
180.00475247008822
  0
ARC
  8
_0-0_
  6
CONTINUOUS
 62
    7
 10
10.716102867695199
 20
-4.3006228989073776
 40
0.6517385066623508
 50
167.40196526053833
 51
249.8189540713899
  0
ARC
  8
_0-0_
  6
CONTINUOUS
 62
    7
 10
10.310579826892578
 20
-4.1101868554312091
 40
0.8222593215772906
 50
282.69361944138331
 51
307.99873244251046
  0
ARC
  8
_0-0_
  6
CONTINUOUS
 62
    7
 10
12.705407669939561
 20
-4.5073226196730829
 40
1.4972565505780506
 50
82.697813710875337
 51
145.35519944648337
  0
ARC
  8
_0-0_
  6
CONTINUOUS
 62
    7
 10
12.70038998219043
 20
-4.1941454745569544
 40
1.3395470033824857
 50
156.32026712234159
 51
229.66896646149269
  0
ARC
  8
_0-0_
  6
CONTINUOUS
 62
    7
 10
12.247217432040188
 20
-3.9512410242487945
 40
1.3300674479984713
 50
251.87437507963716
 51
299.18070522367594
  0
ARC
  8
_0-0_
  6
CONTINUOUS
 62
    7
 10
13.044203578522328
 20
-5.1439162564501615
 40
0.1517769377661424
 50
94.316027519885949
 51
168.05582281153374
  0
ARC
  8
_0-0_
  6
CONTINUOUS
 62
    7
 10
12.588402065890492
 20
-4.0673115039231718
 40
0.5493678074372356
 50
93.690468061901555
 51
180.00475247008822
  0
ARC
  8
_0-0_
  6
CONTINUOUS
 62
    7
 10
12.67508166957127
 20
-4.2095076057968654
 40
0.6517385066623508
 50
167.40196526053833
 51
249.8189540713899
  0
ARC
  8
_0-0_
  6
CONTINUOUS
 62
    7
 10
12.26955862876865
 20
-4.019071562320697
 40
0.8222593215772906
 50
282.69361944138331
 51
307.99873244251046
  0
ARC
  8
_0-0_
  6
CONTINUOUS
 62
    7
 10
9.6884945306832577
 20
-1.2518905386678014
 40
1.3475308955202456
 50
82.697813710875337
 51
145.35519944648337
  0
ARC
  8
_0-0_
  6
CONTINUOUS
 62
    7
 10
9.683978611709037
 20
-0.9700311080632886
 40
1.205592303044237
 50
156.32026712234159
 51
229.66896646149269
  0
ARC
  8
_0-0_
  6
CONTINUOUS
 62
    7
 10
9.2761233165738162
 20
-0.7514171027859433
 40
1.1970607031986242
 50
251.87437507963716
 51
299.18070522367594
  0
ARC
  8
_0-0_
  6
CONTINUOUS
 62
    7
 10
9.99341084840772
 20
-1.824824811767165
 40
0.1365992439895282
 50
94.316027519885949
 51
168.05582281153374
  0
ARC
  8
_0-0_
  6
CONTINUOUS
 62
    7
 10
9.5831894870390641
 20
-0.8558805344928757
 40
0.4944310266935121
 50
93.690468061901555
 51
180.00475247008822
  0
ARC
  8
_0-0_
  6
CONTINUOUS
 62
    7
 10
9.6612011303517846
 20
-0.9838570261792014
 40
0.5865646559961158
 50
167.40196526053833
 51
249.8189540713899
  0
ARC
  8
_0-0_
  6
CONTINUOUS
 62
    7
 10
9.2962303936294148
 20
-0.8124645870506483
 40
0.7400333894195616
 50
282.69361944138331
 51
307.99873244251046
  0
ARC
  8
_0-0_
  6
CONTINUOUS
 62
    7
 10
13.241990961993324
 20
-1.2063328921125418
 40
1.3475308955202456
 50
82.697813710875337
 51
145.35519944648337
  0
ARC
  8
_0-0_
  6
CONTINUOUS
 62
    7
 10
13.237475043019103
 20
-0.924473461508029
 40
1.205592303044237
 50
156.32026712234159
 51
229.66896646149269
  0
ARC
  8
_0-0_
  6
CONTINUOUS
 62
    7
 10
12.829619747883882
 20
-0.7058594562306836
 40
1.1970607031986242
 50
251.87437507963716
 51
299.18070522367594
  0
ARC
  8
_0-0_
  6
CONTINUOUS
 62
    7
 10
13.546907279717786
 20
-1.7792671652119054
 40
0.1365992439895282
 50
94.316027519885949
 51
168.05582281153374
  0
ARC
  8
_0-0_
  6
CONTINUOUS
 62
    7
 10
13.13668591834913
 20
-0.810322887937616
 40
0.4944310266935121
 50
93.690468061901555
 51
180.00475247008822
  0
ARC
  8
_0-0_
  6
CONTINUOUS
 62
    7
 10
13.214697561661851
 20
-0.9382993796239418
 40
0.5865646559961158
 50
167.40196526053833
 51
249.8189540713899
  0
ARC
  8
_0-0_
  6
CONTINUOUS
 62
    7
 10
12.849726824939481
 20
-0.7669069404953887
 40
0.7400333894195616
 50
282.69361944138331
 51
307.99873244251046
  0
ARC
  8
_0-0_
  6
CONTINUOUS
 62
    7
 10
10.280743935901612
 20
1.7093564874239107
 40
1.3475308955202456
 50
82.697813710875337
 51
145.35519944648337
  0
ARC
  8
_0-0_
  6
CONTINUOUS
 62
    7
 10
10.276228016927391
 20
1.9912159180284235
 40
1.205592303044237
 50
156.32026712234159
 51
229.66896646149269
  0
ARC
  8
_0-0_
  6
CONTINUOUS
 62
    7
 10
9.86837272179217
 20
2.2098299233057688
 40
1.1970607031986242
 50
251.87437507963716
 51
299.18070522367594
  0
ARC
  8
_0-0_
  6
CONTINUOUS
 62
    7
 10
10.585660253626074
 20
1.136422214324547
 40
0.1365992439895282
 50
94.316027519885949
 51
168.05582281153374
  0
ARC
  8
_0-0_
  6
CONTINUOUS
 62
    7
 10
10.175438892257418
 20
2.1053664915988364
 40
0.4944310266935121
 50
93.690468061901555
 51
180.00475247008822
  0
ARC
  8
_0-0_
  6
CONTINUOUS
 62
    7
 10
10.253450535570138
 20
1.9773899999125106
 40
0.5865646559961158
 50
167.40196526053833
 51
249.8189540713899
  0
ARC
  8
_0-0_
  6
CONTINUOUS
 62
    7
 10
9.8884797988477686
 20
2.1487824390410637
 40
0.7400333894195616
 50
282.69361944138331
 51
307.99873244251046
  0
ARC
  8
_0-0_
  6
CONTINUOUS
 62
    7
 10
14.107586246543164
 20
1.7093564874239107
 40
1.3475308955202456
 50
82.697813710875337
 51
145.35519944648337
  0
ARC
  8
_0-0_
  6
CONTINUOUS
 62
    7
 10
14.103070327568943
 20
1.9912159180284235
 40
1.205592303044237
 50
156.32026712234159
 51
229.66896646149269
  0
ARC
  8
_0-0_
  6
CONTINUOUS
 62
    7
 10
13.695215032433723
 20
2.2098299233057688
 40
1.1970607031986242
 50
251.87437507963716
 51
299.18070522367594
  0
ARC
  8
_0-0_
  6
CONTINUOUS
 62
    7
 10
14.412502564267683
 20
1.136422214324547
 40
0.1365992439895282
 50
94.316027519885949
 51
168.05582281153374
  0
ARC
  8
_0-0_
  6
CONTINUOUS
 62
    7
 10
14.002281202899027
 20
2.1053664915988364
 40
0.4944310266935121
 50
93.690468061901555
 51
180.00475247008822
  0
ARC
  8
_0-0_
  6
CONTINUOUS
 62
    7
 10
14.080292846211691
 20
1.9773899999125106
 40
0.5865646559961158
 50
167.40196526053833
 51
249.8189540713899
  0
ARC
  8
_0-0_
  6
CONTINUOUS
 62
    7
 10
13.71532210948935
 20
2.1487824390410637
 40
0.7400333894195616
 50
282.69361944138331
 51
307.99873244251046
  0
ARC
  8
_0-0_
  6
CONTINUOUS
 62
    7
 10
14.699835651761518
 20
4.8983917462919067
 40
1.3475308955202456
 50
82.697813710875337
 51
145.35519944648337
  0
ARC
  8
_0-0_
  6
CONTINUOUS
 62
    7
 10
14.695319732787297
 20
5.1802511768964195
 40
1.205592303044237
 50
156.32026712234159
 51
229.66896646149269
  0
ARC
  8
_0-0_
  6
CONTINUOUS
 62
    7
 10
14.287464437652076
 20
5.3988651821737648
 40
1.1970607031986242
 50
251.87437507963716
 51
299.18070522367594
  0
ARC
  8
_0-0_
  6
CONTINUOUS
 62
    7
 10
15.004751969486037
 20
4.325457473192543
 40
0.1365992439895282
 50
94.316027519885949
 51
168.05582281153374
  0
ARC
  8
_0-0_
  6
CONTINUOUS
 62
    7
 10
14.594530608117381
 20
5.2944017504668324
 40
0.4944310266935121
 50
93.690468061901555
 51
180.00475247008822
  0
ARC
  8
_0-0_
  6
CONTINUOUS
 62
    7
 10
14.672542251430045
 20
5.1664252587805066
 40
0.5865646559961158
 50
167.40196526053833
 51
249.8189540713899
  0
ARC
  8
_0-0_
  6
CONTINUOUS
 62
    7
 10
14.307571514707703
 20
5.3378176979090597
 40
0.7400333894195616
 50
282.69361944138331
 51
307.99873244251046
  0
ARC
  8
_0-0_
  6
CONTINUOUS
 62
    7
 10
12.786414496440713
 20
5.080622332512938
 40
1.3475308955202456
 50
82.697813710875337
 51
145.35519944648337
  0
ARC
  8
_0-0_
  6
CONTINUOUS
 62
    7
 10
12.781898577466492
 20
5.3624817631174508
 40
1.205592303044237
 50
156.32026712234159
 51
229.66896646149269
  0
ARC
  8
_0-0_
  6
CONTINUOUS
 62
    7
 10
12.374043282331272
 20
5.5810957683947962
 40
1.1970607031986242
 50
251.87437507963716
 51
299.18070522367594
  0
ARC
  8
_0-0_
  6
CONTINUOUS
 62
    7
 10
13.091330814165232
 20
4.5076880594135744
 40
0.1365992439895282
 50
94.316027519885949
 51
168.05582281153374
  0
ARC
  8
_0-0_
  6
CONTINUOUS
 62
    7
 10
12.681109452796576
 20
5.4766323366878638
 40
0.4944310266935121
 50
93.690468061901555
 51
180.00475247008822
  0
ARC
  8
_0-0_
  6
CONTINUOUS
 62
    7
 10
12.75912109610924
 20
5.348655845001538
 40
0.5865646559961158
 50
167.40196526053833
 51
249.8189540713899
  0
ARC
  8
_0-0_
  6
CONTINUOUS
 62
    7
 10
12.394150359386899
 20
5.5200482841300911
 40
0.7400333894195616
 50
282.69361944138331
 51
307.99873244251046
  0
ARC
  8
_0-0_
  6
CONTINUOUS
 62
    7
 10
11.100781573896185
 20
4.6706035135156228
 40
1.3475308955202456
 50
82.697813710875337
 51
145.35519944648337
  0
ARC
  8
_0-0_
  6
CONTINUOUS
 62
    7
 10
11.096265654921964
 20
4.9524629441201355
 40
1.205592303044237
 50
156.32026712234159
 51
229.66896646149269
  0
ARC
  8
_0-0_
  6
CONTINUOUS
 62
    7
 10
10.688410359786744
 20
5.1710769493974809
 40
1.1970607031986242
 50
251.87437507963716
 51
299.18070522367594
  0
ARC
  8
_0-0_
  6
CONTINUOUS
 62
    7
 10
11.405697891620704
 20
4.0976692404162591
 40
0.1365992439895282
 50
94.316027519885949
 51
168.05582281153374
  0
ARC
  8
_0-0_
  6
CONTINUOUS
 62
    7
 10
10.995476530252049
 20
5.0666135176905485
 40
0.4944310266935121
 50
93.690468061901555
 51
180.00475247008822
  0
ARC
  8
_0-0_
  6
CONTINUOUS
 62
    7
 10
11.073488173564712
 20
4.9386370260042227
 40
0.5865646559961158
 50
167.40196526053833
 51
249.8189540713899
  0
ARC
  8
_0-0_
  6
CONTINUOUS
 62
    7
 10
10.708517436842371
 20
5.1100294651327758
 40
0.7400333894195616
 50
282.69361944138331
 51
307.99873244251046
  0
ARC
  8
_0-0_
  6
CONTINUOUS
 62
    7
 10
11.374127453227729
 20
7.950754065494138
 40
1.3475308955202456
 50
82.697813710875337
 51
145.35519944648337
  0
ARC
  8
_0-0_
  6
CONTINUOUS
 62
    7
 10
11.369611534253508
 20
8.2326134960986508
 40
1.205592303044237
 50
156.32026712234159
 51
229.66896646149269
  0
ARC
  8
_0-0_
  6
CONTINUOUS
 62
    7
 10
10.961756239118287
 20
8.4512275013759961
 40
1.1970607031986242
 50
251.87437507963716
 51
299.18070522367594
  0
ARC
  8
_0-0_
  6
CONTINUOUS
 62
    7
 10
11.679043770952248
 20
7.3778197923947744
 40
0.1365992439895282
 50
94.316027519885949
 51
168.05582281153374
  0
ARC
  8
_0-0_
  6
CONTINUOUS
 62
    7
 10
11.268822409583592
 20
8.3467640696690637
 40
0.4944310266935121
 50
93.690468061901555
 51
180.00475247008822
  0
ARC
  8
_0-0_
  6
CONTINUOUS
 62
    7
 10
11.346834052896256
 20
8.218787577982738
 40
0.5865646559961158
 50
167.40196526053833
 51
249.8189540713899
  0
ARC
  8
_0-0_
  6
CONTINUOUS
 62
    7
 10
10.981863316173914
 20
8.390180017111291
 40
0.7400333894195616
 50
282.69361944138331
 51
307.99873244251046
  0
ARC
  8
_0-0_
  6
CONTINUOUS
 62
    7
 10
12.96864508266178
 20
7.722965832717847
 40
1.3475308955202456
 50
82.697813710875337
 51
145.35519944648337
  0
ARC
  8
_0-0_
  6
CONTINUOUS
 62
    7
 10
12.964129163687559
 20
8.0048252633223598
 40
1.205592303044237
 50
156.32026712234159
 51
229.66896646149269
  0
ARC
  8
_0-0_
  6
CONTINUOUS
 62
    7
 10
12.556273868552339
 20
8.2234392685997051
 40
1.1970607031986242
 50
251.87437507963716
 51
299.18070522367594
  0
ARC
  8
_0-0_
  6
CONTINUOUS
 62
    7
 10
13.273561400386242
 20
7.1500315596184834
 40
0.1365992439895282
 50
94.316027519885949
 51
168.05582281153374
  0
ARC
  8
_0-0_
  6
CONTINUOUS
 62
    7
 10
12.863340039017586
 20
8.1189758368927727
 40
0.4944310266935121
 50
93.690468061901555
 51
180.00475247008822
  0
ARC
  8
_0-0_
  6
CONTINUOUS
 62
    7
 10
12.941351682330307
 20
7.9909993452064469
 40
0.5865646559961158
 50
167.40196526053833
 51
249.8189540713899
  0
ARC
  8
_0-0_
  6
CONTINUOUS
 62
    7
 10
12.576380945607937
 20
8.162391784335
 40
0.7400333894195616
 50
282.69361944138331
 51
307.99873244251046
  0
ARC
  8
_0-0_
  6
CONTINUOUS
 62
    7
 10
15.109854470758862
 20
8.2240999448256744
 40
1.3475308955202456
 50
82.697813710875337
 51
145.35519944648337
  0
ARC
  8
_0-0_
  6
CONTINUOUS
 62
    7
 10
15.105338551784641
 20
8.5059593754301872
 40
1.205592303044237
 50
156.32026712234159
 51
229.66896646149269
  0
ARC
  8
_0-0_
  6
CONTINUOUS
 62
    7
 10
14.69748325664942
 20
8.7245733807075325
 40
1.1970607031986242
 50
251.87437507963716
 51
299.18070522367594
  0
ARC
  8
_0-0_
  6
CONTINUOUS
 62
    7
 10
15.414770788483324
 20
7.6511656717263108
 40
0.1365992439895282
 50
94.316027519885949
 51
168.05582281153374
  0
ARC
  8
_0-0_
  6
CONTINUOUS
 62
    7
 10
15.004549427114668
 20
8.6201099490006001
 40
0.4944310266935121
 50
93.690468061901555
 51
180.00475247008822
  0
ARC
  8
_0-0_
  6
CONTINUOUS
 62
    7
 10
15.082561070427388
 20
8.4921334573142744
 40
0.5865646559961158
 50
167.40196526053833
 51
249.8189540713899
  0
ARC
  8
_0-0_
  6
CONTINUOUS
 62
    7
 10
14.717590333705019
 20
8.6635258964428274
 40
0.7400333894195616
 50
282.69361944138331
 51
307.99873244251046
  0
ARC
  8
_0-0_
  6
CONTINUOUS
 62
    7
 10
16.066565048419235
 20
11.322019910583165
 40
1.3475308955202456
 50
82.697813710875337
 51
145.35519944648337
  0
ARC
  8
_0-0_
  6
CONTINUOUS
 62
    7
 10
16.062049129445015
 20
11.603879341187678
 40
1.205592303044237
 50
156.32026712234159
 51
229.66896646149269
  0
ARC
  8
_0-0_
  6
CONTINUOUS
 62
    7
 10
15.654193834309794
 20
11.822493346465023
 40
1.1970607031986242
 50
251.87437507963716
 51
299.18070522367594
  0
ARC
  8
_0-0_
  6
CONTINUOUS
 62
    7
 10
16.371481366143755
 20
10.749085637483802
 40
0.1365992439895282
 50
94.316027519885949
 51
168.05582281153374
  0
ARC
  8
_0-0_
  6
CONTINUOUS
 62
    7
 10
15.961260004775099
 20
11.718029914758091
 40
0.4944310266935121
 50
93.690468061901555
 51
180.00475247008822
  0
ARC
  8
_0-0_
  6
CONTINUOUS
 62
    7
 10
16.039271648087762
 20
11.590053423071765
 40
0.5865646559961158
 50
167.40196526053833
 51
249.8189540713899
  0
ARC
  8
_0-0_
  6
CONTINUOUS
 62
    7
 10
15.674300911365421
 20
11.761445862200318
 40
0.7400333894195616
 50
282.69361944138331
 51
307.99873244251046
  0
ARC
  8
_0-0_
  6
CONTINUOUS
 62
    7
 10
14.608720358650984
 20
12.187615195133048
 40
1.3475308955202456
 50
82.697813710875337
 51
145.35519944648337
  0
ARC
  8
_0-0_
  6
CONTINUOUS
 62
    7
 10
14.604204439676764
 20
12.469474625737561
 40
1.205592303044237
 50
156.32026712234159
 51
229.66896646149269
  0
ARC
  8
_0-0_
  6
CONTINUOUS
 62
    7
 10
14.196349144541543
 20
12.688088631014907
 40
1.1970607031986242
 50
251.87437507963716
 51
299.18070522367594
  0
ARC
  8
_0-0_
  6
CONTINUOUS
 62
    7
 10
14.913636676375503
 20
11.614680922033685
 40
0.1365992439895282
 50
94.316027519885949
 51
168.05582281153374
  0
ARC
  8
_0-0_
  6
CONTINUOUS
 62
    7
 10
14.503415315006848
 20
12.583625199307974
 40
0.4944310266935121
 50
93.690468061901555
 51
180.00475247008822
  0
ARC
  8
_0-0_
  6
CONTINUOUS
 62
    7
 10
14.581426958319511
 20
12.455648707621648
 40
0.5865646559961158
 50
167.40196526053833
 51
249.8189540713899
  0
ARC
  8
_0-0_
  6
CONTINUOUS
 62
    7
 10
14.21645622159717
 20
12.627041146750202
 40
0.7400333894195616
 50
282.69361944138331
 51
307.99873244251046
  0
ARC
  8
_0-0_
  6
CONTINUOUS
 62
    7
 10
12.467510970553903
 20
11.185346970917394
 40
1.3475308955202456
 50
82.697813710875337
 51
145.35519944648337
  0
ARC
  8
_0-0_
  6
CONTINUOUS
 62
    7
 10
12.462995051579682
 20
11.467206401521906
 40
1.205592303044237
 50
156.32026712234159
 51
229.66896646149269
  0
ARC
  8
_0-0_
  6
CONTINUOUS
 62
    7
 10
12.055139756444461
 20
11.685820406799252
 40
1.1970607031986242
 50
251.87437507963716
 51
299.18070522367594
  0
ARC
  8
_0-0_
  6
CONTINUOUS
 62
    7
 10
12.772427288278422
 20
10.61241269781803
 40
0.1365992439895282
 50
94.316027519885949
 51
168.05582281153374
  0
ARC
  8
_0-0_
  6
CONTINUOUS
 62
    7
 10
12.362205926909766
 20
11.581356975092319
 40
0.4944310266935121
 50
93.690468061901555
 51
180.00475247008822
  0
ARC
  8
_0-0_
  6
CONTINUOUS
 62
    7
 10
12.44021757022243
 20
11.453380483405994
 40
0.5865646559961158
 50
167.40196526053833
 51
249.8189540713899
  0
ARC
  8
_0-0_
  6
CONTINUOUS
 62
    7
 10
12.075246833500088
 20
11.624772922534547
 40
0.7400333894195616
 50
282.69361944138331
 51
307.99873244251046
  0
ARC
  8
_0-0_
  6
CONTINUOUS
 62
    7
 10
12.83197214299598
 20
14.101036350453846
 40
1.3475308955202456
 50
82.697813710875337
 51
145.35519944648337
  0
ARC
  8
_0-0_
  6
CONTINUOUS
 62
    7
 10
12.827456224021759
 20
14.382895781058359
 40
1.205592303044237
 50
156.32026712234159
 51
229.66896646149269
  0
ARC
  8
_0-0_
  6
CONTINUOUS
 62
    7
 10
12.419600928886538
 20
14.601509786335704
 40
1.1970607031986242
 50
251.87437507963716
 51
299.18070522367594
  0
ARC
  8
_0-0_
  6
CONTINUOUS
 62
    7
 10
13.136888460720499
 20
13.528102077354482
 40
0.1365992439895282
 50
94.316027519885949
 51
168.05582281153374
  0
ARC
  8
_0-0_
  6
CONTINUOUS
 62
    7
 10
12.726667099351843
 20
14.497046354628772
 40
0.4944310266935121
 50
93.690468061901555
 51
180.00475247008822
  0
ARC
  8
_0-0_
  6
CONTINUOUS
 62
    7
 10
12.804678742664507
 20
14.369069862942446
 40
0.5865646559961158
 50
167.40196526053833
 51
249.8189540713899
  0
ARC
  8
_0-0_
  6
CONTINUOUS
 62
    7
 10
12.439708005942165
 20
14.540462302070999
 40
0.7400333894195616
 50
282.69361944138331
 51
307.99873244251046
  0
ARC
  8
_0-0_
  6
CONTINUOUS
 62
    7
 10
14.836508591427318
 20
15.376650454001044
 40
1.3475308955202456
 50
82.697813710875337
 51
145.35519944648337
  0
ARC
  8
_0-0_
  6
CONTINUOUS
 62
    7
 10
14.831992672453097
 20
15.658509884605557
 40
1.205592303044237
 50
156.32026712234159
 51
229.66896646149269
  0
ARC
  8
_0-0_
  6
CONTINUOUS
 62
    7
 10
14.424137377317876
 20
15.877123889882903
 40
1.1970607031986242
 50
251.87437507963716
 51
299.18070522367594
  0
ARC
  8
_0-0_
  6
CONTINUOUS
 62
    7
 10
15.14142490915178
 20
14.803716180901681
 40
0.1365992439895282
 50
94.316027519885949
 51
168.05582281153374
  0
ARC
  8
_0-0_
  6
CONTINUOUS
 62
    7
 10
14.731203547783124
 20
15.77266045817597
 40
0.4944310266935121
 50
93.690468061901555
 51
180.00475247008822
  0
ARC
  8
_0-0_
  6
CONTINUOUS
 62
    7
 10
14.809215191095845
 20
15.644683966489644
 40
0.5865646559961158
 50
167.40196526053833
 51
249.8189540713899
  0
ARC
  8
_0-0_
  6
CONTINUOUS
 62
    7
 10
14.444244454373475
 20
15.816076405618197
 40
0.7400333894195616
 50
282.69361944138331
 51
307.99873244251046
  0
ARC
  8
_0-0_
  6
CONTINUOUS
 62
    7
 10
16.385468574306046
 20
14.237709290119618
 40
1.3475308955202456
 50
82.697813710875337
 51
145.35519944648337
  0
ARC
  8
_0-0_
  6
CONTINUOUS
 62
    7
 10
16.380952655331825
 20
14.519568720724131
 40
1.205592303044237
 50
156.32026712234159
 51
229.66896646149269
  0
ARC
  8
_0-0_
  6
CONTINUOUS
 62
    7
 10
15.973097360196604
 20
14.738182726001476
 40
1.1970607031986242
 50
251.87437507963716
 51
299.18070522367594
  0
ARC
  8
_0-0_
  6
CONTINUOUS
 62
    7
 10
16.690384892030508
 20
13.664775017020254
 40
0.1365992439895282
 50
94.316027519885949
 51
168.05582281153374
  0
ARC
  8
_0-0_
  6
CONTINUOUS
 62
    7
 10
16.280163530661852
 20
14.633719294294544
 40
0.4944310266935121
 50
93.690468061901555
 51
180.00475247008822
  0
ARC
  8
_0-0_
  6
CONTINUOUS
 62
    7
 10
16.358175173974573
 20
14.505742802608218
 40
0.5865646559961158
 50
167.40196526053833
 51
249.8189540713899
  0
ARC
  8
_0-0_
  6
CONTINUOUS
 62
    7
 10
15.993204437252203
 20
14.677135241736771
 40
0.7400333894195616
 50
282.69361944138331
 51
307.99873244251046
  0
ARC
  8
_0-0_
  6
CONTINUOUS
 62
    7
 10
5.487082580990247
 20
14.212990819146384
 40
1.1978052404624406
 50
82.697813710875337
 51
145.35519944648337
  0
ARC
  8
_0-0_
  6
CONTINUOUS
 62
    7
 10
5.4830684307909365
 20
14.463532535239281
 40
1.0716376027059886
 50
156.32026712234159
 51
229.66896646149269
  0
ARC
  8
_0-0_
  6
CONTINUOUS
 62
    7
 10
5.1205303906707371
 20
14.657856095485812
 40
1.0640539583987771
 50
251.87437507963716
 51
299.18070522367594
  0
ARC
  8
_0-0_
  6
CONTINUOUS
 62
    7
 10
5.758119307856461
 20
13.703715909724721
 40
0.1214215502129139
 50
94.316027519885949
 51
168.05582281153374
  0
ARC
  8
_0-0_
  6
CONTINUOUS
 62
    7
 10
5.393478097750986
 20
14.56499971174631
 40
0.4394942459497885
 50
93.690468061901555
 51
180.00475247008822
  0
ARC
  8
_0-0_
  6
CONTINUOUS
 62
    7
 10
5.4628217806955917
 20
14.451242830247352
 40
0.5213908053298806
 50
167.40196526053833
 51
249.8189540713899
  0
ARC
  8
_0-0_
  6
CONTINUOUS
 62
    7
 10
5.138403348053501
 20
14.60359166502829
 40
0.6578074572618325
 50
282.69361944138331
 51
307.99873244251046
  0
ARC
  8
_0-0_
  6
CONTINUOUS
 62
    7
 10
7.0816002104242415
 20
13.347395534596501
 40
1.1978052404624406
 50
82.697813710875337
 51
145.35519944648337
  0
ARC
  8
_0-0_
  6
CONTINUOUS
 62
    7
 10
7.077586060224931
 20
13.597937250689398
 40
1.0716376027059886
 50
156.32026712234159
 51
229.66896646149269
  0
ARC
  8
_0-0_
  6
CONTINUOUS
 62
    7
 10
6.7150480201047316
 20
13.792260810935929
 40
1.0640539583987771
 50
251.87437507963716
 51
299.18070522367594
  0
ARC
  8
_0-0_
  6
CONTINUOUS
 62
    7
 10
7.3526369372904554
 20
12.838120625174838
 40
0.1214215502129139
 50
94.316027519885949
 51
168.05582281153374
  0
ARC
  8
_0-0_
  6
CONTINUOUS
 62
    7
 10
6.9879957271849804
 20
13.699404427196427
 40
0.4394942459497885
 50
93.690468061901555
 51
180.00475247008822
  0
ARC
  8
_0-0_
  6
CONTINUOUS
 62
    7
 10
7.0573394101295861
 20
13.585647545697469
 40
0.5213908053298806
 50
167.40196526053833
 51
249.8189540713899
  0
ARC
  8
_0-0_
  6
CONTINUOUS
 62
    7
 10
6.7329209774874954
 20
13.737996380478407
 40
0.6578074572618325
 50
282.69361944138331
 51
307.99873244251046
  0
ARC
  8
_0-0_
  6
CONTINUOUS
 62
    7
 10
3.8925649515562526
 20
13.028492008709698
 40
1.1978052404624406
 50
82.697813710875337
 51
145.35519944648337
  0
ARC
  8
_0-0_
  6
CONTINUOUS
 62
    7
 10
3.8885508013569421
 20
13.279033724802595
 40
1.0716376027059886
 50
156.32026712234159
 51
229.66896646149269
  0
ARC
  8
_0-0_
  6
CONTINUOUS
 62
    7
 10
3.5260127612367427
 20
13.473357285049126
 40
1.0640539583987771
 50
251.87437507963716
 51
299.18070522367594
  0
ARC
  8
_0-0_
  6
CONTINUOUS
 62
    7
 10
4.1636016784224665
 20
12.519217099288035
 40
0.1214215502129139
 50
94.316027519885949
 51
168.05582281153374
  0
ARC
  8
_0-0_
  6
CONTINUOUS
 62
    7
 10
3.7989604683169915
 20
13.380500901309624
 40
0.4394942459497885
 50
93.690468061901555
 51
180.00475247008822
  0
ARC
  8
_0-0_
  6
CONTINUOUS
 62
    7
 10
3.8683041512615972
 20
13.266744019810666
 40
0.5213908053298806
 50
167.40196526053833
 51
249.8189540713899
  0
ARC
  8
_0-0_
  6
CONTINUOUS
 62
    7
 10
3.5438857186195065
 20
13.419092854591604
 40
0.6578074572618325
 50
282.69361944138331
 51
307.99873244251046
  0
ARC
  8
_0-0_
  6
CONTINUOUS
 62
    7
 10
4.7581602361061499
 20
11.251743793054672
 40
1.1978052404624406
 50
82.697813710875337
 51
145.35519944648337
  0
ARC
  8
_0-0_
  6
CONTINUOUS
 62
    7
 10
4.7541460859068394
 20
11.502285509147569
 40
1.0716376027059886
 50
156.32026712234159
 51
229.66896646149269
  0
ARC
  8
_0-0_
  6
CONTINUOUS
 62
    7
 10
4.39160804578664
 20
11.6966090693941
 40
1.0640539583987771
 50
251.87437507963716
 51
299.18070522367594
  0
ARC
  8
_0-0_
  6
CONTINUOUS
 62
    7
 10
5.0291969629723638
 20
10.742468883633009
 40
0.1214215502129139
 50
94.316027519885949
 51
168.05582281153374
  0
ARC
  8
_0-0_
  6
CONTINUOUS
 62
    7
 10
4.6645557528668888
 20
11.603752685654598
 40
0.4394942459497885
 50
93.690468061901555
 51
180.00475247008822
  0
ARC
  8
_0-0_
  6
CONTINUOUS
 62
    7
 10
4.7338994358114945
 20
11.48999580415564
 40
0.5213908053298806
 50
167.40196526053833
 51
249.8189540713899
  0
ARC
  8
_0-0_
  6
CONTINUOUS
 62
    7
 10
4.4094810031694038
 20
11.642344638936578
 40
0.6578074572618325
 50
282.69361944138331
 51
307.99873244251046
  0
ARC
  8
_0-0_
  6
CONTINUOUS
 62
    7
 10
6.1248896327638107
 20
10.477263801615301
 40
1.1978052404624406
 50
82.697813710875337
 51
145.35519944648337
  0
ARC
  8
_0-0_
  6
CONTINUOUS
 62
    7
 10
6.1208754825645286
 20
10.727805517708198
 40
1.0716376027059886
 50
156.32026712234159
 51
229.66896646149269
  0
ARC
  8
_0-0_
  6
CONTINUOUS
 62
    7
 10
5.7583374424443292
 20
10.922129077954729
 40
1.0640539583987771
 50
251.87437507963716
 51
299.18070522367594
  0
ARC
  8
_0-0_
  6
CONTINUOUS
 62
    7
 10
6.3959263596300246
 20
9.9679888921936382
 40
0.1214215502129139
 50
94.316027519885949
 51
168.05582281153374
  0
ARC
  8
_0-0_
  6
CONTINUOUS
 62
    7
 10
6.0312851495245781
 20
10.829272694215227
 40
0.4394942459497885
 50
93.690468061901555
 51
180.00475247008822
  0
ARC
  8
_0-0_
  6
CONTINUOUS
 62
    7
 10
6.1006288324692122
 20
10.715515812716269
 40
0.5213908053298806
 50
167.40196526053833
 51
249.8189540713899
  0
ARC
  8
_0-0_
  6
CONTINUOUS
 62
    7
 10
5.7762103998270931
 20
10.867864647497207
 40
0.6578074572618325
 50
282.69361944138331
 51
307.99873244251046
  0
ARC
  8
_0-0_
  6
CONTINUOUS
 62
    7
 10
3.4825461325589089
 20
10.067244982617986
 40
1.1978052404624406
 50
82.697813710875337
 51
145.35519944648337
  0
ARC
  8
_0-0_
  6
CONTINUOUS
 62
    7
 10
3.4785319823596268
 20
10.317786698710883
 40
1.0716376027059886
 50
156.32026712234159
 51
229.66896646149269
  0
ARC
  8
_0-0_
  6
CONTINUOUS
 62
    7
 10
3.1159939422394274
 20
10.512110258957414
 40
1.0640539583987771
 50
251.87437507963716
 51
299.18070522367594
  0
ARC
  8
_0-0_
  6
CONTINUOUS
 62
    7
 10
3.7535828594251228
 20
9.5579700731963229
 40
0.1214215502129139
 50
94.316027519885949
 51
168.05582281153374
  0
ARC
  8
_0-0_
  6
CONTINUOUS
 62
    7
 10
3.3889416493196762
 20
10.419253875217912
 40
0.4394942459497885
 50
93.690468061901555
 51
180.00475247008822
  0
ARC
  8
_0-0_
  6
CONTINUOUS
 62
    7
 10
3.4582853322643103
 20
10.305496993718954
 40
0.5213908053298806
 50
167.40196526053833
 51
249.8189540713899
  0
ARC
  8
_0-0_
  6
CONTINUOUS
 62
    7
 10
3.1338668996221912
 20
10.457845828499892
 40
0.6578074572618325
 50
282.69361944138331
 51
307.99873244251046
  0
ARC
  8
_0-0_
  6
CONTINUOUS
 62
    7
 10
2.525835554898535
 20
7.1971132496367929
 40
1.1978052404624406
 50
82.697813710875337
 51
145.35519944648337
  0
ARC
  8
_0-0_
  6
CONTINUOUS
 62
    7
 10
2.5218214046992244
 20
7.44765496572969
 40
1.0716376027059886
 50
156.32026712234159
 51
229.66896646149269
  0
ARC
  8
_0-0_
  6
CONTINUOUS
 62
    7
 10
2.159283364579025
 20
7.6419785259762207
 40
1.0640539583987771
 50
251.87437507963716
 51
299.18070522367594
  0
ARC
  8
_0-0_
  6
CONTINUOUS
 62
    7
 10
2.7968722817647489
 20
6.68783834021513
 40
0.1214215502129139
 50
94.316027519885949
 51
168.05582281153374
  0
ARC
  8
_0-0_
  6
CONTINUOUS
 62
    7
 10
2.4322310716592739
 20
7.549122142236719
 40
0.4394942459497885
 50
93.690468061901555
 51
180.00475247008822
  0
ARC
  8
_0-0_
  6
CONTINUOUS
 62
    7
 10
2.5015747546038796
 20
7.4353652607377612
 40
0.5213908053298806
 50
167.40196526053833
 51
249.8189540713899
  0
ARC
  8
_0-0_
  6
CONTINUOUS
 62
    7
 10
2.1771563219617889
 20
7.5877140955186988
 40
0.6578074572618325
 50
282.69361944138331
 51
307.99873244251046
  0
ARC
  8
_0-0_
  6
CONTINUOUS
 62
    7
 10
4.1203531843325294
 20
7.0148826634157615
 40
1.1978052404624406
 50
82.697813710875337
 51
145.35519944648337
  0
ARC
  8
_0-0_
  6
CONTINUOUS
 62
    7
 10
4.1163390341332189
 20
7.2654243795086586
 40
1.0716376027059886
 50
156.32026712234159
 51
229.66896646149269
  0
ARC
  8
_0-0_
  6
CONTINUOUS
 62
    7
 10
3.7538009940130195
 20
7.4597479397551893
 40
1.0640539583987771
 50
251.87437507963716
 51
299.18070522367594
  0
ARC
  8
_0-0_
  6
CONTINUOUS
 62
    7
 10
4.3913899111987433
 20
6.5056077539940986
 40
0.1214215502129139
 50
94.316027519885949
 51
168.05582281153374
  0
ARC
  8
_0-0_
  6
CONTINUOUS
 62
    7
 10
4.0267487010932683
 20
7.3668915560156876
 40
0.4394942459497885
 50
93.690468061901555
 51
180.00475247008822
  0
ARC
  8
_0-0_
  6
CONTINUOUS
 62
    7
 10
4.096092384037874
 20
7.2531346745167298
 40
0.5213908053298806
 50
167.40196526053833
 51
249.8189540713899
  0
ARC
  8
_0-0_
  6
CONTINUOUS
 62
    7
 10
3.7716739513957833
 20
7.4054835092976674
 40
0.6578074572618325
 50
282.69361944138331
 51
307.99873244251046
  0
ARC
  8
_0-0_
  6
CONTINUOUS
 62
    7
 10
5.6237555206559904
 20
7.3793438358578172
 40
1.1978052404624406
 50
82.697813710875337
 51
145.35519944648337
  0
ARC
  8
_0-0_
  6
CONTINUOUS
 62
    7
 10
5.6197413704567083
 20
7.6298855519507143
 40
1.0716376027059886
 50
156.32026712234159
 51
229.66896646149269
  0
ARC
  8
_0-0_
  6
CONTINUOUS
 62
    7
 10
5.2572033303365089
 20
7.824209112197245
 40
1.0640539583987771
 50
251.87437507963716
 51
299.18070522367594
  0
ARC
  8
_0-0_
  6
CONTINUOUS
 62
    7
 10
5.8947922475222043
 20
6.8700689264361543
 40
0.1214215502129139
 50
94.316027519885949
 51
168.05582281153374
  0
ARC
  8
_0-0_
  6
CONTINUOUS
 62
    7
 10
5.5301510374167577
 20
7.7313527284577432
 40
0.4394942459497885
 50
93.690468061901555
 51
180.00475247008822
  0
ARC
  8
_0-0_
  6
CONTINUOUS
 62
    7
 10
5.5994947203613918
 20
7.6175958469587854
 40
0.5213908053298806
 50
167.40196526053833
 51
249.8189540713899
  0
ARC
  8
_0-0_
  6
CONTINUOUS
 62
    7
 10
5.2750762877192727
 20
7.7699446817397231
 40
0.6578074572618325
 50
282.69361944138331
 51
307.99873244251046
  0
ARC
  8
_0-0_
  6
CONTINUOUS
 62
    7
 10
5.0315061154376366
 20
4.4180968097661051
 40
1.1978052404624406
 50
82.697813710875337
 51
145.35519944648337
  0
ARC
  8
_0-0_
  6
CONTINUOUS
 62
    7
 10
5.0274919652383545
 20
4.6686385258590022
 40
1.0716376027059886
 50
156.32026712234159
 51
229.66896646149269
  0
ARC
  8
_0-0_
  6
CONTINUOUS
 62
    7
 10
4.6649539251181551
 20
4.8629620861055329
 40
1.0640539583987771
 50
251.87437507963716
 51
299.18070522367594
  0
ARC
  8
_0-0_
  6
CONTINUOUS
 62
    7
 10
5.3025428423038505
 20
3.9088219003444422
 40
0.1214215502129139
 50
94.316027519885949
 51
168.05582281153374
  0
ARC
  8
_0-0_
  6
CONTINUOUS
 62
    7
 10
4.9379016321984039
 20
4.7701057023660312
 40
0.4394942459497885
 50
93.690468061901555
 51
180.00475247008822
  0
ARC
  8
_0-0_
  6
CONTINUOUS
 62
    7
 10
5.0072453151430381
 20
4.6563488208670734
 40
0.5213908053298806
 50
167.40196526053833
 51
249.8189540713899
  0
ARC
  8
_0-0_
  6
CONTINUOUS
 62
    7
 10
4.6828268825009189
 20
4.808697655648011
 40
0.6578074572618325
 50
282.69361944138331
 51
307.99873244251046
  0
ARC
  8
_0-0_
  6
CONTINUOUS
 62
    7
 10
3.8470073050009859
 20
4.6914426890976486
 40
1.1978052404624406
 50
82.697813710875337
 51
145.35519944648337
  0
ARC
  8
_0-0_
  6
CONTINUOUS
 62
    7
 10
3.8429931548016754
 20
4.9419844051905457
 40
1.0716376027059886
 50
156.32026712234159
 51
229.66896646149269
  0
ARC
  8
_0-0_
  6
CONTINUOUS
 62
    7
 10
3.4804551146814759
 20
5.1363079654370765
 40
1.0640539583987771
 50
251.87437507963716
 51
299.18070522367594
  0
ARC
  8
_0-0_
  6
CONTINUOUS
 62
    7
 10
4.1180440318671998
 20
4.1821677796759857
 40
0.1214215502129139
 50
94.316027519885949
 51
168.05582281153374
  0
ARC
  8
_0-0_
  6
CONTINUOUS
 62
    7
 10
3.7534028217617248
 20
5.0434515816975747
 40
0.4394942459497885
 50
93.690468061901555
 51
180.00475247008822
  0
ARC
  8
_0-0_
  6
CONTINUOUS
 62
    7
 10
3.8227465047063305
 20
4.9296947001986169
 40
0.5213908053298806
 50
167.40196526053833
 51
249.8189540713899
  0
ARC
  8
_0-0_
  6
CONTINUOUS
 62
    7
 10
3.4983280720642398
 20
5.0820435349795545
 40
0.6578074572618325
 50
282.69361944138331
 51
307.99873244251046
  0
ARC
  8
_0-0_
  6
CONTINUOUS
 62
    7
 10
2.4347202617880157
 20
4.3725391632108455
 40
1.1978052404624406
 50
82.697813710875337
 51
145.35519944648337
  0
ARC
  8
_0-0_
  6
CONTINUOUS
 62
    7
 10
2.4307061115887194
 20
4.6230808793037426
 40
1.0716376027059886
 50
156.32026712234159
 51
229.66896646149269
  0
ARC
  8
_0-0_
  6
CONTINUOUS
 62
    7
 10
2.06816807146852
 20
4.8174044395502733
 40
1.0640539583987771
 50
251.87437507963716
 51
299.18070522367594
  0
ARC
  8
_0-0_
  6
CONTINUOUS
 62
    7
 10
2.7057569886542154
 20
3.8632642537891826
 40
0.1214215502129139
 50
94.316027519885949
 51
168.05582281153374
  0
ARC
  8
_0-0_
  6
CONTINUOUS
 62
    7
 10
2.3411157785487688
 20
4.7245480558107715
 40
0.4394942459497885
 50
93.690468061901555
 51
180.00475247008822
  0
ARC
  8
_0-0_
  6
CONTINUOUS
 62
    7
 10
2.4104594614933887
 20
4.6107911743118137
 40
0.5213908053298806
 50
167.40196526053833
 51
249.8189540713899
  0
ARC
  8
_0-0_
  6
CONTINUOUS
 62
    7
 10
2.0860410288512838
 20
4.7631400090927514
 40
0.6578074572618325
 50
282.69361944138331
 51
307.99873244251046
  0
ARC
  8
_0-0_
  6
CONTINUOUS
 62
    7
 10
1.5691249772381184
 20
1.775753309561189
 40
1.1978052404624406
 50
82.697813710875337
 51
145.35519944648337
  0
ARC
  8
_0-0_
  6
CONTINUOUS
 62
    7
 10
1.5651108270388221
 20
2.0262950256540861
 40
1.0716376027059886
 50
156.32026712234159
 51
229.66896646149269
  0
ARC
  8
_0-0_
  6
CONTINUOUS
 62
    7
 10
1.2025727869186227
 20
2.2206185859006169
 40
1.0640539583987771
 50
251.87437507963716
 51
299.18070522367594
  0
ARC
  8
_0-0_
  6
CONTINUOUS
 62
    7
 10
1.8401617041043323
 20
1.2664784001395262
 40
0.1214215502129139
 50
94.316027519885949
 51
168.05582281153374
  0
ARC
  8
_0-0_
  6
CONTINUOUS
 62
    7
 10
1.4755204939988715
 20
2.1277622021611151
 40
0.4394942459497885
 50
93.690468061901555
 51
180.00475247008822
  0
ARC
  8
_0-0_
  6
CONTINUOUS
 62
    7
 10
1.5448641769434914
 20
2.0140053206621573
 40
0.5213908053298806
 50
167.40196526053833
 51
249.8189540713899
  0
ARC
  8
_0-0_
  6
CONTINUOUS
 62
    7
 10
1.2204457443013865
 20
2.166354155443095
 40
0.6578074572618325
 50
282.69361944138331
 51
307.99873244251046
  0
ARC
  8
_0-0_
  6
CONTINUOUS
 62
    7
 10
4.4392567102193397
 20
1.5024074302296526
 40
1.1978052404624406
 50
82.697813710875337
 51
145.35519944648337
  0
ARC
  8
_0-0_
  6
CONTINUOUS
 62
    7
 10
4.4352425600200291
 20
1.7529491463225497
 40
1.0716376027059886
 50
156.32026712234159
 51
229.66896646149269
  0
ARC
  8
_0-0_
  6
CONTINUOUS
 62
    7
 10
4.0727045198998297
 20
1.9472727065690805
 40
1.0640539583987771
 50
251.87437507963716
 51
299.18070522367594
  0
ARC
  8
_0-0_
  6
CONTINUOUS
 62
    7
 10
4.7102934370855536
 20
0.9931325208079897
 40
0.1214215502129139
 50
94.316027519885949
 51
168.05582281153374
  0
ARC
  8
_0-0_
  6
CONTINUOUS
 62
    7
 10
4.3456522269800786
 20
1.8544163228295787
 40
0.4394942459497885
 50
93.690468061901555
 51
180.00475247008822
  0
ARC
  8
_0-0_
  6
CONTINUOUS
 62
    7
 10
4.4149959099246843
 20
1.7406594413306209
 40
0.5213908053298806
 50
167.40196526053833
 51
249.8189540713899
  0
ARC
  8
_0-0_
  6
CONTINUOUS
 62
    7
 10
4.0905774772825936
 20
1.8930082761115585
 40
0.6578074572618325
 50
282.69361944138331
 51
307.99873244251046
  0
ARC
  8
_0-0_
  6
CONTINUOUS
 62
    7
 10
3.9836802446667292
 20
-1.1399360699752634
 40
1.1978052404624406
 50
82.697813710875337
 51
145.35519944648337
  0
ARC
  8
_0-0_
  6
CONTINUOUS
 62
    7
 10
3.9796660944674471
 20
-0.8893943538823663
 40
1.0716376027059886
 50
156.32026712234159
 51
229.66896646149269
  0
ARC
  8
_0-0_
  6
CONTINUOUS
 62
    7
 10
3.6171280543472477
 20
-0.6950707936358355
 40
1.0640539583987771
 50
251.87437507963716
 51
299.18070522367594
  0
ARC
  8
_0-0_
  6
CONTINUOUS
 62
    7
 10
4.2547169715329431
 20
-1.6492109793969263
 40
0.1214215502129139
 50
94.316027519885949
 51
168.05582281153374
  0
ARC
  8
_0-0_
  6
CONTINUOUS
 62
    7
 10
3.8900757614274966
 20
-0.7879271773753373
 40
0.4394942459497885
 50
93.690468061901555
 51
180.00475247008822
  0
ARC
  8
_0-0_
  6
CONTINUOUS
 62
    7
 10
3.9594194443721307
 20
-0.9016840588742951
 40
0.5213908053298806
 50
167.40196526053833
 51
249.8189540713899
  0
ARC
  8
_0-0_
  6
CONTINUOUS
 62
    7
 10
3.6350010117300116
 20
-0.7493352240933575
 40
0.6578074572618325
 50
282.69361944138331
 51
307.99873244251046
  0
ARC
  8
_0-0_
  6
CONTINUOUS
 62
    7
 10
1.0679908651302981
 20
-1.3677243027515473
 40
1.1978052404624406
 50
82.697813710875337
 51
145.35519944648337
  0
ARC
  8
_0-0_
  6
CONTINUOUS
 62
    7
 10
1.0639767149310018
 20
-1.1171825866586502
 40
1.0716376027059886
 50
156.32026712234159
 51
229.66896646149269
  0
ARC
  8
_0-0_
  6
CONTINUOUS
 62
    7
 10
0.7014386748108023
 20
-0.9228590264121194
 40
1.0640539583987771
 50
251.87437507963716
 51
299.18070522367594
  0
ARC
  8
_0-0_
  6
CONTINUOUS
 62
    7
 10
1.339027591996512
 20
-1.8769992121732102
 40
0.1214215502129139
 50
94.316027519885949
 51
168.05582281153374
  0
ARC
  8
_0-0_
  6
CONTINUOUS
 62
    7
 10
0.9743863818910512
 20
-1.0157154101516213
 40
0.4394942459497885
 50
93.690468061901555
 51
180.00475247008822
  0
ARC
  8
_0-0_
  6
CONTINUOUS
 62
    7
 10
1.0437300648356711
 20
-1.1294722916505791
 40
0.5213908053298806
 50
167.40196526053833
 51
249.8189540713899
  0
ARC
  8
_0-0_
  6
CONTINUOUS
 62
    7
 10
0.7193116321935662
 20
-0.9771234568696414
 40
0.6578074572618325
 50
282.69361944138331
 51
307.99873244251046
  0
ARC
  8
_0-0_
  6
CONTINUOUS
 62
    7
 10
0.5668567530224635
 20
-4.1922983891774876
 40
1.1978052404624406
 50
82.697813710875337
 51
145.35519944648337
  0
ARC
  8
_0-0_
  6
CONTINUOUS
 62
    7
 10
0.5628426028231672
 20
-3.9417566730845905
 40
1.0716376027059886
 50
156.32026712234159
 51
229.66896646149269
  0
ARC
  8
_0-0_
  6
CONTINUOUS
 62
    7
 10
0.2003045627029678
 20
-3.7474331128380598
 40
1.0640539583987771
 50
251.87437507963716
 51
299.18070522367594
  0
ARC
  8
_0-0_
  6
CONTINUOUS
 62
    7
 10
0.8378934798886774
 20
-4.7015732985991505
 40
0.1214215502129139
 50
94.316027519885949
 51
168.05582281153374
  0
ARC
  8
_0-0_
  6
CONTINUOUS
 62
    7
 10
0.4732522697832166
 20
-3.8402894965775616
 40
0.4394942459497885
 50
93.690468061901555
 51
180.00475247008822
  0
ARC
  8
_0-0_
  6
CONTINUOUS
 62
    7
 10
0.5425959527278365
 20
-3.9540463780765194
 40
0.5213908053298806
 50
167.40196526053833
 51
249.8189540713899
  0
ARC
  8
_0-0_
  6
CONTINUOUS
 62
    7
 10
0.2181775200857316
 20
-3.8016975432955817
 40
0.6578074572618325
 50
282.69361944138331
 51
307.99873244251046
  0
ARC
  8
_0-0_
  6
CONTINUOUS
 62
    7
 10
2.0702590893459529
 20
-4.374528975398519
 40
1.1978052404624406
 50
82.697813710875337
 51
145.35519944648337
  0
ARC
  8
_0-0_
  6
CONTINUOUS
 62
    7
 10
2.0662449391466566
 20
-4.1239872593056219
 40
1.0716376027059886
 50
156.32026712234159
 51
229.66896646149269
  0
ARC
  8
_0-0_
  6
CONTINUOUS
 62
    7
 10
1.7037068990264572
 20
-3.9296636990590912
 40
1.0640539583987771
 50
251.87437507963716
 51
299.18070522367594
  0
ARC
  8
_0-0_
  6
CONTINUOUS
 62
    7
 10
2.3412958162121669
 20
-4.8838038848201819
 40
0.1214215502129139
 50
94.316027519885949
 51
168.05582281153374
  0
ARC
  8
_0-0_
  6
CONTINUOUS
 62
    7
 10
1.9766546061067061
 20
-4.022520082798593
 40
0.4394942459497885
 50
93.690468061901555
 51
180.00475247008822
  0
ARC
  8
_0-0_
  6
CONTINUOUS
 62
    7
 10
2.045998289051326
 20
-4.1362769642975508
 40
0.5213908053298806
 50
167.40196526053833
 51
249.8189540713899
  0
ARC
  8
_0-0_
  6
CONTINUOUS
 62
    7
 10
1.7215798564092211
 20
-3.9839281295166131
 40
0.6578074572618325
 50
282.69361944138331
 51
307.99873244251046
  0
ARC
  8
_0-0_
  6
CONTINUOUS
 62
    7
 10
3.5736614256694423
 20
-4.0556254495117159
 40
1.1978052404624406
 50
82.697813710875337
 51
145.35519944648337
  0
ARC
  8
_0-0_
  6
CONTINUOUS
 62
    7
 10
3.5696472754701318
 20
-3.8050837334188188
 40
1.0716376027059886
 50
156.32026712234159
 51
229.66896646149269
  0
ARC
  8
_0-0_
  6
CONTINUOUS
 62
    7
 10
3.2071092353499324
 20
-3.610760173172288
 40
1.0640539583987771
 50
251.87437507963716
 51
299.18070522367594
  0
ARC
  8
_0-0_
  6
CONTINUOUS
 62
    7
 10
3.8446981525356563
 20
-4.5649003589333788
 40
0.1214215502129139
 50
94.316027519885949
 51
168.05582281153374
  0
ARC
  8
_0-0_
  6
CONTINUOUS
 62
    7
 10
3.4800569424301813
 20
-3.7036165569117898
 40
0.4394942459497885
 50
93.690468061901555
 51
180.00475247008822
  0
ARC
  8
_0-0_
  6
CONTINUOUS
 62
    7
 10
3.549400625374787
 20
-3.8173734384107476
 40
0.5213908053298806
 50
167.40196526053833
 51
249.8189540713899
  0
ARC
  8
_0-0_
  6
CONTINUOUS
 62
    7
 10
3.2249821927326963
 20
-3.66502460362981
 40
0.6578074572618325
 50
282.69361944138331
 51
307.99873244251046
  0
ARC
  8
_0-0_
  6
CONTINUOUS
 62
    7
 10
2.8902967273405551
 20
-7.3357760014902311
 40
1.1978052404624406
 50
82.697813710875337
 51
145.35519944648337
  0
ARC
  8
_0-0_
  6
CONTINUOUS
 62
    7
 10
2.886282577141273
 20
-7.085234285397334
 40
1.0716376027059886
 50
156.32026712234159
 51
229.66896646149269
  0
ARC
  8
_0-0_
  6
CONTINUOUS
 62
    7
 10
2.5237445370210736
 20
-6.8909107251508033
 40
1.0640539583987771
 50
251.87437507963716
 51
299.18070522367594
  0
ARC
  8
_0-0_
  6
CONTINUOUS
 62
    7
 10
3.161333454206769
 20
-7.845050910911894
 40
0.1214215502129139
 50
94.316027519885949
 51
168.05582281153374
  0
ARC
  8
_0-0_
  6
CONTINUOUS
 62
    7
 10
2.7966922441013224
 20
-6.9837671088903051
 40
0.4394942459497885
 50
93.690468061901555
 51
180.00475247008822
  0
ARC
  8
_0-0_
  6
CONTINUOUS
 62
    7
 10
2.8660359270459566
 20
-7.0975239903892628
 40
0.5213908053298806
 50
167.40196526053833
 51
249.8189540713899
  0
ARC
  8
_0-0_
  6
CONTINUOUS
 62
    7
 10
2.5416174944038374
 20
-6.9451751556083252
 40
0.6578074572618325
 50
282.69361944138331
 51
307.99873244251046
  0
ARC
  8
_0-0_
  6
CONTINUOUS
 62
    7
 10
1.2957790979065749
 20
-6.5612960100508602
 40
1.1978052404624406
 50
82.697813710875337
 51
145.35519944648337
  0
ARC
  8
_0-0_
  6
CONTINUOUS
 62
    7
 10
1.2917649477072786
 20
-6.3107542939579631
 40
1.0716376027059886
 50
156.32026712234159
 51
229.66896646149269
  0
ARC
  8
_0-0_
  6
CONTINUOUS
 62
    7
 10
0.9292269075870791
 20
-6.1164307337114323
 40
1.0640539583987771
 50
251.87437507963716
 51
299.18070522367594
  0
ARC
  8
_0-0_
  6
CONTINUOUS
 62
    7
 10
1.5668158247727888
 20
-7.070570919472523
 40
0.1214215502129139
 50
94.316027519885949
 51
168.05582281153374
  0
ARC
  8
_0-0_
  6
CONTINUOUS
 62
    7
 10
1.202174614667328
 20
-6.2092871174509341
 40
0.4394942459497885
 50
93.690468061901555
 51
180.00475247008822
  0
ARC
  8
_0-0_
  6
CONTINUOUS
 62
    7
 10
1.2715182976119479
 20
-6.3230439989498919
 40
0.5213908053298806
 50
167.40196526053833
 51
249.8189540713899
  0
ARC
  8
_0-0_
  6
CONTINUOUS
 62
    7
 10
0.947099864969843
 20
-6.1706951641689542
 40
0.6578074572618325
 50
282.69361944138331
 51
307.99873244251046
  0
ARC
  8
_0-0_
  6
CONTINUOUS
 62
    7
 10
-0.025392652195876
 20
-6.8346418893824037
 40
1.1978052404624406
 50
82.697813710875337
 51
145.35519944648337
  0
ARC
  8
_0-0_
  6
CONTINUOUS
 62
    7
 10
-0.0294068023951723
 20
-6.5841001732895066
 40
1.0716376027059886
 50
156.32026712234159
 51
229.66896646149269
  0
ARC
  8
_0-0_
  6
CONTINUOUS
 62
    7
 10
-0.3919448425153717
 20
-6.3897766130429758
 40
1.0640539583987771
 50
251.87437507963716
 51
299.18070522367594
  0
ARC
  8
_0-0_
  6
CONTINUOUS
 62
    7
 10
0.2456440746703378
 20
-7.3439167988040666
 40
0.1214215502129139
 50
94.316027519885949
 51
168.05582281153374
  0
ARC
  8
_0-0_
  6
CONTINUOUS
 62
    7
 10
-0.1189971354351229
 20
-6.4826329967824776
 40
0.4394942459497885
 50
93.690468061901555
 51
180.00475247008822
  0
ARC
  8
_0-0_
  6
CONTINUOUS
 62
    7
 10
-0.049653452490503
 20
-6.5963898782814354
 40
0.5213908053298806
 50
167.40196526053833
 51
249.8189540713899
  0
ARC
  8
_0-0_
  6
CONTINUOUS
 62
    7
 10
-0.3740718851326079
 20
-6.4440410435004978
 40
0.6578074572618325
 50
282.69361944138331
 51
307.99873244251046
  0
ARC
  8
_0-0_
  6
CONTINUOUS
 62
    7
 10
-0.6176420574142156
 20
-10.160350087916171
 40
1.1978052404624406
 50
82.697813710875337
 51
145.35519944648337
  0
ARC
  8
_0-0_
  6
CONTINUOUS
 62
    7
 10
-0.6216562076135119
 20
-9.9098083718232743
 40
1.0716376027059886
 50
156.32026712234159
 51
229.66896646149269
  0
ARC
  8
_0-0_
  6
CONTINUOUS
 62
    7
 10
-0.9841942477337113
 20
-9.7154848115767436
 40
1.0640539583987771
 50
251.87437507963716
 51
299.18070522367594
  0
ARC
  8
_0-0_
  6
CONTINUOUS
 62
    7
 10
-0.3466053305480016
 20
-10.669624997337834
 40
0.1214215502129139
 50
94.316027519885949
 51
168.05582281153374
  0
ARC
  8
_0-0_
  6
CONTINUOUS
 62
    7
 10
-0.7112465406534624
 20
-9.8083411953162454
 40
0.4394942459497885
 50
93.690468061901555
 51
180.00475247008822
  0
ARC
  8
_0-0_
  6
CONTINUOUS
 62
    7
 10
-0.6419028577088425
 20
-9.9220980768152032
 40
0.5213908053298806
 50
167.40196526053833
 51
249.8189540713899
  0
ARC
  8
_0-0_
  6
CONTINUOUS
 62
    7
 10
-0.9663212903509474
 20
-9.7697492420342655
 40
0.6578074572618325
 50
282.69361944138331
 51
307.99873244251046
  0
ARC
  8
_0-0_
  6
CONTINUOUS
 62
    7
 10
0.4757414599119442
 20
-11.162618312131833
 40
1.1978052404624406
 50
82.697813710875337
 51
145.35519944648337
  0
ARC
  8
_0-0_
  6
CONTINUOUS
 62
    7
 10
0.4717273097126479
 20
-10.912076596038936
 40
1.0716376027059886
 50
156.32026712234159
 51
229.66896646149269
  0
ARC
  8
_0-0_
  6
CONTINUOUS
 62
    7
 10
0.1091892695924485
 20
-10.717753035792406
 40
1.0640539583987771
 50
251.87437507963716
 51
299.18070522367594
  0
ARC
  8
_0-0_
  6
CONTINUOUS
 62
    7
 10
0.7467781867781582
 20
-11.671893221553496
 40
0.1214215502129139
 50
94.316027519885949
 51
168.05582281153374
  0
ARC
  8
_0-0_
  6
CONTINUOUS
 62
    7
 10
0.3821369766726974
 20
-10.810609419531907
 40
0.4394942459497885
 50
93.690468061901555
 51
180.00475247008822
  0
ARC
  8
_0-0_
  6
CONTINUOUS
 62
    7
 10
0.4514806596173173
 20
-10.924366301030865
 40
0.5213908053298806
 50
167.40196526053833
 51
249.8189540713899
  0
ARC
  8
_0-0_
  6
CONTINUOUS
 62
    7
 10
0.1270622269752124
 20
-10.772017466249928
 40
0.6578074572618325
 50
282.69361944138331
 51
307.99873244251046
  0
ARC
  8
_0-0_
  6
CONTINUOUS
 62
    7
 10
2.3436049686774965
 20
-9.7047736223635965
 40
1.1978052404624406
 50
82.697813710875337
 51
145.35519944648337
  0
ARC
  8
_0-0_
  6
CONTINUOUS
 62
    7
 10
2.3395908184782002
 20
-9.4542319062706994
 40
1.0716376027059886
 50
156.32026712234159
 51
229.66896646149269
  0
ARC
  8
_0-0_
  6
CONTINUOUS
 62
    7
 10
1.9770527783580008
 20
-9.2599083460241687
 40
1.0640539583987771
 50
251.87437507963716
 51
299.18070522367594
  0
ARC
  8
_0-0_
  6
CONTINUOUS
 62
    7
 10
2.6146416955437104
 20
-10.214048531785259
 40
0.1214215502129139
 50
94.316027519885949
 51
168.05582281153374
  0
ARC
  8
_0-0_
  6
CONTINUOUS
 62
    7
 10
2.2500004854382496
 20
-9.3527647297636705
 40
0.4394942459497885
 50
93.690468061901555
 51
180.00475247008822
  0
ARC
  8
_0-0_
  6
CONTINUOUS
 62
    7
 10
2.3193441683828695
 20
-9.4665216112626283
 40
0.5213908053298806
 50
167.40196526053833
 51
249.8189540713899
  0
ARC
  8
_0-0_
  6
CONTINUOUS
 62
    7
 10
1.9949257357407646
 20
-9.3141727764816906
 40
0.6578074572618325
 50
282.69361944138331
 51
307.99873244251046
  0
ARC
  8
_0-0_
  6
CONTINUOUS
 62
    7
 10
1.9335861496801812
 20
-12.848251234676347
 40
1.1978052404624406
 50
82.697813710875337
 51
145.35519944648337
  0
ARC
  8
_0-0_
  6
CONTINUOUS
 62
    7
 10
1.9295719994808849
 20
-12.59770951858345
 40
1.0716376027059886
 50
156.32026712234159
 51
229.66896646149269
  0
ARC
  8
_0-0_
  6
CONTINUOUS
 62
    7
 10
1.5670339593606855
 20
-12.403385958336919
 40
1.0640539583987771
 50
251.87437507963716
 51
299.18070522367594
  0
ARC
  8
_0-0_
  6
CONTINUOUS
 62
    7
 10
2.2046228765463951
 20
-13.35752614409801
 40
0.1214215502129139
 50
94.316027519885949
 51
168.05582281153374
  0
ARC
  8
_0-0_
  6
CONTINUOUS
 62
    7
 10
1.8399816664409343
 20
-12.496242342076421
 40
0.4394942459497885
 50
93.690468061901555
 51
180.00475247008822
  0
ARC
  8
_0-0_
  6
CONTINUOUS
 62
    7
 10
1.9093253493855542
 20
-12.609999223575379
 40
0.5213908053298806
 50
167.40196526053833
 51
249.8189540713899
  0
ARC
  8
_0-0_
  6
CONTINUOUS
 62
    7
 10
1.5849069167434493
 20
-12.457650388794441
 40
0.6578074572618325
 50
282.69361944138331
 51
307.99873244251046
  0
ARC
  8
_0-0_
  6
CONTINUOUS
 62
    7
 10
0.3846261668014392
 20
-14.169422984778798
 40
1.1978052404624406
 50
82.697813710875337
 51
145.35519944648337
  0
ARC
  8
_0-0_
  6
CONTINUOUS
 62
    7
 10
0.3806120166021429
 20
-13.918881268685901
 40
1.0716376027059886
 50
156.32026712234159
 51
229.66896646149269
  0
ARC
  8
_0-0_
  6
CONTINUOUS
 62
    7
 10
0.0180739764819435
 20
-13.72455770843937
 40
1.0640539583987771
 50
251.87437507963716
 51
299.18070522367594
  0
ARC
  8
_0-0_
  6
CONTINUOUS
 62
    7
 10
0.6556628936676531
 20
-14.678697894200461
 40
0.1214215502129139
 50
94.316027519885949
 51
168.05582281153374
  0
ARC
  8
_0-0_
  6
CONTINUOUS
 62
    7
 10
0.2910216835621923
 20
-13.817414092178872
 40
0.4394942459497885
 50
93.690468061901555
 51
180.00475247008822
  0
ARC
  8
_0-0_
  6
CONTINUOUS
 62
    7
 10
0.3603653665068122
 20
-13.93117097367783
 40
0.5213908053298806
 50
167.40196526053833
 51
249.8189540713899
  0
ARC
  8
_0-0_
  6
CONTINUOUS
 62
    7
 10
0.0359469338647073
 20
-13.778822138896892
 40
0.6578074572618325
 50
282.69361944138331
 51
307.99873244251046
  0
ARC
  8
_0-0_
  6
CONTINUOUS
 62
    7
 10
-0.8454302901905066
 20
-12.984924174342119
 40
1.1978052404624406
 50
82.697813710875337
 51
145.35519944648337
  0
ARC
  8
_0-0_
  6
CONTINUOUS
 62
    7
 10
-0.8494444403898029
 20
-12.734382458249222
 40
1.0716376027059886
 50
156.32026712234159
 51
229.66896646149269
  0
ARC
  8
_0-0_
  6
CONTINUOUS
 62
    7
 10
-1.2119824805100023
 20
-12.540058898002691
 40
1.0640539583987771
 50
251.87437507963716
 51
299.18070522367594
  0
ARC
  8
_0-0_
  6
CONTINUOUS
 62
    7
 10
-0.5743935633242927
 20
-13.494199083763782
 40
0.1214215502129139
 50
94.316027519885949
 51
168.05582281153374
  0
ARC
  8
_0-0_
  6
CONTINUOUS
 62
    7
 10
-0.9390347734297535
 20
-12.632915281742193
 40
0.4394942459497885
 50
93.690468061901555
 51
180.00475247008822
  0
ARC
  8
_0-0_
  6
CONTINUOUS
 62
    7
 10
-0.8696910904851336
 20
-12.746672163241151
 40
0.5213908053298806
 50
167.40196526053833
 51
249.8189540713899
  0
ARC
  8
_0-0_
  6
CONTINUOUS
 62
    7
 10
-1.1941095231272385
 20
-12.594323328460213
 40
0.6578074572618325
 50
282.69361944138331
 51
307.99873244251046
  0
ARC
  8
_0-0_
  6
CONTINUOUS
 62
    7
 10
-5.9023290578240477
 20
-12.119328889792229
 40
1.1978052404624406
 50
82.697813710875337
 51
145.35519944648337
  0
ARC
  8
_0-0_
  6
CONTINUOUS
 62
    7
 10
-5.906343208023344
 20
-11.868787173699332
 40
1.0716376027059886
 50
156.32026712234159
 51
229.66896646149269
  0
ARC
  8
_0-0_
  6
CONTINUOUS
 62
    7
 10
-6.2688812481435434
 20
-11.674463613452801
 40
1.0640539583987771
 50
251.87437507963716
 51
299.18070522367594
  0
ARC
  8
_0-0_
  6
CONTINUOUS
 62
    7
 10
-5.6312923309578338
 20
-12.628603799213892
 40
0.1214215502129139
 50
94.316027519885949
 51
168.05582281153374
  0
ARC
  8
_0-0_
  6
CONTINUOUS
 62
    7
 10
-5.9959335410632946
 20
-11.767319997192303
 40
0.4394942459497885
 50
93.690468061901555
 51
180.00475247008822
  0
ARC
  8
_0-0_
  6
CONTINUOUS
 62
    7
 10
-5.9265898581186747
 20
-11.88107687869126
 40
0.5213908053298806
 50
167.40196526053833
 51
249.8189540713899
  0
ARC
  8
_0-0_
  6
CONTINUOUS
 62
    7
 10
-6.2510082907607796
 20
-11.728728043910323
 40
0.6578074572618325
 50
282.69361944138331
 51
307.99873244251046
  0
ARC
  8
_0-0_
  6
CONTINUOUS
 62
    7
 10
-7.3146161010370179
 20
-13.303827700228915
 40
1.1978052404624406
 50
82.697813710875337
 51
145.35519944648337
  0
ARC
  8
_0-0_
  6
CONTINUOUS
 62
    7
 10
-7.3186302512363142
 20
-13.053285984136018
 40
1.0716376027059886
 50
156.32026712234159
 51
229.66896646149269
  0
ARC
  8
_0-0_
  6
CONTINUOUS
 62
    7
 10
-7.6811682913565136
 20
-12.858962423889487
 40
1.0640539583987771
 50
251.87437507963716
 51
299.18070522367594
  0
ARC
  8
_0-0_
  6
CONTINUOUS
 62
    7
 10
-7.0435793741708039
 20
-13.813102609650578
 40
0.1214215502129139
 50
94.316027519885949
 51
168.05582281153374
  0
ARC
  8
_0-0_
  6
CONTINUOUS
 62
    7
 10
-7.4082205842762647
 20
-12.951818807628989
 40
0.4394942459497885
 50
93.690468061901555
 51
180.00475247008822
  0
ARC
  8
_0-0_
  6
CONTINUOUS
 62
    7
 10
-7.3388769013316448
 20
-13.065575689127947
 40
0.5213908053298806
 50
167.40196526053833
 51
249.8189540713899
  0
ARC
  8
_0-0_
  6
CONTINUOUS
 62
    7
 10
-7.6632953339737497
 20
-12.913226854347009
 40
0.6578074572618325
 50
282.69361944138331
 51
307.99873244251046
  0
ARC
  8
_0-0_
  6
CONTINUOUS
 62
    7
 10
-8.499114911473697
 20
-12.073771243236969
 40
1.1978052404624406
 50
82.697813710875337
 51
145.35519944648337
  0
ARC
  8
_0-0_
  6
CONTINUOUS
 62
    7
 10
-8.5031290616729933
 20
-11.823229527144072
 40
1.0716376027059886
 50
156.32026712234159
 51
229.66896646149269
  0
ARC
  8
_0-0_
  6
CONTINUOUS
 62
    7
 10
-8.8656671017931927
 20
-11.628905966897541
 40
1.0640539583987771
 50
251.87437507963716
 51
299.18070522367594
  0
ARC
  8
_0-0_
  6
CONTINUOUS
 62
    7
 10
-8.2280781846074831
 20
-12.583046152658632
 40
0.1214215502129139
 50
94.316027519885949
 51
168.05582281153374
  0
ARC
  8
_0-0_
  6
CONTINUOUS
 62
    7
 10
-8.5927193947129439
 20
-11.721762350637043
 40
0.4394942459497885
 50
93.690468061901555
 51
180.00475247008822
  0
ARC
  8
_0-0_
  6
CONTINUOUS
 62
    7
 10
-8.523375711768324
 20
-11.835519232136001
 40
0.5213908053298806
 50
167.40196526053833
 51
249.8189540713899
  0
ARC
  8
_0-0_
  6
CONTINUOUS
 62
    7
 10
-8.8477941444104289
 20
-11.683170397355063
 40
0.6578074572618325
 50
282.69361944138331
 51
307.99873244251046
  0
ARC
  8
_0-0_
  6
CONTINUOUS
 62
    7
 10
-7.2235008079264986
 20
-10.297023027581943
 40
1.1978052404624406
 50
82.697813710875337
 51
145.35519944648337
  0
ARC
  8
_0-0_
  6
CONTINUOUS
 62
    7
 10
-7.2275149581257949
 20
-10.046481311489046
 40
1.0716376027059886
 50
156.32026712234159
 51
229.66896646149269
  0
ARC
  8
_0-0_
  6
CONTINUOUS
 62
    7
 10
-7.5900529982459943
 20
-9.8521577512425154
 40
1.0640539583987771
 50
251.87437507963716
 51
299.18070522367594
  0
ARC
  8
_0-0_
  6
CONTINUOUS
 62
    7
 10
-6.9524640810602847
 20
-10.806297937003606
 40
0.1214215502129139
 50
94.316027519885949
 51
168.05582281153374
  0
ARC
  8
_0-0_
  6
CONTINUOUS
 62
    7
 10
-7.3171052911657455
 20
-9.9450141349820171
 40
0.4394942459497885
 50
93.690468061901555
 51
180.00475247008822
  0
ARC
  8
_0-0_
  6
CONTINUOUS
 62
    7
 10
-7.2477616082211256
 20
-10.058771016480975
 40
0.5213908053298806
 50
167.40196526053833
 51
249.8189540713899
  0
ARC
  8
_0-0_
  6
CONTINUOUS
 62
    7
 10
-7.5721800408632305
 20
-9.9064221817000373
 40
0.6578074572618325
 50
282.69361944138331
 51
307.99873244251046
  0
ARC
  8
_0-0_
  6
CONTINUOUS
 62
    7
 10
-8.0890960924763817
 20
-9.2036395102557762
 40
1.1978052404624406
 50
82.697813710875337
 51
145.35519944648337
  0
ARC
  8
_0-0_
  6
CONTINUOUS
 62
    7
 10
-8.093110242675678
 20
-8.9530977941628791
 40
1.0716376027059886
 50
156.32026712234159
 51
229.66896646149269
  0
ARC
  8
_0-0_
  6
CONTINUOUS
 62
    7
 10
-8.4556482827958774
 20
-8.7587742339163484
 40
1.0640539583987771
 50
251.87437507963716
 51
299.18070522367594
  0
ARC
  8
_0-0_
  6
CONTINUOUS
 62
    7
 10
-7.8180593656101678
 20
-9.7129144196774391
 40
0.1214215502129139
 50
94.316027519885949
 51
168.05582281153374
  0
ARC
  8
_0-0_
  6
CONTINUOUS
 62
    7
 10
-8.1827005757156286
 20
-8.8516306176558501
 40
0.4394942459497885
 50
93.690468061901555
 51
180.00475247008822
  0
ARC
  8
_0-0_
  6
CONTINUOUS
 62
    7
 10
-8.1133568927710087
 20
-8.9653874991548079
 40
0.5213908053298806
 50
167.40196526053833
 51
249.8189540713899
  0
ARC
  8
_0-0_
  6
CONTINUOUS
 62
    7
 10
-8.4377753254131136
 20
-8.8130386643738703
 40
0.6578074572618325
 50
282.69361944138331
 51
307.99873244251046
  0
ARC
  8
_0-0_
  6
CONTINUOUS
 62
    7
 10
-5.6745408250477567
 20
-9.4314277430320601
 40
1.1978052404624406
 50
82.697813710875337
 51
145.35519944648337
  0
ARC
  8
_0-0_
  6
CONTINUOUS
 62
    7
 10
-5.678554975247053
 20
-9.180886026939163
 40
1.0716376027059886
 50
156.32026712234159
 51
229.66896646149269
  0
ARC
  8
_0-0_
  6
CONTINUOUS
 62
    7
 10
-6.0410930153672524
 20
-8.9865624666926323
 40
1.0640539583987771
 50
251.87437507963716
 51
299.18070522367594
  0
ARC
  8
_0-0_
  6
CONTINUOUS
 62
    7
 10
-5.4035040981815428
 20
-9.940702652453723
 40
0.1214215502129139
 50
94.316027519885949
 51
168.05582281153374
  0
ARC
  8
_0-0_
  6
CONTINUOUS
 62
    7
 10
-5.7681453082870036
 20
-9.079418850432134
 40
0.4394942459497885
 50
93.690468061901555
 51
180.00475247008822
  0
ARC
  8
_0-0_
  6
CONTINUOUS
 62
    7
 10
-5.6988016253423837
 20
-9.1931757319310918
 40
0.5213908053298806
 50
167.40196526053833
 51
249.8189540713899
  0
ARC
  8
_0-0_
  6
CONTINUOUS
 62
    7
 10
-6.0232200579844886
 20
-9.0408268971501542
 40
0.6578074572618325
 50
282.69361944138331
 51
307.99873244251046
  0
ARC
  8
_0-0_
  6
CONTINUOUS
 62
    7
 10
-5.1379575329940081
 20
-6.6771297741346061
 40
1.0480795854046356
 50
82.697813710875337
 51
145.35519944648337
  0
ARC
  8
_0-0_
  6
CONTINUOUS
 62
    7
 10
-5.1414699144184084
 20
-6.4579057725533104
 40
0.9376829023677401
 50
156.32026712234159
 51
229.66896646149269
  0
ARC
  8
_0-0_
  6
CONTINUOUS
 62
    7
 10
-5.4586906995235722
 20
-6.2878726573376085
 40
0.93104721359893
 50
251.87437507963716
 51
299.18070522367594
  0
ARC
  8
_0-0_
  6
CONTINUOUS
 62
    7
 10
-4.900800396986071
 20
-7.1227453198785682
 40
0.1062438564362997
 50
94.316027519885949
 51
168.05582281153374
  0
ARC
  8
_0-0_
  6
CONTINUOUS
 62
    7
 10
-5.2198614558283651
 20
-6.3691219931096654
 40
0.3845574652060649
 50
93.690468061901555
 51
180.00475247008822
  0
ARC
  8
_0-0_
  6
CONTINUOUS
 62
    7
 10
-5.1591857332518174
 20
-6.4686592644212553
 40
0.4562169546636456
 50
167.40196526053833
 51
249.8189540713899
  0
ARC
  8
_0-0_
  6
CONTINUOUS
 62
    7
 10
-5.4430518618136432
 20
-6.3353540339879331
 40
0.5755815251041035
 50
282.69361944138331
 51
307.99873244251046
  0
ARC
  8
_0-0_
  6
CONTINUOUS
 62
    7
 10
-6.3224563434306873
 20
-6.2215533085820383
 40
1.0480795854046356
 50
82.697813710875337
 51
145.35519944648337
  0
ARC
  8
_0-0_
  6
CONTINUOUS
 62
    7
 10
-6.3259687248550875
 20
-6.0023293070007426
 40
0.9376829023677401
 50
156.32026712234159
 51
229.66896646149269
  0
ARC
  8
_0-0_
  6
CONTINUOUS
 62
    7
 10
-6.6431895099602514
 20
-5.8322961917850407
 40
0.93104721359893
 50
251.87437507963716
 51
299.18070522367594
  0
ARC
  8
_0-0_
  6
CONTINUOUS
 62
    7
 10
-6.0852992074227501
 20
-6.6671688543260004
 40
0.1062438564362997
 50
94.316027519885949
 51
168.05582281153374
  0
ARC
  8
_0-0_
  6
CONTINUOUS
 62
    7
 10
-6.4043602662650443
 20
-5.9135455275570976
 40
0.3845574652060649
 50
93.690468061901555
 51
180.00475247008822
  0
ARC
  8
_0-0_
  6
CONTINUOUS
 62
    7
 10
-6.3436845436884965
 20
-6.0130827988686875
 40
0.4562169546636456
 50
167.40196526053833
 51
249.8189540713899
  0
ARC
  8
_0-0_
  6
CONTINUOUS
 62
    7
 10
-6.6275506722503224
 20
-5.8797775684353653
 40
0.5755815251041035
 50
282.69361944138331
 51
307.99873244251046
  0
ARC
  8
_0-0_
  6
CONTINUOUS
 62
    7
 10
-7.5069551538673807
 20
-6.4037838948030625
 40
1.0480795854046356
 50
82.697813710875337
 51
145.35519944648337
  0
ARC
  8
_0-0_
  6
CONTINUOUS
 62
    7
 10
-7.5104675352917809
 20
-6.1845598932217669
 40
0.9376829023677401
 50
156.32026712234159
 51
229.66896646149269
  0
ARC
  8
_0-0_
  6
CONTINUOUS
 62
    7
 10
-7.8276883203969447
 20
-6.0145267780060649
 40
0.93104721359893
 50
251.87437507963716
 51
299.18070522367594
  0
ARC
  8
_0-0_
  6
CONTINUOUS
 62
    7
 10
-7.2697980178594435
 20
-6.8493994405470247
 40
0.1062438564362997
 50
94.316027519885949
 51
168.05582281153374
  0
ARC
  8
_0-0_
  6
CONTINUOUS
 62
    7
 10
-7.5888590767017376
 20
-6.0957761137781219
 40
0.3845574652060649
 50
93.690468061901555
 51
180.00475247008822
  0
ARC
  8
_0-0_
  6
CONTINUOUS
 62
    7
 10
-7.5281833541251899
 20
-6.1953133850897117
 40
0.4562169546636456
 50
167.40196526053833
 51
249.8189540713899
  0
ARC
  8
_0-0_
  6
CONTINUOUS
 62
    7
 10
-7.8120494826870157
 20
-6.0620081546563895
 40
0.5755815251041035
 50
282.69361944138331
 51
307.99873244251046
  0
ARC
  8
_0-0_
  6
CONTINUOUS
 62
    7
 10
-7.2336092745358371
 20
-3.8981133342639183
 40
1.0480795854046356
 50
82.697813710875337
 51
145.35519944648337
  0
ARC
  8
_0-0_
  6
CONTINUOUS
 62
    7
 10
-7.2371216559602374
 20
-3.6788893326826226
 40
0.9376829023677401
 50
156.32026712234159
 51
229.66896646149269
  0
ARC
  8
_0-0_
  6
CONTINUOUS
 62
    7
 10
-7.5543424410654012
 20
-3.5088562174669207
 40
0.93104721359893
 50
251.87437507963716
 51
299.18070522367594
  0
ARC
  8
_0-0_
  6
CONTINUOUS
 62
    7
 10
-6.9964521385278999
 20
-4.3437288800078804
 40
0.1062438564362997
 50
94.316027519885949
 51
168.05582281153374
  0
ARC
  8
_0-0_
  6
CONTINUOUS
 62
    7
 10
-7.3155131973701941
 20
-3.5901055532389776
 40
0.3845574652060649
 50
93.690468061901555
 51
180.00475247008822
  0
ARC
  8
_0-0_
  6
CONTINUOUS
 62
    7
 10
-7.2548374747936464
 20
-3.6896428245505675
 40
0.4562169546636456
 50
167.40196526053833
 51
249.8189540713899
  0
ARC
  8
_0-0_
  6
CONTINUOUS
 62
    7
 10
-7.5387036033554722
 20
-3.5563375941172453
 40
0.5755815251041035
 50
282.69361944138331
 51
307.99873244251046
  0
ARC
  8
_0-0_
  6
CONTINUOUS
 62
    7
 10
-5.9124375244333862
 20
-4.3081321532612336
 40
1.0480795854046356
 50
82.697813710875337
 51
145.35519944648337
  0
ARC
  8
_0-0_
  6
CONTINUOUS
 62
    7
 10
-5.9159499058577865
 20
-4.0889081516799379
 40
0.9376829023677401
 50
156.32026712234159
 51
229.66896646149269
  0
ARC
  8
_0-0_
  6
CONTINUOUS
 62
    7
 10
-6.2331706909629503
 20
-3.918875036464236
 40
0.93104721359893
 50
251.87437507963716
 51
299.18070522367594
  0
ARC
  8
_0-0_
  6
CONTINUOUS
 62
    7
 10
-5.675280388425449
 20
-4.7537476990051957
 40
0.1062438564362997
 50
94.316027519885949
 51
168.05582281153374
  0
ARC
  8
_0-0_
  6
CONTINUOUS
 62
    7
 10
-5.9943414472677432
 20
-4.0001243722362929
 40
0.3845574652060649
 50
93.690468061901555
 51
180.00475247008822
  0
ARC
  8
_0-0_
  6
CONTINUOUS
 62
    7
 10
-5.9336657246911955
 20
-4.0996616435478828
 40
0.4562169546636456
 50
167.40196526053833
 51
249.8189540713899
  0
ARC
  8
_0-0_
  6
CONTINUOUS
 62
    7
 10
-6.2175318532530213
 20
-3.9663564131145606
 40
0.5755815251041035
 50
282.69361944138331
 51
307.99873244251046
  0
ARC
  8
_0-0_
  6
CONTINUOUS
 62
    7
 10
-4.5912657743309211
 20
-3.8525556877086657
 40
1.0480795854046356
 50
82.697813710875337
 51
145.35519944648337
  0
ARC
  8
_0-0_
  6
CONTINUOUS
 62
    7
 10
-4.5947781557553213
 20
-3.6333316861273701
 40
0.9376829023677401
 50
156.32026712234159
 51
229.66896646149269
  0
ARC
  8
_0-0_
  6
CONTINUOUS
 62
    7
 10
-4.9119989408604852
 20
-3.4632985709116682
 40
0.93104721359893
 50
251.87437507963716
 51
299.18070522367594
  0
ARC
  8
_0-0_
  6
CONTINUOUS
 62
    7
 10
-4.3541086383229839
 20
-4.2981712334526279
 40
0.1062438564362997
 50
94.316027519885949
 51
168.05582281153374
  0
ARC
  8
_0-0_
  6
CONTINUOUS
 62
    7
 10
-4.6731696971652781
 20
-3.5445479066837251
 40
0.3845574652060649
 50
93.690468061901555
 51
180.00475247008822
  0
ARC
  8
_0-0_
  6
CONTINUOUS
 62
    7
 10
-4.6124939745887303
 20
-3.644085177995315
 40
0.4562169546636456
 50
167.40196526053833
 51
249.8189540713899
  0
ARC
  8
_0-0_
  6
CONTINUOUS
 62
    7
 10
-4.8963601031505561
 20
-3.5107799475619927
 40
0.5755815251041035
 50
282.69361944138331
 51
307.99873244251046
  0
ARC
  8
_0-0_
  6
CONTINUOUS
 62
    7
 10
-3.9990163691125815
 20
-1.3013274806142689
 40
1.0480795854046356
 50
82.697813710875337
 51
145.35519944648337
  0
ARC
  8
_0-0_
  6
CONTINUOUS
 62
    7
 10
-4.0025287505369818
 20
-1.0821034790329733
 40
0.9376829023677401
 50
156.32026712234159
 51
229.66896646149269
  0
ARC
  8
_0-0_
  6
CONTINUOUS
 62
    7
 10
-4.3197495356421456
 20
-0.9120703638172713
 40
0.93104721359893
 50
251.87437507963716
 51
299.18070522367594
  0
ARC
  8
_0-0_
  6
CONTINUOUS
 62
    7
 10
-3.7618592331046443
 20
-1.7469430263582311
 40
0.1062438564362997
 50
94.316027519885949
 51
168.05582281153374
  0
ARC
  8
_0-0_
  6
CONTINUOUS
 62
    7
 10
-4.0809202919469385
 20
-0.9933196995893283
 40
0.3845574652060649
 50
93.690468061901555
 51
180.00475247008822
  0
ARC
  8
_0-0_
  6
CONTINUOUS
 62
    7
 10
-4.0202445693703908
 20
-1.0928569709009182
 40
0.4562169546636456
 50
167.40196526053833
 51
249.8189540713899
  0
ARC
  8
_0-0_
  6
CONTINUOUS
 62
    7
 10
-4.3041106979322166
 20
-0.9595517404675959
 40
0.5755815251041035
 50
282.69361944138331
 51
307.99873244251046
  0
ARC
  8
_0-0_
  6
CONTINUOUS
 62
    7
 10
-6.1857834037649297
 20
-1.3924427737247811
 40
1.0480795854046356
 50
82.697813710875337
 51
145.35519944648337
  0
ARC
  8
_0-0_
  6
CONTINUOUS
 62
    7
 10
-6.18929578518933
 20
-1.1732187721434855
 40
0.9376829023677401
 50
156.32026712234159
 51
229.66896646149269
  0
ARC
  8
_0-0_
  6
CONTINUOUS
 62
    7
 10
-6.5065165702944938
 20
-1.0031856569277835
 40
0.93104721359893
 50
251.87437507963716
 51
299.18070522367594
  0
ARC
  8
_0-0_
  6
CONTINUOUS
 62
    7
 10
-5.9486262677569925
 20
-1.8380583194687432
 40
0.1062438564362997
 50
94.316027519885949
 51
168.05582281153374
  0
ARC
  8
_0-0_
  6
CONTINUOUS
 62
    7
 10
-6.2676873265992867
 20
-1.0844349926998404
 40
0.3845574652060649
 50
93.690468061901555
 51
180.00475247008822
  0
ARC
  8
_0-0_
  6
CONTINUOUS
 62
    7
 10
-6.207011604022739
 20
-1.1839722640114303
 40
0.4562169546636456
 50
167.40196526053833
 51
249.8189540713899
  0
ARC
  8
_0-0_
  6
CONTINUOUS
 62
    7
 10
-6.4908777325845648
 20
-1.0506670335781081
 40
0.5755815251041035
 50
282.69361944138331
 51
307.99873244251046
  0
ARC
  8
_0-0_
  6
CONTINUOUS
 62
    7
 10
-5.821322231322867
 20
1.3410160195906471
 40
1.0480795854046356
 50
82.697813710875337
 51
145.35519944648337
  0
ARC
  8
_0-0_
  6
CONTINUOUS
 62
    7
 10
-5.8248346127472672
 20
1.5602400211719427
 40
0.9376829023677401
 50
156.32026712234159
 51
229.66896646149269
  0
ARC
  8
_0-0_
  6
CONTINUOUS
 62
    7
 10
-6.142055397852431
 20
1.7302731363876447
 40
0.93104721359893
 50
251.87437507963716
 51
299.18070522367594
  0
ARC
  8
_0-0_
  6
CONTINUOUS
 62
    7
 10
-5.5841650953149298
 20
0.8954004738466849
 40
0.1062438564362997
 50
94.316027519885949
 51
168.05582281153374
  0
ARC
  8
_0-0_
  6
CONTINUOUS
 62
    7
 10
-5.903226154157224
 20
1.6490238006155877
 40
0.3845574652060649
 50
93.690468061901555
 51
180.00475247008822
  0
ARC
  8
_0-0_
  6
CONTINUOUS
 62
    7
 10
-5.8425504315806762
 20
1.5494865293039979
 40
0.4562169546636456
 50
167.40196526053833
 51
249.8189540713899
  0
ARC
  8
_0-0_
  6
CONTINUOUS
 62
    7
 10
-6.126416560142502
 20
1.6827917597373201
 40
0.5755815251041035
 50
282.69361944138331
 51
307.99873244251046
  0
ARC
  8
_0-0_
  6
CONTINUOUS
 62
    7
 10
-3.5889975501152662
 20
1.4321313127011592
 40
1.0480795854046356
 50
82.697813710875337
 51
145.35519944648337
  0
ARC
  8
_0-0_
  6
CONTINUOUS
 62
    7
 10
-3.5925099315396665
 20
1.6513553142824549
 40
0.9376829023677401
 50
156.32026712234159
 51
229.66896646149269
  0
ARC
  8
_0-0_
  6
CONTINUOUS
 62
    7
 10
-3.9097307166448303
 20
1.8213884294981568
 40
0.93104721359893
 50
251.87437507963716
 51
299.18070522367594
  0
ARC
  8
_0-0_
  6
CONTINUOUS
 62
    7
 10
-3.351840414107329
 20
0.9865157669571971
 40
0.1062438564362997
 50
94.316027519885949
 51
168.05582281153374
  0
ARC
  8
_0-0_
  6
CONTINUOUS
 62
    7
 10
-3.6709014729496232
 20
1.7401390937260999
 40
0.3845574652060649
 50
93.690468061901555
 51
180.00475247008822
  0
ARC
  8
_0-0_
  6
CONTINUOUS
 62
    7
 10
-3.6102257503730755
 20
1.64060182241451
 40
0.4562169546636456
 50
167.40196526053833
 51
249.8189540713899
  0
ARC
  8
_0-0_
  6
CONTINUOUS
 62
    7
 10
-3.8940918789349013
 20
1.7739070528478322
 40
0.5755815251041035
 50
282.69361944138331
 51
307.99873244251046
  0
ARC
  8
_0-0_
  6
CONTINUOUS
 62
    7
 10
-2.8145175586759024
 20
4.211147752571847
 40
1.0480795854046356
 50
82.697813710875337
 51
145.35519944648337
  0
ARC
  8
_0-0_
  6
CONTINUOUS
 62
    7
 10
-2.8180299401003026
 20
4.4303717541531427
 40
0.9376829023677401
 50
156.32026712234159
 51
229.66896646149269
  0
ARC
  8
_0-0_
  6
CONTINUOUS
 62
    7
 10
-3.1352507252054664
 20
4.6004048693688446
 40
0.93104721359893
 50
251.87437507963716
 51
299.18070522367594
  0
ARC
  8
_0-0_
  6
CONTINUOUS
 62
    7
 10
-2.5773604226679652
 20
3.7655322068278849
 40
0.1062438564362997
 50
94.316027519885949
 51
168.05582281153374
  0
ARC
  8
_0-0_
  6
CONTINUOUS
 62
    7
 10
-2.8964214815102594
 20
4.5191555335967877
 40
0.3845574652060649
 50
93.690468061901555
 51
180.00475247008822
  0
ARC
  8
_0-0_
  6
CONTINUOUS
 62
    7
 10
-2.8357457589337116
 20
4.4196182622851978
 40
0.4562169546636456
 50
167.40196526053833
 51
249.8189540713899
  0
ARC
  8
_0-0_
  6
CONTINUOUS
 62
    7
 10
-3.1196118874955374
 20
4.55292349271852
 40
0.5755815251041035
 50
282.69361944138331
 51
307.99873244251046
  0
ARC
  8
_0-0_
  6
CONTINUOUS
 62
    7
 10
-4.044574015667834
 20
4.0289171663508156
 40
1.0480795854046356
 50
82.697813710875337
 51
145.35519944648337
  0
ARC
  8
_0-0_
  6
CONTINUOUS
 62
    7
 10
-4.0480863970922343
 20
4.2481411679321113
 40
0.9376829023677401
 50
156.32026712234159
 51
229.66896646149269
  0
ARC
  8
_0-0_
  6
CONTINUOUS
 62
    7
 10
-4.3653071821973981
 20
4.4181742831478132
 40
0.93104721359893
 50
251.87437507963716
 51
299.18070522367594
  0
ARC
  8
_0-0_
  6
CONTINUOUS
 62
    7
 10
-3.8074168796598968
 20
3.5833016206068535
 40
0.1062438564362997
 50
94.316027519885949
 51
168.05582281153374
  0
ARC
  8
_0-0_
  6
CONTINUOUS
 62
    7
 10
-4.126477938502191
 20
4.3369249473757563
 40
0.3845574652060649
 50
93.690468061901555
 51
180.00475247008822
  0
ARC
  8
_0-0_
  6
CONTINUOUS
 62
    7
 10
-4.0658022159256433
 20
4.2373876760641664
 40
0.4562169546636456
 50
167.40196526053833
 51
249.8189540713899
  0
ARC
  8
_0-0_
  6
CONTINUOUS
 62
    7
 10
-4.3496683444874691
 20
4.3706929064974887
 40
0.5755815251041035
 50
282.69361944138331
 51
307.99873244251046
  0
ARC
  8
_0-0_
  6
CONTINUOUS
 62
    7
 10
-5.5024187054360709
 20
4.2567053991271067
 40
1.0480795854046356
 50
82.697813710875337
 51
145.35519944648337
  0
ARC
  8
_0-0_
  6
CONTINUOUS
 62
    7
 10
-5.5059310868604712
 20
4.4759294007084023
 40
0.9376829023677401
 50
156.32026712234159
 51
229.66896646149269
  0
ARC
  8
_0-0_
  6
CONTINUOUS
 62
    7
 10
-5.823151871965635
 20
4.6459625159241043
 40
0.93104721359893
 50
251.87437507963716
 51
299.18070522367594
  0
ARC
  8
_0-0_
  6
CONTINUOUS
 62
    7
 10
-5.2652615694281337
 20
3.8110898533831445
 40
0.1062438564362997
 50
94.316027519885949
 51
168.05582281153374
  0
ARC
  8
_0-0_
  6
CONTINUOUS
 62
    7
 10
-5.5843226282704279
 20
4.5647131801520473
 40
0.3845574652060649
 50
93.690468061901555
 51
180.00475247008822
  0
ARC
  8
_0-0_
  6
CONTINUOUS
 62
    7
 10
-5.5236469056938802
 20
4.4651759088404575
 40
0.4562169546636456
 50
167.40196526053833
 51
249.8189540713899
  0
ARC
  8
_0-0_
  6
CONTINUOUS
 62
    7
 10
-5.807513034255706
 20
4.5984811392737797
 40
0.5755815251041035
 50
282.69361944138331
 51
307.99873244251046
  0
ARC
  8
_0-0_
  6
CONTINUOUS
 62
    7
 10
-4.8646116536624646
 20
6.4434724337794478
 40
1.0480795854046356
 50
82.697813710875337
 51
145.35519944648337
  0
ARC
  8
_0-0_
  6
CONTINUOUS
 62
    7
 10
-4.8681240350868649
 20
6.6626964353607434
 40
0.9376829023677401
 50
156.32026712234159
 51
229.66896646149269
  0
ARC
  8
_0-0_
  6
CONTINUOUS
 62
    7
 10
-5.1853448201920287
 20
6.8327295505764454
 40
0.93104721359893
 50
251.87437507963716
 51
299.18070522367594
  0
ARC
  8
_0-0_
  6
CONTINUOUS
 62
    7
 10
-4.6274545176545274
 20
5.9978568880354857
 40
0.1062438564362997
 50
94.316027519885949
 51
168.05582281153374
  0
ARC
  8
_0-0_
  6
CONTINUOUS
 62
    7
 10
-4.9465155764968216
 20
6.7514802148043884
 40
0.3845574652060649
 50
93.690468061901555
 51
180.00475247008822
  0
ARC
  8
_0-0_
  6
CONTINUOUS
 62
    7
 10
-4.8858398539202739
 20
6.6519429434927986
 40
0.4562169546636456
 50
167.40196526053833
 51
249.8189540713899
  0
ARC
  8
_0-0_
  6
CONTINUOUS
 62
    7
 10
-5.1697059824820997
 20
6.7852481739261208
 40
0.5755815251041035
 50
282.69361944138331
 51
307.99873244251046
  0
ARC
  8
_0-0_
  6
CONTINUOUS
 62
    7
 10
-3.6801128432257855
 20
6.1245689078926446
 40
1.0480795854046356
 50
82.697813710875337
 51
145.35519944648337
  0
ARC
  8
_0-0_
  6
CONTINUOUS
 62
    7
 10
-3.6836252246501857
 20
6.3437929094739403
 40
0.9376829023677401
 50
156.32026712234159
 51
229.66896646149269
  0
ARC
  8
_0-0_
  6
CONTINUOUS
 62
    7
 10
-4.0008460097553495
 20
6.5138260246896422
 40
0.93104721359893
 50
251.87437507963716
 51
299.18070522367594
  0
ARC
  8
_0-0_
  6
CONTINUOUS
 62
    7
 10
-3.4429557072178483
 20
5.6789533621486825
 40
0.1062438564362997
 50
94.316027519885949
 51
168.05582281153374
  0
ARC
  8
_0-0_
  6
CONTINUOUS
 62
    7
 10
-3.7620167660601425
 20
6.4325766889175853
 40
0.3845574652060649
 50
93.690468061901555
 51
180.00475247008822
  0
ARC
  8
_0-0_
  6
CONTINUOUS
 62
    7
 10
-3.7013410434835947
 20
6.3330394176059954
 40
0.4562169546636456
 50
167.40196526053833
 51
249.8189540713899
  0
ARC
  8
_0-0_
  6
CONTINUOUS
 62
    7
 10
-3.9852071720454205
 20
6.4663446480393176
 40
0.5755815251041035
 50
282.69361944138331
 51
307.99873244251046
  0
ARC
  8
_0-0_
  6
CONTINUOUS
 62
    7
 10
-2.3133834465680678
 20
6.8079336062215035
 40
1.0480795854046356
 50
82.697813710875337
 51
145.35519944648337
  0
ARC
  8
_0-0_
  6
CONTINUOUS
 62
    7
 10
-2.3168958279924681
 20
7.0271576078027991
 40
0.9376829023677401
 50
156.32026712234159
 51
229.66896646149269
  0
ARC
  8
_0-0_
  6
CONTINUOUS
 62
    7
 10
-2.6341166130976319
 20
7.197190723018501
 40
0.93104721359893
 50
251.87437507963716
 51
299.18070522367594
  0
ARC
  8
_0-0_
  6
CONTINUOUS
 62
    7
 10
-2.0762263105601306
 20
6.3623180604775413
 40
0.1062438564362997
 50
94.316027519885949
 51
168.05582281153374
  0
ARC
  8
_0-0_
  6
CONTINUOUS
 62
    7
 10
-2.3952873694024248
 20
7.1159413872464441
 40
0.3845574652060649
 50
93.690468061901555
 51
180.00475247008822
  0
ARC
  8
_0-0_
  6
CONTINUOUS
 62
    7
 10
-2.3346116468258771
 20
7.0164041159348542
 40
0.4562169546636456
 50
167.40196526053833
 51
249.8189540713899
  0
ARC
  8
_0-0_
  6
CONTINUOUS
 62
    7
 10
-2.6184777753877029
 20
7.1497093463681765
 40
0.5755815251041035
 50
282.69361944138331
 51
307.99873244251046
  0
ARC
  8
_0-0_
  6
CONTINUOUS
 62
    7
 10
-4.1356893087783533
 20
9.3591618133159002
 40
1.0480795854046356
 50
82.697813710875337
 51
145.35519944648337
  0
ARC
  8
_0-0_
  6
CONTINUOUS
 62
    7
 10
-4.1392016902027535
 20
9.5783858148971959
 40
0.9376829023677401
 50
156.32026712234159
 51
229.66896646149269
  0
ARC
  8
_0-0_
  6
CONTINUOUS
 62
    7
 10
-4.4564224753079174
 20
9.7484189301128978
 40
0.93104721359893
 50
251.87437507963716
 51
299.18070522367594
  0
ARC
  8
_0-0_
  6
CONTINUOUS
 62
    7
 10
-3.8985321727704161
 20
8.9135462675719381
 40
0.1062438564362997
 50
94.316027519885949
 51
168.05582281153374
  0
ARC
  8
_0-0_
  6
CONTINUOUS
 62
    7
 10
-4.2175932316127103
 20
9.6671695943408409
 40
0.3845574652060649
 50
93.690468061901555
 51
180.00475247008822
  0
ARC
  8
_0-0_
  6
CONTINUOUS
 62
    7
 10
-4.1569175090361625
 20
9.567632323029251
 40
0.4562169546636456
 50
167.40196526053833
 51
249.8189540713899
  0
ARC
  8
_0-0_
  6
CONTINUOUS
 62
    7
 10
-4.4407836375979883
 20
9.7009375534625732
 40
0.5755815251041035
 50
282.69361944138331
 51
307.99873244251046
  0
ARC
  8
_0-0_
  6
CONTINUOUS
 62
    7
 10
-1.7211340413497282
 20
9.5869500460921842
 40
1.0480795854046356
 50
82.697813710875337
 51
145.35519944648337
  0
ARC
  8
_0-0_
  6
CONTINUOUS
 62
    7
 10
-1.7246464227741285
 20
9.8061740476734798
 40
0.9376829023677401
 50
156.32026712234159
 51
229.66896646149269
  0
ARC
  8
_0-0_
  6
CONTINUOUS
 62
    7
 10
-2.0418672078792923
 20
9.9762071628891817
 40
0.93104721359893
 50
251.87437507963716
 51
299.18070522367594
  0
ARC
  8
_0-0_
  6
CONTINUOUS
 62
    7
 10
-1.4839769053417911
 20
9.141334500348222
 40
0.1062438564362997
 50
94.316027519885949
 51
168.05582281153374
  0
ARC
  8
_0-0_
  6
CONTINUOUS
 62
    7
 10
-1.8030379641840852
 20
9.8949578271171248
 40
0.3845574652060649
 50
93.690468061901555
 51
180.00475247008822
  0
ARC
  8
_0-0_
  6
CONTINUOUS
 62
    7
 10
-1.7423622416075375
 20
9.7954205558055349
 40
0.4562169546636456
 50
167.40196526053833
 51
249.8189540713899
  0
ARC
  8
_0-0_
  6
CONTINUOUS
 62
    7
 10
-2.0262283701693633
 20
9.9287257862388572
 40
0.5755815251041035
 50
282.69361944138331
 51
307.99873244251046
  0
ARC
  8
_0-0_
  6
CONTINUOUS
 62
    7
 10
-2.9056328517864074
 20
10.361430037531555
 40
1.0480795854046356
 50
82.697813710875337
 51
145.35519944648337
  0
ARC
  8
_0-0_
  6
CONTINUOUS
 62
    7
 10
-2.9091452332108076
 20
10.580654039112851
 40
0.9376829023677401
 50
156.32026712234159
 51
229.66896646149269
  0
ARC
  8
_0-0_
  6
CONTINUOUS
 62
    7
 10
-3.2263660183159715
 20
10.750687154328553
 40
0.93104721359893
 50
251.87437507963716
 51
299.18070522367594
  0
ARC
  8
_0-0_
  6
CONTINUOUS
 62
    7
 10
-2.6684757157784702
 20
9.915814491787593
 40
0.1062438564362997
 50
94.316027519885949
 51
168.05582281153374
  0
ARC
  8
_0-0_
  6
CONTINUOUS
 62
    7
 10
-2.9875367746207644
 20
10.669437818556496
 40
0.3845574652060649
 50
93.690468061901555
 51
180.00475247008822
  0
ARC
  8
_0-0_
  6
CONTINUOUS
 62
    7
 10
-2.9268610520442166
 20
10.569900547244906
 40
0.4562169546636456
 50
167.40196526053833
 51
249.8189540713899
  0
ARC
  8
_0-0_
  6
CONTINUOUS
 62
    7
 10
-3.2107271806060425
 20
10.703205777678228
 40
0.5755815251041035
 50
282.69361944138331
 51
307.99873244251046
  0
ARC
  8
_0-0_
  6
CONTINUOUS
 62
    7
 10
-3.6801128432257855
 20
11.864832373855045
 40
1.0480795854046356
 50
82.697813710875337
 51
145.35519944648337
  0
ARC
  8
_0-0_
  6
CONTINUOUS
 62
    7
 10
-3.6836252246501857
 20
12.08405637543634
 40
0.9376829023677401
 50
156.32026712234159
 51
229.66896646149269
  0
ARC
  8
_0-0_
  6
CONTINUOUS
 62
    7
 10
-4.0008460097553495
 20
12.254089490652042
 40
0.93104721359893
 50
251.87437507963716
 51
299.18070522367594
  0
ARC
  8
_0-0_
  6
CONTINUOUS
 62
    7
 10
-3.4429557072178483
 20
11.419216828111082
 40
0.1062438564362997
 50
94.316027519885949
 51
168.05582281153374
  0
ARC
  8
_0-0_
  6
CONTINUOUS
 62
    7
 10
-3.7620167660601425
 20
12.172840154879985
 40
0.3845574652060649
 50
93.690468061901555
 51
180.00475247008822
  0
ARC
  8
_0-0_
  6
CONTINUOUS
 62
    7
 10
-3.7013410434835947
 20
12.073302883568395
 40
0.4562169546636456
 50
167.40196526053833
 51
249.8189540713899
  0
ARC
  8
_0-0_
  6
CONTINUOUS
 62
    7
 10
-3.9852071720454205
 20
12.206608114001718
 40
0.5755815251041035
 50
282.69361944138331
 51
307.99873244251046
  0
ARC
  8
_0-0_
  6
CONTINUOUS
 62
    7
 10
-2.4956140327891063
 20
13.094888830846983
 40
1.0480795854046356
 50
82.697813710875337
 51
145.35519944648337
  0
ARC
  8
_0-0_
  6
CONTINUOUS
 62
    7
 10
-2.4991264142135066
 20
13.314112832428279
 40
0.9376829023677401
 50
156.32026712234159
 51
229.66896646149269
  0
ARC
  8
_0-0_
  6
CONTINUOUS
 62
    7
 10
-2.8163471993186704
 20
13.484145947643981
 40
0.93104721359893
 50
251.87437507963716
 51
299.18070522367594
  0
ARC
  8
_0-0_
  6
CONTINUOUS
 62
    7
 10
-2.2584568967811691
 20
12.649273285103021
 40
0.1062438564362997
 50
94.316027519885949
 51
168.05582281153374
  0
ARC
  8
_0-0_
  6
CONTINUOUS
 62
    7
 10
-2.5775179556234633
 20
13.402896611871924
 40
0.3845574652060649
 50
93.690468061901555
 51
180.00475247008822
  0
ARC
  8
_0-0_
  6
CONTINUOUS
 62
    7
 10
-2.5168422330469156
 20
13.303359340560334
 40
0.4562169546636456
 50
167.40196526053833
 51
249.8189540713899
  0
ARC
  8
_0-0_
  6
CONTINUOUS
 62
    7
 10
-2.8007083616087414
 20
13.436664570993656
 40
0.5755815251041035
 50
282.69361944138331
 51
307.99873244251046
  0
ARC
  8
_0-0_
  6
CONTINUOUS
 62
    7
 10
-1.2655575757971604
 20
12.27485119285236
 40
1.0480795854046356
 50
82.697813710875337
 51
145.35519944648337
  0
ARC
  8
_0-0_
  6
CONTINUOUS
 62
    7
 10
-1.2690699572215607
 20
12.494075194433655
 40
0.9376829023677401
 50
156.32026712234159
 51
229.66896646149269
  0
ARC
  8
_0-0_
  6
CONTINUOUS
 62
    7
 10
-1.5862907423267245
 20
12.664108309649357
 40
0.93104721359893
 50
251.87437507963716
 51
299.18070522367594
  0
ARC
  8
_0-0_
  6
CONTINUOUS
 62
    7
 10
-1.0284004397892232
 20
11.829235647108398
 40
0.1062438564362997
 50
94.316027519885949
 51
168.05582281153374
  0
ARC
  8
_0-0_
  6
CONTINUOUS
 62
    7
 10
-1.3474614986315174
 20
12.5828589738773
 40
0.3845574652060649
 50
93.690468061901555
 51
180.00475247008822
  0
ARC
  8
_0-0_
  6
CONTINUOUS
 62
    7
 10
-1.2867857760549697
 20
12.483321702565711
 40
0.4562169546636456
 50
167.40196526053833
 51
249.8189540713899
  0
ARC
  8
_0-0_
  6
CONTINUOUS
 62
    7
 10
-1.5706519046167955
 20
12.616626932999033
 40
0.5755815251041035
 50
282.69361944138331
 51
307.99873244251046
  0
ARC
  8
_0-0_
  6
CONTINUOUS
 62
    7
 10
-9.0559151367461226
 20
12.047062960076069
 40
1.0480795854046356
 50
82.697813710875337
 51
145.35519944648337
  0
ARC
  8
_0-0_
  6
CONTINUOUS
 62
    7
 10
-9.0594275181705228
 20
12.266286961657364
 40
0.9376829023677401
 50
156.32026712234159
 51
229.66896646149269
  0
ARC
  8
_0-0_
  6
CONTINUOUS
 62
    7
 10
-9.3766483032756867
 20
12.436320076873066
 40
0.93104721359893
 50
251.87437507963716
 51
299.18070522367594
  0
ARC
  8
_0-0_
  6
CONTINUOUS
 62
    7
 10
-8.8187580007381854
 20
11.601447414332107
 40
0.1062438564362997
 50
94.316027519885949
 51
168.05582281153374
  0
ARC
  8
_0-0_
  6
CONTINUOUS
 62
    7
 10
-9.1378190595804796
 20
12.355070741101009
 40
0.3845574652060649
 50
93.690468061901555
 51
180.00475247008822
  0
ARC
  8
_0-0_
  6
CONTINUOUS
 62
    7
 10
-9.0771433370039318
 20
12.25553346978942
 40
0.4562169546636456
 50
167.40196526053833
 51
249.8189540713899
  0
ARC
  8
_0-0_
  6
CONTINUOUS
 62
    7
 10
-9.3610094655657576
 20
12.388838700222742
 40
0.5755815251041035
 50
282.69361944138331
 51
307.99873244251046
  0
ARC
  8
_0-0_
  6
CONTINUOUS
 62
    7
 10
-10.42264453340384
 20
10.999237089305154
 40
1.0480795854046356
 50
82.697813710875337
 51
145.35519944648337
  0
ARC
  8
_0-0_
  6
CONTINUOUS
 62
    7
 10
-10.42615691482824
 20
11.21846109088645
 40
0.9376829023677401
 50
156.32026712234159
 51
229.66896646149269
  0
ARC
  8
_0-0_
  6
CONTINUOUS
 62
    7
 10
-10.743377699933404
 20
11.388494206102152
 40
0.93104721359893
 50
251.87437507963716
 51
299.18070522367594
  0
ARC
  8
_0-0_
  6
CONTINUOUS
 62
    7
 10
-10.185487397395903
 20
10.553621543561192
 40
0.1062438564362997
 50
94.316027519885949
 51
168.05582281153374
  0
ARC
  8
_0-0_
  6
CONTINUOUS
 62
    7
 10
-10.504548456238197
 20
11.307244870330095
 40
0.3845574652060649
 50
93.690468061901555
 51
180.00475247008822
  0
ARC
  8
_0-0_
  6
CONTINUOUS
 62
    7
 10
-10.443872733661649
 20
11.207707599018505
 40
0.4562169546636456
 50
167.40196526053833
 51
249.8189540713899
  0
ARC
  8
_0-0_
  6
CONTINUOUS
 62
    7
 10
-10.727738862223475
 20
11.341012829451827
 40
0.5755815251041035
 50
282.69361944138331
 51
307.99873244251046
  0
ARC
  8
_0-0_
  6
CONTINUOUS
 62
    7
 10
-8.235877498751492
 20
10.953679442749902
 40
1.0480795854046356
 50
82.697813710875337
 51
145.35519944648337
  0
ARC
  8
_0-0_
  6
CONTINUOUS
 62
    7
 10
-8.2393898801758922
 20
11.172903444331197
 40
0.9376829023677401
 50
156.32026712234159
 51
229.66896646149269
  0
ARC
  8
_0-0_
  6
CONTINUOUS
 62
    7
 10
-8.5566106652810561
 20
11.342936559546899
 40
0.93104721359893
 50
251.87437507963716
 51
299.18070522367594
  0
ARC
  8
_0-0_
  6
CONTINUOUS
 62
    7
 10
-7.9987203627435548
 20
10.50806389700594
 40
0.1062438564362997
 50
94.316027519885949
 51
168.05582281153374
  0
ARC
  8
_0-0_
  6
CONTINUOUS
 62
    7
 10
-8.317781421585849
 20
11.261687223774842
 40
0.3845574652060649
 50
93.690468061901555
 51
180.00475247008822
  0
ARC
  8
_0-0_
  6
CONTINUOUS
 62
    7
 10
-8.2571056990093012
 20
11.162149952463253
 40
0.4562169546636456
 50
167.40196526053833
 51
249.8189540713899
  0
ARC
  8
_0-0_
  6
CONTINUOUS
 62
    7
 10
-8.5409718275711271
 20
11.295455182896575
 40
0.5755815251041035
 50
282.69361944138331
 51
307.99873244251046
  0
ARC
  8
_0-0_
  6
CONTINUOUS
 62
    7
 10
-9.5216000689080431
 20
9.6989045147847293
 40
0.8983539303468305
 50
82.697813710875337
 51
145.35519944648337
  0
ARC
  8
_0-0_
  6
CONTINUOUS
 62
    7
 10
-9.5246106815575189
 20
9.8868108018544092
 40
0.8037282020294914
 50
156.32026712234159
 51
229.66896646149269
  0
ARC
  8
_0-0_
  6
CONTINUOUS
 62
    7
 10
-9.7965142116476613
 20
10.032553472039297
 40
0.7980404687990828
 50
251.87437507963716
 51
299.18070522367594
  0
ARC
  8
_0-0_
  6
CONTINUOUS
 62
    7
 10
-9.3183225237583827
 20
9.3169483327184821
 40
0.0910661626596854
 50
94.316027519885949
 51
168.05582281153374
  0
ARC
  8
_0-0_
  6
CONTINUOUS
 62
    7
 10
-9.5918034313374818
 20
9.9629111842346703
 40
0.3296206844623414
 50
93.690468061901555
 51
180.00475247008822
  0
ARC
  8
_0-0_
  6
CONTINUOUS
 62
    7
 10
-9.5397956691290062
 20
9.8775935231104626
 40
0.3910431039974106
 50
167.40196526053833
 51
249.8189540713899
  0
ARC
  8
_0-0_
  6
CONTINUOUS
 62
    7
 10
-9.7831094936105814
 20
9.9918551491961551
 40
0.4933555929463744
 50
282.69361944138331
 51
307.99873244251046
  0
ARC
  8
_0-0_
  6
CONTINUOUS
 62
    7
 10
-10.797214172455242
 20
8.514405704348043
 40
0.8983539303468305
 50
82.697813710875337
 51
145.35519944648337
  0
ARC
  8
_0-0_
  6
CONTINUOUS
 62
    7
 10
-10.800224785104717
 20
8.7023119914177229
 40
0.8037282020294914
 50
156.32026712234159
 51
229.66896646149269
  0
ARC
  8
_0-0_
  6
CONTINUOUS
 62
    7
 10
-11.07212831519486
 20
8.8480546616026103
 40
0.7980404687990828
 50
251.87437507963716
 51
299.18070522367594
  0
ARC
  8
_0-0_
  6
CONTINUOUS
 62
    7
 10
-10.593936627305581
 20
8.1324495222817959
 40
0.0910661626596854
 50
94.316027519885949
 51
168.05582281153374
  0
ARC
  8
_0-0_
  6
CONTINUOUS
 62
    7
 10
-10.86741753488468
 20
8.778412373797984
 40
0.3296206844623414
 50
93.690468061901555
 51
180.00475247008822
  0
ARC
  8
_0-0_
  6
CONTINUOUS
 62
    7
 10
-10.815409772676205
 20
8.6930947126737763
 40
0.3910431039974106
 50
167.40196526053833
 51
249.8189540713899
  0
ARC
  8
_0-0_
  6
CONTINUOUS
 62
    7
 10
-11.05872359715778
 20
8.8073563387594689
 40
0.4933555929463744
 50
282.69361944138331
 51
307.99873244251046
  0
ARC
  8
_0-0_
  6
CONTINUOUS
 62
    7
 10
-8.5648894912476408
 20
8.6055209974585551
 40
0.8983539303468305
 50
82.697813710875337
 51
145.35519944648337
  0
ARC
  8
_0-0_
  6
CONTINUOUS
 62
    7
 10
-8.5679001038971165
 20
8.7934272845282351
 40
0.8037282020294914
 50
156.32026712234159
 51
229.66896646149269
  0
ARC
  8
_0-0_
  6
CONTINUOUS
 62
    7
 10
-8.839803633987259
 20
8.9391699547131225
 40
0.7980404687990828
 50
251.87437507963716
 51
299.18070522367594
  0
ARC
  8
_0-0_
  6
CONTINUOUS
 62
    7
 10
-8.3616119460979803
 20
8.223564815392308
 40
0.0910661626596854
 50
94.316027519885949
 51
168.05582281153374
  0
ARC
  8
_0-0_
  6
CONTINUOUS
 62
    7
 10
-8.6350928536770795
 20
8.8695276669084961
 40
0.3296206844623414
 50
93.690468061901555
 51
180.00475247008822
  0
ARC
  8
_0-0_
  6
CONTINUOUS
 62
    7
 10
-8.5830850914686039
 20
8.7842100057842885
 40
0.3910431039974106
 50
167.40196526053833
 51
249.8189540713899
  0
ARC
  8
_0-0_
  6
CONTINUOUS
 62
    7
 10
-8.826398915950179
 20
8.898471631869981
 40
0.4933555929463744
 50
282.69361944138331
 51
307.99873244251046
  0
ARC
  8
_0-0_
  6
CONTINUOUS
 62
    7
 10
-11.435021224228848
 20
5.9176198506983866
 40
0.8983539303468305
 50
82.697813710875337
 51
145.35519944648337
  0
ARC
  8
_0-0_
  6
CONTINUOUS
 62
    7
 10
-11.438031836878324
 20
6.1055261377680665
 40
0.8037282020294914
 50
156.32026712234159
 51
229.66896646149269
  0
ARC
  8
_0-0_
  6
CONTINUOUS
 62
    7
 10
-11.709935366968466
 20
6.2512688079529539
 40
0.7980404687990828
 50
251.87437507963716
 51
299.18070522367594
  0
ARC
  8
_0-0_
  6
CONTINUOUS
 62
    7
 10
-11.231743679079187
 20
5.5356636686321394
 40
0.0910661626596854
 50
94.316027519885949
 51
168.05582281153374
  0
ARC
  8
_0-0_
  6
CONTINUOUS
 62
    7
 10
-11.505224586658287
 20
6.1816265201483276
 40
0.3296206844623414
 50
93.690468061901555
 51
180.00475247008822
  0
ARC
  8
_0-0_
  6
CONTINUOUS
 62
    7
 10
-11.453216824449811
 20
6.0963088590241199
 40
0.3910431039974106
 50
167.40196526053833
 51
249.8189540713899
  0
ARC
  8
_0-0_
  6
CONTINUOUS
 62
    7
 10
-11.696530648931386
 20
6.2105704851098125
 40
0.4933555929463744
 50
282.69361944138331
 51
307.99873244251046
  0
ARC
  8
_0-0_
  6
CONTINUOUS
 62
    7
 10
-9.3849271292422713
 20
6.1909657300299301
 40
0.8983539303468305
 50
82.697813710875337
 51
145.35519944648337
  0
ARC
  8
_0-0_
  6
CONTINUOUS
 62
    7
 10
-9.3879377418917471
 20
6.37887201709961
 40
0.8037282020294914
 50
156.32026712234159
 51
229.66896646149269
  0
ARC
  8
_0-0_
  6
CONTINUOUS
 62
    7
 10
-9.6598412719818896
 20
6.5246146872844974
 40
0.7980404687990828
 50
251.87437507963716
 51
299.18070522367594
  0
ARC
  8
_0-0_
  6
CONTINUOUS
 62
    7
 10
-9.1816495840926109
 20
5.809009547963683
 40
0.0910661626596854
 50
94.316027519885949
 51
168.05582281153374
  0
ARC
  8
_0-0_
  6
CONTINUOUS
 62
    7
 10
-9.45513049167171
 20
6.4549723994798711
 40
0.3296206844623414
 50
93.690468061901555
 51
180.00475247008822
  0
ARC
  8
_0-0_
  6
CONTINUOUS
 62
    7
 10
-9.4031227294632345
 20
6.3696547383556634
 40
0.3910431039974106
 50
167.40196526053833
 51
249.8189540713899
  0
ARC
  8
_0-0_
  6
CONTINUOUS
 62
    7
 10
-9.6464365539448096
 20
6.483916364441356
 40
0.4933555929463744
 50
282.69361944138331
 51
307.99873244251046
  0
ARC
  8
_0-0_
  6
CONTINUOUS
 62
    7
 10
-11.981712982891935
 20
4.004198695377589
 40
0.8983539303468305
 50
82.697813710875337
 51
145.35519944648337
  0
ARC
  8
_0-0_
  6
CONTINUOUS
 62
    7
 10
-11.984723595541411
 20
4.1921049824472689
 40
0.8037282020294914
 50
156.32026712234159
 51
229.66896646149269
  0
ARC
  8
_0-0_
  6
CONTINUOUS
 62
    7
 10
-12.256627125631553
 20
4.3378476526321563
 40
0.7980404687990828
 50
251.87437507963716
 51
299.18070522367594
  0
ARC
  8
_0-0_
  6
CONTINUOUS
 62
    7
 10
-11.778435437742274
 20
3.6222425133113418
 40
0.0910661626596854
 50
94.316027519885949
 51
168.05582281153374
  0
ARC
  8
_0-0_
  6
CONTINUOUS
 62
    7
 10
-12.051916345321374
 20
4.26820536482753
 40
0.3296206844623414
 50
93.690468061901555
 51
180.00475247008822
  0
ARC
  8
_0-0_
  6
CONTINUOUS
 62
    7
 10
-11.999908583112898
 20
4.1828877037033223
 40
0.3910431039974106
 50
167.40196526053833
 51
249.8189540713899
  0
ARC
  8
_0-0_
  6
CONTINUOUS
 62
    7
 10
-12.243222407594473
 20
4.2971493297890149
 40
0.4933555929463744
 50
282.69361944138331
 51
307.99873244251046
  0
ARC
  8
_0-0_
  6
CONTINUOUS
 62
    7
 10
-9.8405035947948392
 20
3.8675257557118172
 40
0.8983539303468305
 50
82.697813710875337
 51
145.35519944648337
  0
ARC
  8
_0-0_
  6
CONTINUOUS
 62
    7
 10
-9.8435142074443149
 20
4.0554320427814972
 40
0.8037282020294914
 50
156.32026712234159
 51
229.66896646149269
  0
ARC
  8
_0-0_
  6
CONTINUOUS
 62
    7
 10
-10.115417737534457
 20
4.2011747129663846
 40
0.7980404687990828
 50
251.87437507963716
 51
299.18070522367594
  0
ARC
  8
_0-0_
  6
CONTINUOUS
 62
    7
 10
-9.6372260496451787
 20
3.4855695736455701
 40
0.0910661626596854
 50
94.316027519885949
 51
168.05582281153374
  0
ARC
  8
_0-0_
  6
CONTINUOUS
 62
    7
 10
-9.9107069572242779
 20
4.1315324251617582
 40
0.3296206844623414
 50
93.690468061901555
 51
180.00475247008822
  0
ARC
  8
_0-0_
  6
CONTINUOUS
 62
    7
 10
-9.8586991950158023
 20
4.0462147640375505
 40
0.3910431039974106
 50
167.40196526053833
 51
249.8189540713899
  0
ARC
  8
_0-0_
  6
CONTINUOUS
 62
    7
 10
-10.102013019497377
 20
4.1604763901232431
 40
0.4933555929463744
 50
282.69361944138331
 51
307.99873244251046
  0
ARC
  8
_0-0_
  6
CONTINUOUS
 62
    7
 10
-12.391731801889236
 20
1.2251822555069012
 40
0.8983539303468305
 50
82.697813710875337
 51
145.35519944648337
  0
ARC
  8
_0-0_
  6
CONTINUOUS
 62
    7
 10
-12.394742414538712
 20
1.4130885425765811
 40
0.8037282020294914
 50
156.32026712234159
 51
229.66896646149269
  0
ARC
  8
_0-0_
  6
CONTINUOUS
 62
    7
 10
-12.666645944628854
 20
1.5588312127614685
 40
0.7980404687990828
 50
251.87437507963716
 51
299.18070522367594
  0
ARC
  8
_0-0_
  6
CONTINUOUS
 62
    7
 10
-12.188454256739575
 20
0.843226073440654
 40
0.0910661626596854
 50
94.316027519885949
 51
168.05582281153374
  0
ARC
  8
_0-0_
  6
CONTINUOUS
 62
    7
 10
-12.461935164318675
 20
1.4891889249568422
 40
0.3296206844623414
 50
93.690468061901555
 51
180.00475247008822
  0
ARC
  8
_0-0_
  6
CONTINUOUS
 62
    7
 10
-12.409927402110199
 20
1.4038712638326345
 40
0.3910431039974106
 50
167.40196526053833
 51
249.8189540713899
  0
ARC
  8
_0-0_
  6
CONTINUOUS
 62
    7
 10
-12.653241226591774
 20
1.5181328899183271
 40
0.4933555929463744
 50
282.69361944138331
 51
307.99873244251046
  0
ARC
  8
_0-0_
  6
CONTINUOUS
 62
    7
 10
-10.387195353457926
 20
1.134066962396389
 40
0.8983539303468305
 50
82.697813710875337
 51
145.35519944648337
  0
ARC
  8
_0-0_
  6
CONTINUOUS
 62
    7
 10
-10.390205966107402
 20
1.321973249466069
 40
0.8037282020294914
 50
156.32026712234159
 51
229.66896646149269
  0
ARC
  8
_0-0_
  6
CONTINUOUS
 62
    7
 10
-10.662109496197544
 20
1.4677159196509564
 40
0.7980404687990828
 50
251.87437507963716
 51
299.18070522367594
  0
ARC
  8
_0-0_
  6
CONTINUOUS
 62
    7
 10
-10.183917808308266
 20
0.7521107803301418
 40
0.0910661626596854
 50
94.316027519885949
 51
168.05582281153374
  0
ARC
  8
_0-0_
  6
CONTINUOUS
 62
    7
 10
-10.457398715887365
 20
1.39807363184633
 40
0.3296206844623414
 50
93.690468061901555
 51
180.00475247008822
  0
ARC
  8
_0-0_
  6
CONTINUOUS
 62
    7
 10
-10.405390953678889
 20
1.3127559707221224
 40
0.3910431039974106
 50
167.40196526053833
 51
249.8189540713899
  0
ARC
  8
_0-0_
  6
CONTINUOUS
 62
    7
 10
-10.648704778160464
 20
1.4270175968078149
 40
0.4933555929463744
 50
282.69361944138331
 51
307.99873244251046
  0
ARC
  8
_0-0_
  6
CONTINUOUS
 62
    7
 10
-12.847308267441818
 20
-1.1893730119217238
 40
0.8983539303468305
 50
82.697813710875337
 51
145.35519944648337
  0
ARC
  8
_0-0_
  6
CONTINUOUS
 62
    7
 10
-12.850318880091294
 20
-1.0014667248520439
 40
0.8037282020294914
 50
156.32026712234159
 51
229.66896646149269
  0
ARC
  8
_0-0_
  6
CONTINUOUS
 62
    7
 10
-13.122222410181436
 20
-0.8557240546671565
 40
0.7980404687990828
 50
251.87437507963716
 51
299.18070522367594
  0
ARC
  8
_0-0_
  6
CONTINUOUS
 62
    7
 10
-12.644030722292158
 20
-1.571329193987971
 40
0.0910661626596854
 50
94.316027519885949
 51
168.05582281153374
  0
ARC
  8
_0-0_
  6
CONTINUOUS
 62
    7
 10
-12.917511629871257
 20
-0.9253663424717828
 40
0.3296206844623414
 50
93.690468061901555
 51
180.00475247008822
  0
ARC
  8
_0-0_
  6
CONTINUOUS
 62
    7
 10
-12.865503867662781
 20
-1.0106840035959905
 40
0.3910431039974106
 50
167.40196526053833
 51
249.8189540713899
  0
ARC
  8
_0-0_
  6
CONTINUOUS
 62
    7
 10
-13.108817692144356
 20
-0.8964223775102979
 40
0.4933555929463744
 50
282.69361944138331
 51
307.99873244251046
  0
ARC
  8
_0-0_
  6
CONTINUOUS
 62
    7
 10
-10.751656525899989
 20
-1.3260459515874956
 40
0.8983539303468305
 50
82.697813710875337
 51
145.35519944648337
  0
ARC
  8
_0-0_
  6
CONTINUOUS
 62
    7
 10
-10.754667138549465
 20
-1.1381396645178157
 40
0.8037282020294914
 50
156.32026712234159
 51
229.66896646149269
  0
ARC
  8
_0-0_
  6
CONTINUOUS
 62
    7
 10
-11.026570668639607
 20
-0.9923969943329282
 40
0.7980404687990828
 50
251.87437507963716
 51
299.18070522367594
  0
ARC
  8
_0-0_
  6
CONTINUOUS
 62
    7
 10
-10.548378980750329
 20
-1.7080021336537428
 40
0.0910661626596854
 50
94.316027519885949
 51
168.05582281153374
  0
ARC
  8
_0-0_
  6
CONTINUOUS
 62
    7
 10
-10.821859888329428
 20
-1.0620392821375546
 40
0.3296206844623414
 50
93.690468061901555
 51
180.00475247008822
  0
ARC
  8
_0-0_
  6
CONTINUOUS
 62
    7
 10
-10.769852126120952
 20
-1.1473569432617623
 40
0.3910431039974106
 50
167.40196526053833
 51
249.8189540713899
  0
ARC
  8
_0-0_
  6
CONTINUOUS
 62
    7
 10
-11.013165950602527
 20
-1.0330953171760697
 40
0.4933555929463744
 50
282.69361944138331
 51
307.99873244251046
  0
ARC
  8
_0-0_
  6
CONTINUOUS
 62
    7
 10
-13.439557672660158
 20
-3.6039282793503489
 40
0.8983539303468305
 50
82.697813710875337
 51
145.35519944648337
  0
ARC
  8
_0-0_
  6
CONTINUOUS
 62
    7
 10
-13.442568285309633
 20
-3.4160219922806689
 40
0.8037282020294914
 50
156.32026712234159
 51
229.66896646149269
  0
ARC
  8
_0-0_
  6
CONTINUOUS
 62
    7
 10
-13.714471815399776
 20
-3.2702793220957815
 40
0.7980404687990828
 50
251.87437507963716
 51
299.18070522367594
  0
ARC
  8
_0-0_
  6
CONTINUOUS
 62
    7
 10
-13.236280127510497
 20
-3.985884461416596
 40
0.0910661626596854
 50
94.316027519885949
 51
168.05582281153374
  0
ARC
  8
_0-0_
  6
CONTINUOUS
 62
    7
 10
-13.509761035089596
 20
-3.3399216099004079
 40
0.3296206844623414
 50
93.690468061901555
 51
180.00475247008822
  0
ARC
  8
_0-0_
  6
CONTINUOUS
 62
    7
 10
-13.457753272881121
 20
-3.4252392710246156
 40
0.3910431039974106
 50
167.40196526053833
 51
249.8189540713899
  0
ARC
  8
_0-0_
  6
CONTINUOUS
 62
    7
 10
-13.701067097362696
 20
-3.310977644938923
 40
0.4933555929463744
 50
282.69361944138331
 51
307.99873244251046
  0
ARC
  8
_0-0_
  6
CONTINUOUS
 62
    7
 10
-11.343905931118329
 20
-3.7861588655713803
 40
0.8983539303468305
 50
82.697813710875337
 51
145.35519944648337
  0
ARC
  8
_0-0_
  6
CONTINUOUS
 62
    7
 10
-11.346916543767804
 20
-3.5982525785017003
 40
0.8037282020294914
 50
156.32026712234159
 51
229.66896646149269
  0
ARC
  8
_0-0_
  6
CONTINUOUS
 62
    7
 10
-11.618820073857947
 20
-3.4525099083168129
 40
0.7980404687990828
 50
251.87437507963716
 51
299.18070522367594
  0
ARC
  8
_0-0_
  6
CONTINUOUS
 62
    7
 10
-11.140628385968668
 20
-4.1681150476376274
 40
0.0910661626596854
 50
94.316027519885949
 51
168.05582281153374
  0
ARC
  8
_0-0_
  6
CONTINUOUS
 62
    7
 10
-11.414109293547767
 20
-3.5221521961214393
 40
0.3296206844623414
 50
93.690468061901555
 51
180.00475247008822
  0
ARC
  8
_0-0_
  6
CONTINUOUS
 62
    7
 10
-11.362101531339292
 20
-3.6074698572456469
 40
0.3910431039974106
 50
167.40196526053833
 51
249.8189540713899
  0
ARC
  8
_0-0_
  6
CONTINUOUS
 62
    7
 10
-11.605415355820867
 20
-3.4932082311599544
 40
0.4933555929463744
 50
282.69361944138331
 51
307.99873244251046
  0
ARC
  8
_0-0_
  6
CONTINUOUS
 62
    7
 10
-14.214037664099521
 20
-6.4285023657762963
 40
0.8983539303468305
 50
82.697813710875337
 51
145.35519944648337
  0
ARC
  8
_0-0_
  6
CONTINUOUS
 62
    7
 10
-14.217048276748997
 20
-6.2405960787066164
 40
0.8037282020294914
 50
156.32026712234159
 51
229.66896646149269
  0
ARC
  8
_0-0_
  6
CONTINUOUS
 62
    7
 10
-14.48895180683914
 20
-6.094853408521729
 40
0.7980404687990828
 50
251.87437507963716
 51
299.18070522367594
  0
ARC
  8
_0-0_
  6
CONTINUOUS
 62
    7
 10
-14.010760118949861
 20
-6.8104585478425435
 40
0.0910661626596854
 50
94.316027519885949
 51
168.05582281153374
  0
ARC
  8
_0-0_
  6
CONTINUOUS
 62
    7
 10
-14.28424102652896
 20
-6.1644956963263553
 40
0.3296206844623414
 50
93.690468061901555
 51
180.00475247008822
  0
ARC
  8
_0-0_
  6
CONTINUOUS
 62
    7
 10
-14.232233264320485
 20
-6.249813357450563
 40
0.3910431039974106
 50
167.40196526053833
 51
249.8189540713899
  0
ARC
  8
_0-0_
  6
CONTINUOUS
 62
    7
 10
-14.47554708880206
 20
-6.1355517313648704
 40
0.4933555929463744
 50
282.69361944138331
 51
307.99873244251046
  0
ARC
  8
_0-0_
  6
CONTINUOUS
 62
    7
 10
-11.799482396670896
 20
-6.3373870726657842
 40
0.8983539303468305
 50
82.697813710875337
 51
145.35519944648337
  0
ARC
  8
_0-0_
  6
CONTINUOUS
 62
    7
 10
-11.802493009320372
 20
-6.1494807855961042
 40
0.8037282020294914
 50
156.32026712234159
 51
229.66896646149269
  0
ARC
  8
_0-0_
  6
CONTINUOUS
 62
    7
 10
-12.074396539410515
 20
-6.0037381154112168
 40
0.7980404687990828
 50
251.87437507963716
 51
299.18070522367594
  0
ARC
  8
_0-0_
  6
CONTINUOUS
 62
    7
 10
-11.596204851521236
 20
-6.7193432547320313
 40
0.0910661626596854
 50
94.316027519885949
 51
168.05582281153374
  0
ARC
  8
_0-0_
  6
CONTINUOUS
 62
    7
 10
-11.869685759100335
 20
-6.0733804032158432
 40
0.3296206844623414
 50
93.690468061901555
 51
180.00475247008822
  0
ARC
  8
_0-0_
  6
CONTINUOUS
 62
    7
 10
-11.817677996891859
 20
-6.1586980643400508
 40
0.3910431039974106
 50
167.40196526053833
 51
249.8189540713899
  0
ARC
  8
_0-0_
  6
CONTINUOUS
 62
    7
 10
-12.060991821373435
 20
-6.0444364382543583
 40
0.4933555929463744
 50
282.69361944138331
 51
307.99873244251046
  0
ARC
  8
_0-0_
  6
CONTINUOUS
 62
    7
 10
-12.710635327776046
 20
-4.6061965035660108
 40
0.8983539303468305
 50
82.697813710875337
 51
145.35519944648337
  0
ARC
  8
_0-0_
  6
CONTINUOUS
 62
    7
 10
-12.713645940425522
 20
-4.4182902164963309
 40
0.8037282020294914
 50
156.32026712234159
 51
229.66896646149269
  0
ARC
  8
_0-0_
  6
CONTINUOUS
 62
    7
 10
-12.985549470515664
 20
-4.2725475463114435
 40
0.7980404687990828
 50
251.87437507963716
 51
299.18070522367594
  0
ARC
  8
_0-0_
  6
CONTINUOUS
 62
    7
 10
-12.507357782626386
 20
-4.988152685632258
 40
0.0910661626596854
 50
94.316027519885949
 51
168.05582281153374
  0
ARC
  8
_0-0_
  6
CONTINUOUS
 62
    7
 10
-12.780838690205485
 20
-4.3421898341160698
 40
0.3296206844623414
 50
93.690468061901555
 51
180.00475247008822
  0
ARC
  8
_0-0_
  6
CONTINUOUS
 62
    7
 10
-12.728830927997009
 20
-4.4275074952402775
 40
0.3910431039974106
 50
167.40196526053833
 51
249.8189540713899
  0
ARC
  8
_0-0_
  6
CONTINUOUS
 62
    7
 10
-12.972144752478584
 20
-4.313245869154585
 40
0.4933555929463744
 50
282.69361944138331
 51
307.99873244251046
  0
ARC
  8
_0-0_
  6
CONTINUOUS
 62
    7
 10
-14.532941189986332
 20
-8.7063846935391496
 40
0.8983539303468305
 50
82.697813710875337
 51
145.35519944648337
  0
ARC
  8
_0-0_
  6
CONTINUOUS
 62
    7
 10
-14.535951802635807
 20
-8.5184784064694696
 40
0.8037282020294914
 50
156.32026712234159
 51
229.66896646149269
  0
ARC
  8
_0-0_
  6
CONTINUOUS
 62
    7
 10
-14.80785533272595
 20
-8.3727357362845822
 40
0.7980404687990828
 50
251.87437507963716
 51
299.18070522367594
  0
ARC
  8
_0-0_
  6
CONTINUOUS
 62
    7
 10
-14.329663644836671
 20
-9.0883408756053967
 40
0.0910661626596854
 50
94.316027519885949
 51
168.05582281153374
  0
ARC
  8
_0-0_
  6
CONTINUOUS
 62
    7
 10
-14.60314455241577
 20
-8.4423780240892086
 40
0.3296206844623414
 50
93.690468061901555
 51
180.00475247008822
  0
ARC
  8
_0-0_
  6
CONTINUOUS
 62
    7
 10
-14.551136790207295
 20
-8.5276956852134163
 40
0.3910431039974106
 50
167.40196526053833
 51
249.8189540713899
  0
ARC
  8
_0-0_
  6
CONTINUOUS
 62
    7
 10
-14.79445061468887
 20
-8.4134340591277237
 40
0.4933555929463744
 50
282.69361944138331
 51
307.99873244251046
  0
ARC
  8
_0-0_
  6
CONTINUOUS
 62
    7
 10
-12.118385922557707
 20
-9.1164035125364649
 40
0.8983539303468305
 50
82.697813710875337
 51
145.35519944648337
  0
ARC
  8
_0-0_
  6
CONTINUOUS
 62
    7
 10
-12.121396535207182
 20
-8.9284972254667849
 40
0.8037282020294914
 50
156.32026712234159
 51
229.66896646149269
  0
ARC
  8
_0-0_
  6
CONTINUOUS
 62
    7
 10
-12.393300065297325
 20
-8.7827545552818975
 40
0.7980404687990828
 50
251.87437507963716
 51
299.18070522367594
  0
ARC
  8
_0-0_
  6
CONTINUOUS
 62
    7
 10
-11.915108377408046
 20
-9.498359694602712
 40
0.0910661626596854
 50
94.316027519885949
 51
168.05582281153374
  0
ARC
  8
_0-0_
  6
CONTINUOUS
 62
    7
 10
-12.188589284987145
 20
-8.8523968430865239
 40
0.3296206844623414
 50
93.690468061901555
 51
180.00475247008822
  0
ARC
  8
_0-0_
  6
CONTINUOUS
 62
    7
 10
-12.13658152277867
 20
-8.9377145042107315
 40
0.3910431039974106
 50
167.40196526053833
 51
249.8189540713899
  0
ARC
  8
_0-0_
  6
CONTINUOUS
 62
    7
 10
-12.379895347260245
 20
-8.823452878125039
 40
0.4933555929463744
 50
282.69361944138331
 51
307.99873244251046
  0
ARC
  8
_0-0_
  6
CONTINUOUS
 62
    7
 10
-15.352978827980962
 20
-11.53095877996509
 40
0.8983539303468305
 50
82.697813710875337
 51
145.35519944648337
  0
ARC
  8
_0-0_
  6
CONTINUOUS
 62
    7
 10
-15.355989440630438
 20
-11.34305249289541
 40
0.8037282020294914
 50
156.32026712234159
 51
229.66896646149269
  0
ARC
  8
_0-0_
  6
CONTINUOUS
 62
    7
 10
-15.62789297072058
 20
-11.197309822710523
 40
0.7980404687990828
 50
251.87437507963716
 51
299.18070522367594
  0
ARC
  8
_0-0_
  6
CONTINUOUS
 62
    7
 10
-15.149701282831302
 20
-11.912914962031337
 40
0.0910661626596854
 50
94.316027519885949
 51
168.05582281153374
  0
ARC
  8
_0-0_
  6
CONTINUOUS
 62
    7
 10
-15.423182190410401
 20
-11.266952110515149
 40
0.3296206844623414
 50
93.690468061901555
 51
180.00475247008822
  0
ARC
  8
_0-0_
  6
CONTINUOUS
 62
    7
 10
-15.371174428201925
 20
-11.352269771639357
 40
0.3910431039974106
 50
167.40196526053833
 51
249.8189540713899
  0
ARC
  8
_0-0_
  6
CONTINUOUS
 62
    7
 10
-15.6144882526835
 20
-11.238008145553664
 40
0.4933555929463744
 50
282.69361944138331
 51
307.99873244251046
  0
ARC
  8
_0-0_
  6
CONTINUOUS
 62
    7
 10
-13.986249431323245
 20
-12.624342297291264
 40
0.8983539303468305
 50
82.697813710875337
 51
145.35519944648337
  0
ARC
  8
_0-0_
  6
CONTINUOUS
 62
    7
 10
-13.98926004397272
 20
-12.436436010221584
 40
0.8037282020294914
 50
156.32026712234159
 51
229.66896646149269
  0
ARC
  8
_0-0_
  6
CONTINUOUS
 62
    7
 10
-14.261163574062863
 20
-12.290693340036697
 40
0.7980404687990828
 50
251.87437507963716
 51
299.18070522367594
  0
ARC
  8
_0-0_
  6
CONTINUOUS
 62
    7
 10
-13.782971886173584
 20
-13.006298479357511
 40
0.0910661626596854
 50
94.316027519885949
 51
168.05582281153374
  0
ARC
  8
_0-0_
  6
CONTINUOUS
 62
    7
 10
-14.056452793752683
 20
-12.360335627841323
 40
0.3296206844623414
 50
93.690468061901555
 51
180.00475247008822
  0
ARC
  8
_0-0_
  6
CONTINUOUS
 62
    7
 10
-14.004445031544208
 20
-12.445653288965531
 40
0.3910431039974106
 50
167.40196526053833
 51
249.8189540713899
  0
ARC
  8
_0-0_
  6
CONTINUOUS
 62
    7
 10
-14.247758856025783
 20
-12.331391662879838
 40
0.4933555929463744
 50
282.69361944138331
 51
307.99873244251046
  0
ARC
  8
_0-0_
  6
CONTINUOUS
 62
    7
 10
-13.257327086439133
 20
-11.804304659296633
 40
0.8983539303468305
 50
82.697813710875337
 51
145.35519944648337
  0
ARC
  8
_0-0_
  6
CONTINUOUS
 62
    7
 10
-13.260337699088609
 20
-11.616398372226953
 40
0.8037282020294914
 50
156.32026712234159
 51
229.66896646149269
  0
ARC
  8
_0-0_
  6
CONTINUOUS
 62
    7
 10
-13.532241229178751
 20
-11.470655702042066
 40
0.7980404687990828
 50
251.87437507963716
 51
299.18070522367594
  0
ARC
  8
_0-0_
  6
CONTINUOUS
 62
    7
 10
-13.054049541289473
 20
-12.186260841362881
 40
0.0910661626596854
 50
94.316027519885949
 51
168.05582281153374
  0
ARC
  8
_0-0_
  6
CONTINUOUS
 62
    7
 10
-13.327530448868572
 20
-11.540297989846692
 40
0.3296206844623414
 50
93.690468061901555
 51
180.00475247008822
  0
ARC
  8
_0-0_
  6
CONTINUOUS
 62
    7
 10
-13.275522686660096
 20
-11.6256156509709
 40
0.3910431039974106
 50
167.40196526053833
 51
249.8189540713899
  0
ARC
  8
_0-0_
  6
CONTINUOUS
 62
    7
 10
-13.518836511141672
 20
-11.511354024885208
 40
0.4933555929463744
 50
282.69361944138331
 51
307.99873244251046
  0
ARC
  8
_0-0_
  6
CONTINUOUS
 62
    7
 10
-13.576230612325929
 20
-9.981998797086348
 40
0.8983539303468305
 50
82.697813710875337
 51
145.35519944648337
  0
ARC
  8
_0-0_
  6
CONTINUOUS
 62
    7
 10
-13.579241224975405
 20
-9.794092510016668
 40
0.8037282020294914
 50
156.32026712234159
 51
229.66896646149269
  0
ARC
  8
_0-0_
  6
CONTINUOUS
 62
    7
 10
-13.851144755065548
 20
-9.6483498398317806
 40
0.7980404687990828
 50
251.87437507963716
 51
299.18070522367594
  0
ARC
  8
_0-0_
  6
CONTINUOUS
 62
    7
 10
-13.372953067176269
 20
-10.363954979152595
 40
0.0910661626596854
 50
94.316027519885949
 51
168.05582281153374
  0
ARC
  8
_0-0_
  6
CONTINUOUS
 62
    7
 10
-13.646433974755368
 20
-9.717992127636407
 40
0.3296206844623414
 50
93.690468061901555
 51
180.00475247008822
  0
ARC
  8
_0-0_
  6
CONTINUOUS
 62
    7
 10
-13.594426212546892
 20
-9.8033097887606147
 40
0.3910431039974106
 50
167.40196526053833
 51
249.8189540713899
  0
ARC
  8
_0-0_
  6
CONTINUOUS
 62
    7
 10
-13.837740037028468
 20
-9.6890481626749221
 40
0.4933555929463744
 50
282.69361944138331
 51
307.99873244251046
  0
ARC
  8
_0-0_
  6
CONTINUOUS
 62
    7
 10
-12.938423560552323
 20
-6.9296364778841237
 40
0.8983539303468305
 50
82.697813710875337
 51
145.35519944648337
  0
ARC
  8
_0-0_
  6
CONTINUOUS
 62
    7
 10
-12.941434173201799
 20
-6.7417301908144438
 40
0.8037282020294914
 50
156.32026712234159
 51
229.66896646149269
  0
ARC
  8
_0-0_
  6
CONTINUOUS
 62
    7
 10
-13.213337703291941
 20
-6.5959875206295564
 40
0.7980404687990828
 50
251.87437507963716
 51
299.18070522367594
  0
ARC
  8
_0-0_
  6
CONTINUOUS
 62
    7
 10
-12.735146015402663
 20
-7.3115926599503709
 40
0.0910661626596854
 50
94.316027519885949
 51
168.05582281153374
  0
ARC
  8
_0-0_
  6
CONTINUOUS
 62
    7
 10
-13.008626922981762
 20
-6.6656298084341827
 40
0.3296206844623414
 50
93.690468061901555
 51
180.00475247008822
  0
ARC
  8
_0-0_
  6
CONTINUOUS
 62
    7
 10
-12.956619160773286
 20
-6.7509474695583904
 40
0.3910431039974106
 50
167.40196526053833
 51
249.8189540713899
  0
ARC
  8
_0-0_
  6
CONTINUOUS
 62
    7
 10
-13.199932985254861
 20
-6.6366858434726979
 40
0.4933555929463744
 50
282.69361944138331
 51
307.99873244251046
  0
ARC
  8
_0-0_
  6
CONTINUOUS
 62
    7
 10
-20.865454061167071
 20
-10.665363495415207
 40
0.8983539303468305
 50
82.697813710875337
 51
145.35519944648337
  0
ARC
  8
_0-0_
  6
CONTINUOUS
 62
    7
 10
-20.868464673816547
 20
-10.477457208345527
 40
0.8037282020294914
 50
156.32026712234159
 51
229.66896646149269
  0
ARC
  8
_0-0_
  6
CONTINUOUS
 62
    7
 10
-21.140368203906689
 20
-10.331714538160639
 40
0.7980404687990828
 50
251.87437507963716
 51
299.18070522367594
  0
ARC
  8
_0-0_
  6
CONTINUOUS
 62
    7
 10
-20.662176516017411
 20
-11.047319677481454
 40
0.0910661626596854
 50
94.316027519885949
 51
168.05582281153374
  0
ARC
  8
_0-0_
  6
CONTINUOUS
 62
    7
 10
-20.93565742359651
 20
-10.401356825965266
 40
0.3296206844623414
 50
93.690468061901555
 51
180.00475247008822
  0
ARC
  8
_0-0_
  6
CONTINUOUS
 62
    7
 10
-20.883649661388034
 20
-10.486674487089473
 40
0.3910431039974106
 50
167.40196526053833
 51
249.8189540713899
  0
ARC
  8
_0-0_
  6
CONTINUOUS
 62
    7
 10
-21.126963485869609
 20
-10.372412861003781
 40
0.4933555929463744
 50
282.69361944138331
 51
307.99873244251046
  0
ARC
  8
_0-0_
  6
CONTINUOUS
 62
    7
 10
-20.318762302503984
 20
-11.895419952407146
 40
0.8983539303468305
 50
82.697813710875337
 51
145.35519944648337
  0
ARC
  8
_0-0_
  6
CONTINUOUS
 62
    7
 10
-20.32177291515346
 20
-11.707513665337466
 40
0.8037282020294914
 50
156.32026712234159
 51
229.66896646149269
  0
ARC
  8
_0-0_
  6
CONTINUOUS
 62
    7
 10
-20.593676445243602
 20
-11.561770995152578
 40
0.7980404687990828
 50
251.87437507963716
 51
299.18070522367594
  0
ARC
  8
_0-0_
  6
CONTINUOUS
 62
    7
 10
-20.115484757354324
 20
-12.277376134473393
 40
0.0910661626596854
 50
94.316027519885949
 51
168.05582281153374
  0
ARC
  8
_0-0_
  6
CONTINUOUS
 62
    7
 10
-20.388965664933423
 20
-11.631413282957205
 40
0.3296206844623414
 50
93.690468061901555
 51
180.00475247008822
  0
ARC
  8
_0-0_
  6
CONTINUOUS
 62
    7
 10
-20.336957902724947
 20
-11.716730944081412
 40
0.3910431039974106
 50
167.40196526053833
 51
249.8189540713899
  0
ARC
  8
_0-0_
  6
CONTINUOUS
 62
    7
 10
-20.580271727206522
 20
-11.60246931799572
 40
0.4933555929463744
 50
282.69361944138331
 51
307.99873244251046
  0
ARC
  8
_0-0_
  6
CONTINUOUS
 62
    7
 10
-19.043148198956786
 20
-10.756478788525719
 40
0.8983539303468305
 50
82.697813710875337
 51
145.35519944648337
  0
ARC
  8
_0-0_
  6
CONTINUOUS
 62
    7
 10
-19.046158811606261
 20
-10.568572501456039
 40
0.8037282020294914
 50
156.32026712234159
 51
229.66896646149269
  0
ARC
  8
_0-0_
  6
CONTINUOUS
 62
    7
 10
-19.318062341696404
 20
-10.422829831271152
 40
0.7980404687990828
 50
251.87437507963716
 51
299.18070522367594
  0
ARC
  8
_0-0_
  6
CONTINUOUS
 62
    7
 10
-18.839870653807125
 20
-11.138434970591966
 40
0.0910661626596854
 50
94.316027519885949
 51
168.05582281153374
  0
ARC
  8
_0-0_
  6
CONTINUOUS
 62
    7
 10
-19.113351561386224
 20
-10.492472119075778
 40
0.3296206844623414
 50
93.690468061901555
 51
180.00475247008822
  0
ARC
  8
_0-0_
  6
CONTINUOUS
 62
    7
 10
-19.061343799177749
 20
-10.577789780199986
 40
0.3910431039974106
 50
167.40196526053833
 51
249.8189540713899
  0
ARC
  8
_0-0_
  6
CONTINUOUS
 62
    7
 10
-19.304657623659324
 20
-10.463528154114293
 40
0.4933555929463744
 50
282.69361944138331
 51
307.99873244251046
  0
ARC
  8
_0-0_
  6
CONTINUOUS
 62
    7
 10
-19.81762819039615
 20
-9.4353070384232609
 40
0.8983539303468305
 50
82.697813710875337
 51
145.35519944648337
  0
ARC
  8
_0-0_
  6
CONTINUOUS
 62
    7
 10
-19.820638803045625
 20
-9.247400751353581
 40
0.8037282020294914
 50
156.32026712234159
 51
229.66896646149269
  0
ARC
  8
_0-0_
  6
CONTINUOUS
 62
    7
 10
-20.092542333135768
 20
-9.1016580811686936
 40
0.7980404687990828
 50
251.87437507963716
 51
299.18070522367594
  0
ARC
  8
_0-0_
  6
CONTINUOUS
 62
    7
 10
-19.614350645246489
 20
-9.8172632204895081
 40
0.0910661626596854
 50
94.316027519885949
 51
168.05582281153374
  0
ARC
  8
_0-0_
  6
CONTINUOUS
 62
    7
 10
-19.887831552825588
 20
-9.1713003689733199
 40
0.3296206844623414
 50
93.690468061901555
 51
180.00475247008822
  0
ARC
  8
_0-0_
  6
CONTINUOUS
 62
    7
 10
-19.835823790617113
 20
-9.2566180300975276
 40
0.3910431039974106
 50
167.40196526053833
 51
249.8189540713899
  0
ARC
  8
_0-0_
  6
CONTINUOUS
 62
    7
 10
-20.079137615098688
 20
-9.142356404011835
 40
0.4933555929463744
 50
282.69361944138331
 51
307.99873244251046
  0
ARC
  8
_0-0_
  6
CONTINUOUS
 62
    7
 10
-20.683223474946033
 20
-8.433038814207606
 40
0.8983539303468305
 50
82.697813710875337
 51
145.35519944648337
  0
ARC
  8
_0-0_
  6
CONTINUOUS
 62
    7
 10
-20.686234087595508
 20
-8.2451325271379261
 40
0.8037282020294914
 50
156.32026712234159
 51
229.66896646149269
  0
ARC
  8
_0-0_
  6
CONTINUOUS
 62
    7
 10
-20.958137617685651
 20
-8.0993898569530387
 40
0.7980404687990828
 50
251.87437507963716
 51
299.18070522367594
  0
ARC
  8
_0-0_
  6
CONTINUOUS
 62
    7
 10
-20.479945929796372
 20
-8.8149949962738532
 40
0.0910661626596854
 50
94.316027519885949
 51
168.05582281153374
  0
ARC
  8
_0-0_
  6
CONTINUOUS
 62
    7
 10
-20.753426837375471
 20
-8.169032144757665
 40
0.3296206844623414
 50
93.690468061901555
 51
180.00475247008822
  0
ARC
  8
_0-0_
  6
CONTINUOUS
 62
    7
 10
-20.701419075166996
 20
-8.2543498058818727
 40
0.3910431039974106
 50
167.40196526053833
 51
249.8189540713899
  0
ARC
  8
_0-0_
  6
CONTINUOUS
 62
    7
 10
-20.944732899648571
 20
-8.1400881797961802
 40
0.4933555929463744
 50
282.69361944138331
 51
307.99873244251046
  0
ARC
  8
_0-0_
  6
CONTINUOUS
 62
    7
 10
-18.450898793738446
 20
-8.5241541073181182
 40
0.8983539303468305
 50
82.697813710875337
 51
145.35519944648337
  0
ARC
  8
_0-0_
  6
CONTINUOUS
 62
    7
 10
-18.453909406387922
 20
-8.3362478202484382
 40
0.8037282020294914
 50
156.32026712234159
 51
229.66896646149269
  0
ARC
  8
_0-0_
  6
CONTINUOUS
 62
    7
 10
-18.725812936478064
 20
-8.1905051500635508
 40
0.7980404687990828
 50
251.87437507963716
 51
299.18070522367594
  0
ARC
  8
_0-0_
  6
CONTINUOUS
 62
    7
 10
-18.247621248588786
 20
-8.9061102893843653
 40
0.0910661626596854
 50
94.316027519885949
 51
168.05582281153374
  0
ARC
  8
_0-0_
  6
CONTINUOUS
 62
    7
 10
-18.521102156167885
 20
-8.2601474378681772
 40
0.3296206844623414
 50
93.690468061901555
 51
180.00475247008822
  0
ARC
  8
_0-0_
  6
CONTINUOUS
 62
    7
 10
-18.469094393959409
 20
-8.3454650989923849
 40
0.3910431039974106
 50
167.40196526053833
 51
249.8189540713899
  0
ARC
  8
_0-0_
  6
CONTINUOUS
 62
    7
 10
-18.712408218440984
 20
-8.2312034729066923
 40
0.4933555929463744
 50
282.69361944138331
 51
307.99873244251046
  0
ARC
  8
_0-0_
  6
CONTINUOUS
 62
    7
 10
-19.81762819039615
 20
-6.1551564864447528
 40
0.8983539303468305
 50
82.697813710875337
 51
145.35519944648337
  0
ARC
  8
_0-0_
  6
CONTINUOUS
 62
    7
 10
-19.820638803045625
 20
-5.9672501993750728
 40
0.8037282020294914
 50
156.32026712234159
 51
229.66896646149269
  0
ARC
  8
_0-0_
  6
CONTINUOUS
 62
    7
 10
-20.092542333135768
 20
-5.8215075291901854
 40
0.7980404687990828
 50
251.87437507963716
 51
299.18070522367594
  0
ARC
  8
_0-0_
  6
CONTINUOUS
 62
    7
 10
-19.614350645246489
 20
-6.5371126685109999
 40
0.0910661626596854
 50
94.316027519885949
 51
168.05582281153374
  0
ARC
  8
_0-0_
  6
CONTINUOUS
 62
    7
 10
-19.887831552825588
 20
-5.8911498169948118
 40
0.3296206844623414
 50
93.690468061901555
 51
180.00475247008822
  0
ARC
  8
_0-0_
  6
CONTINUOUS
 62
    7
 10
-19.835823790617113
 20
-5.9764674781190195
 40
0.3910431039974106
 50
167.40196526053833
 51
249.8189540713899
  0
ARC
  8
_0-0_
  6
CONTINUOUS
 62
    7
 10
-20.079137615098688
 20
-5.8622058520333269
 40
0.4933555929463744
 50
282.69361944138331
 51
307.99873244251046
  0
ARC
  8
_0-0_
  6
CONTINUOUS
 62
    7
 10
-17.995322328185864
 20
-6.1551564864447528
 40
0.8983539303468305
 50
82.697813710875337
 51
145.35519944648337
  0
ARC
  8
_0-0_
  6
CONTINUOUS
 62
    7
 10
-17.99833294083534
 20
-5.9672501993750728
 40
0.8037282020294914
 50
156.32026712234159
 51
229.66896646149269
  0
ARC
  8
_0-0_
  6
CONTINUOUS
 62
    7
 10
-18.270236470925482
 20
-5.8215075291901854
 40
0.7980404687990828
 50
251.87437507963716
 51
299.18070522367594
  0
ARC
  8
_0-0_
  6
CONTINUOUS
 62
    7
 10
-17.792044783036204
 20
-6.5371126685109999
 40
0.0910661626596854
 50
94.316027519885949
 51
168.05582281153374
  0
ARC
  8
_0-0_
  6
CONTINUOUS
 62
    7
 10
-18.065525690615303
 20
-5.8911498169948118
 40
0.3296206844623414
 50
93.690468061901555
 51
180.00475247008822
  0
ARC
  8
_0-0_
  6
CONTINUOUS
 62
    7
 10
-18.013517928406827
 20
-5.9764674781190195
 40
0.3910431039974106
 50
167.40196526053833
 51
249.8189540713899
  0
ARC
  8
_0-0_
  6
CONTINUOUS
 62
    7
 10
-18.256831752888402
 20
-5.8622058520333269
 40
0.4933555929463744
 50
282.69361944138331
 51
307.99873244251046
  0
ARC
  8
_0-0_
  6
CONTINUOUS
 62
    7
 10
-19.088705845512038
 20
-6.6562905985525802
 40
0.8983539303468305
 50
82.697813710875337
 51
145.35519944648337
  0
ARC
  8
_0-0_
  6
CONTINUOUS
 62
    7
 10
-19.091716458161514
 20
-6.4683843114829003
 40
0.8037282020294914
 50
156.32026712234159
 51
229.66896646149269
  0
ARC
  8
_0-0_
  6
CONTINUOUS
 62
    7
 10
-19.363619988251656
 20
-6.3226416412980129
 40
0.7980404687990828
 50
251.87437507963716
 51
299.18070522367594
  0
ARC
  8
_0-0_
  6
CONTINUOUS
 62
    7
 10
-18.885428300362378
 20
-7.0382467806188274
 40
0.0910661626596854
 50
94.316027519885949
 51
168.05582281153374
  0
ARC
  8
_0-0_
  6
CONTINUOUS
 62
    7
 10
-19.158909207941477
 20
-6.3922839291026392
 40
0.3296206844623414
 50
93.690468061901555
 51
180.00475247008822
  0
ARC
  8
_0-0_
  6
CONTINUOUS
 62
    7
 10
-19.106901445733001
 20
-6.4776015902268469
 40
0.3910431039974106
 50
167.40196526053833
 51
249.8189540713899
  0
ARC
  8
_0-0_
  6
CONTINUOUS
 62
    7
 10
-19.350215270214576
 20
-6.3633399641411543
 40
0.4933555929463744
 50
282.69361944138331
 51
307.99873244251046
  0
ARC
  8
_0-0_
  6
CONTINUOUS
 62
    7
 10
-19.453167017954101
 20
-3.6950435724608681
 40
0.8983539303468305
 50
82.697813710875337
 51
145.35519944648337
  0
ARC
  8
_0-0_
  6
CONTINUOUS
 62
    7
 10
-19.456177630603577
 20
-3.5071372853911882
 40
0.8037282020294914
 50
156.32026712234159
 51
229.66896646149269
  0
ARC
  8
_0-0_
  6
CONTINUOUS
 62
    7
 10
-19.728081160693719
 20
-3.3613946152063008
 40
0.7980404687990828
 50
251.87437507963716
 51
299.18070522367594
  0
ARC
  8
_0-0_
  6
CONTINUOUS
 62
    7
 10
-19.249889472804441
 20
-4.0769997545271153
 40
0.0910661626596854
 50
94.316027519885949
 51
168.05582281153374
  0
ARC
  8
_0-0_
  6
CONTINUOUS
 62
    7
 10
-19.52337038038354
 20
-3.4310369030109271
 40
0.3296206844623414
 50
93.690468061901555
 51
180.00475247008822
  0
ARC
  8
_0-0_
  6
CONTINUOUS
 62
    7
 10
-19.471362618175064
 20
-3.5163545641351348
 40
0.3910431039974106
 50
167.40196526053833
 51
249.8189540713899
  0
ARC
  8
_0-0_
  6
CONTINUOUS
 62
    7
 10
-19.714676442656639
 20
-3.4020929380494422
 40
0.4933555929463744
 50
282.69361944138331
 51
307.99873244251046
  0
ARC
  8
_0-0_
  6
CONTINUOUS
 62
    7
 10
-18.314225854072674
 20
-3.9683894517924116
 40
0.8983539303468305
 50
82.697813710875337
 51
145.35519944648337
  0
ARC
  8
_0-0_
  6
CONTINUOUS
 62
    7
 10
-18.31723646672215
 20
-3.7804831647227317
 40
0.8037282020294914
 50
156.32026712234159
 51
229.66896646149269
  0
ARC
  8
_0-0_
  6
CONTINUOUS
 62
    7
 10
-18.589139996812293
 20
-3.6347404945378443
 40
0.7980404687990828
 50
251.87437507963716
 51
299.18070522367594
  0
ARC
  8
_0-0_
  6
CONTINUOUS
 62
    7
 10
-18.110948308923014
 20
-4.3503456338586588
 40
0.0910661626596854
 50
94.316027519885949
 51
168.05582281153374
  0
ARC
  8
_0-0_
  6
CONTINUOUS
 62
    7
 10
-18.384429216502113
 20
-3.7043827823424706
 40
0.3296206844623414
 50
93.690468061901555
 51
180.00475247008822
  0
ARC
  8
_0-0_
  6
CONTINUOUS
 62
    7
 10
-18.332421454293637
 20
-3.7897004434666783
 40
0.3910431039974106
 50
167.40196526053833
 51
249.8189540713899
  0
ARC
  8
_0-0_
  6
CONTINUOUS
 62
    7
 10
-18.575735278775213
 20
-3.6754388173809858
 40
0.4933555929463744
 50
282.69361944138331
 51
307.99873244251046
  0
ARC
  8
_0-0_
  6
CONTINUOUS
 62
    7
 10
-17.2208423367465
 20
-3.4672553396845842
 40
0.8983539303468305
 50
82.697813710875337
 51
145.35519944648337
  0
ARC
  8
_0-0_
  6
CONTINUOUS
 62
    7
 10
-17.223852949395976
 20
-3.2793490526149043
 40
0.8037282020294914
 50
156.32026712234159
 51
229.66896646149269
  0
ARC
  8
_0-0_
  6
CONTINUOUS
 62
    7
 10
-17.495756479486118
 20
-3.1336063824300169
 40
0.7980404687990828
 50
251.87437507963716
 51
299.18070522367594
  0
ARC
  8
_0-0_
  6
CONTINUOUS
 62
    7
 10
-17.01756479159684
 20
-3.8492115217508314
 40
0.0910661626596854
 50
94.316027519885949
 51
168.05582281153374
  0
ARC
  8
_0-0_
  6
CONTINUOUS
 62
    7
 10
-17.291045699175939
 20
-3.2032486702346432
 40
0.3296206844623414
 50
93.690468061901555
 51
180.00475247008822
  0
ARC
  8
_0-0_
  6
CONTINUOUS
 62
    7
 10
-17.239037936967463
 20
-3.2885663313588509
 40
0.3910431039974106
 50
167.40196526053833
 51
249.8189540713899
  0
ARC
  8
_0-0_
  6
CONTINUOUS
 62
    7
 10
-17.482351761449038
 20
-3.1743047052731583
 40
0.4933555929463744
 50
282.69361944138331
 51
307.99873244251046
  0
ARC
  8
_0-0_
  6
CONTINUOUS
 62
    7
 10
-16.856381164304437
 20
-1.6905071240295513
 40
0.8983539303468305
 50
82.697813710875337
 51
145.35519944648337
  0
ARC
  8
_0-0_
  6
CONTINUOUS
 62
    7
 10
-16.859391776953913
 20
-1.5026008369598713
 40
0.8037282020294914
 50
156.32026712234159
 51
229.66896646149269
  0
ARC
  8
_0-0_
  6
CONTINUOUS
 62
    7
 10
-17.131295307044056
 20
-1.3568581667749839
 40
0.7980404687990828
 50
251.87437507963716
 51
299.18070522367594
  0
ARC
  8
_0-0_
  6
CONTINUOUS
 62
    7
 10
-16.653103619154777
 20
-2.0724633060957984
 40
0.0910661626596854
 50
94.316027519885949
 51
168.05582281153374
  0
ARC
  8
_0-0_
  6
CONTINUOUS
 62
    7
 10
-16.926584526733876
 20
-1.4265004545796103
 40
0.3296206844623414
 50
93.690468061901555
 51
180.00475247008822
  0
ARC
  8
_0-0_
  6
CONTINUOUS
 62
    7
 10
-16.874576764525401
 20
-1.511818115703818
 40
0.3910431039974106
 50
167.40196526053833
 51
249.8189540713899
  0
ARC
  8
_0-0_
  6
CONTINUOUS
 62
    7
 10
-17.117890589006976
 20
-1.3975564896181254
 40
0.4933555929463744
 50
282.69361944138331
 51
307.99873244251046
  0
ARC
  8
_0-0_
  6
CONTINUOUS
 62
    7
 10
-19.088705845512038
 20
-1.1438153653664713
 40
0.8983539303468305
 50
82.697813710875337
 51
145.35519944648337
  0
ARC
  8
_0-0_
  6
CONTINUOUS
 62
    7
 10
-19.091716458161514
 20
-0.9559090782967913
 40
0.8037282020294914
 50
156.32026712234159
 51
229.66896646149269
  0
ARC
  8
_0-0_
  6
CONTINUOUS
 62
    7
 10
-19.363619988251656
 20
-0.8101664081119039
 40
0.7980404687990828
 50
251.87437507963716
 51
299.18070522367594
  0
ARC
  8
_0-0_
  6
CONTINUOUS
 62
    7
 10
-18.885428300362378
 20
-1.5257715474327185
 40
0.0910661626596854
 50
94.316027519885949
 51
168.05582281153374
  0
ARC
  8
_0-0_
  6
CONTINUOUS
 62
    7
 10
-19.158909207941477
 20
-0.8798086959165303
 40
0.3296206844623414
 50
93.690468061901555
 51
180.00475247008822
  0
ARC
  8
_0-0_
  6
CONTINUOUS
 62
    7
 10
-19.106901445733001
 20
-0.965126357040738
 40
0.3910431039974106
 50
167.40196526053833
 51
249.8189540713899
  0
ARC
  8
_0-0_
  6
CONTINUOUS
 62
    7
 10
-19.350215270214576
 20
-0.8508647309550454
 40
0.4933555929463744
 50
282.69361944138331
 51
307.99873244251046
  0
ARC
  8
_0-0_
  6
CONTINUOUS
 62
    7
 10
-18.268668207517408
 20
1.0429516692858769
 40
0.8983539303468305
 50
82.697813710875337
 51
145.35519944648337
  0
ARC
  8
_0-0_
  6
CONTINUOUS
 62
    7
 10
-18.271678820166883
 20
1.2308579563555568
 40
0.8037282020294914
 50
156.32026712234159
 51
229.66896646149269
  0
ARC
  8
_0-0_
  6
CONTINUOUS
 62
    7
 10
-18.543582350257026
 20
1.3766006265404442
 40
0.7980404687990828
 50
251.87437507963716
 51
299.18070522367594
  0
ARC
  8
_0-0_
  6
CONTINUOUS
 62
    7
 10
-18.065390662367747
 20
0.6609954872196297
 40
0.0910661626596854
 50
94.316027519885949
 51
168.05582281153374
  0
ARC
  8
_0-0_
  6
CONTINUOUS
 62
    7
 10
-18.338871569946846
 20
1.3069583387358179
 40
0.3296206844623414
 50
93.690468061901555
 51
180.00475247008822
  0
ARC
  8
_0-0_
  6
CONTINUOUS
 62
    7
 10
-18.286863807738371
 20
1.2216406776116102
 40
0.3910431039974106
 50
167.40196526053833
 51
249.8189540713899
  0
ARC
  8
_0-0_
  6
CONTINUOUS
 62
    7
 10
-18.530177632219946
 20
1.3359023036973028
 40
0.4933555929463744
 50
282.69361944138331
 51
307.99873244251046
  0
ARC
  8
_0-0_
  6
CONTINUOUS
 62
    7
 10
-16.40080469875187
 20
1.0429516692858769
 40
0.8983539303468305
 50
82.697813710875337
 51
145.35519944648337
  0
ARC
  8
_0-0_
  6
CONTINUOUS
 62
    7
 10
-16.403815311401345
 20
1.2308579563555568
 40
0.8037282020294914
 50
156.32026712234159
 51
229.66896646149269
  0
ARC
  8
_0-0_
  6
CONTINUOUS
 62
    7
 10
-16.675718841491488
 20
1.3766006265404442
 40
0.7980404687990828
 50
251.87437507963716
 51
299.18070522367594
  0
ARC
  8
_0-0_
  6
CONTINUOUS
 62
    7
 10
-16.197527153602209
 20
0.6609954872196297
 40
0.0910661626596854
 50
94.316027519885949
 51
168.05582281153374
  0
ARC
  8
_0-0_
  6
CONTINUOUS
 62
    7
 10
-16.471008061181308
 20
1.3069583387358179
 40
0.3296206844623414
 50
93.690468061901555
 51
180.00475247008822
  0
ARC
  8
_0-0_
  6
CONTINUOUS
 62
    7
 10
-16.419000298972833
 20
1.2216406776116102
 40
0.3910431039974106
 50
167.40196526053833
 51
249.8189540713899
  0
ARC
  8
_0-0_
  6
CONTINUOUS
 62
    7
 10
-16.662314123454408
 20
1.3359023036973028
 40
0.4933555929463744
 50
282.69361944138331
 51
307.99873244251046
  0
ARC
  8
_0-0_
  6
CONTINUOUS
 62
    7
 10
-18.040879974741131
 20
3.4119492901592423
 40
0.8983539303468305
 50
82.697813710875337
 51
145.35519944648337
  0
ARC
  8
_0-0_
  6
CONTINUOUS
 62
    7
 10
-18.043890587390607
 20
3.5998555772289222
 40
0.8037282020294914
 50
156.32026712234159
 51
229.66896646149269
  0
ARC
  8
_0-0_
  6
CONTINUOUS
 62
    7
 10
-18.315794117480749
 20
3.7455982474138096
 40
0.7980404687990828
 50
251.87437507963716
 51
299.18070522367594
  0
ARC
  8
_0-0_
  6
CONTINUOUS
 62
    7
 10
-17.83760242959147
 20
3.0299931080929952
 40
0.0910661626596854
 50
94.316027519885949
 51
168.05582281153374
  0
ARC
  8
_0-0_
  6
CONTINUOUS
 62
    7
 10
-18.11108333717057
 20
3.6759559596091833
 40
0.3296206844623414
 50
93.690468061901555
 51
180.00475247008822
  0
ARC
  8
_0-0_
  6
CONTINUOUS
 62
    7
 10
-18.059075574962094
 20
3.5906382984849756
 40
0.3910431039974106
 50
167.40196526053833
 51
249.8189540713899
  0
ARC
  8
_0-0_
  6
CONTINUOUS
 62
    7
 10
-18.302389399443669
 20
3.7048999245706682
 40
0.4933555929463744
 50
282.69361944138331
 51
307.99873244251046
  0
ARC
  8
_0-0_
  6
CONTINUOUS
 62
    7
 10
-15.80855529353353
 20
3.5030645832697545
 40
0.8983539303468305
 50
82.697813710875337
 51
145.35519944648337
  0
ARC
  8
_0-0_
  6
CONTINUOUS
 62
    7
 10
-15.811565906183006
 20
3.6909708703394344
 40
0.8037282020294914
 50
156.32026712234159
 51
229.66896646149269
  0
ARC
  8
_0-0_
  6
CONTINUOUS
 62
    7
 10
-16.083469436273148
 20
3.8367135405243218
 40
0.7980404687990828
 50
251.87437507963716
 51
299.18070522367594
  0
ARC
  8
_0-0_
  6
CONTINUOUS
 62
    7
 10
-15.60527774838387
 20
3.1211084012035073
 40
0.0910661626596854
 50
94.316027519885949
 51
168.05582281153374
  0
ARC
  8
_0-0_
  6
CONTINUOUS
 62
    7
 10
-15.878758655962969
 20
3.7670712527196955
 40
0.3296206844623414
 50
93.690468061901555
 51
180.00475247008822
  0
ARC
  8
_0-0_
  6
CONTINUOUS
 62
    7
 10
-15.826750893754493
 20
3.6817535915954878
 40
0.3910431039974106
 50
167.40196526053833
 51
249.8189540713899
  0
ARC
  8
_0-0_
  6
CONTINUOUS
 62
    7
 10
-16.070064718236068
 20
3.7960152176811803
 40
0.4933555929463744
 50
282.69361944138331
 51
307.99873244251046
  0
ARC
  8
_0-0_
  6
CONTINUOUS
 62
    7
 10
-17.311957629857005
 20
5.7353892644773552
 40
0.8983539303468305
 50
82.697813710875337
 51
145.35519944648337
  0
ARC
  8
_0-0_
  6
CONTINUOUS
 62
    7
 10
-17.314968242506481
 20
5.9232955515470351
 40
0.8037282020294914
 50
156.32026712234159
 51
229.66896646149269
  0
ARC
  8
_0-0_
  6
CONTINUOUS
 62
    7
 10
-17.586871772596623
 20
6.0690382217319225
 40
0.7980404687990828
 50
251.87437507963716
 51
299.18070522367594
  0
ARC
  8
_0-0_
  6
CONTINUOUS
 62
    7
 10
-17.108680084707345
 20
5.353433082411108
 40
0.0910661626596854
 50
94.316027519885949
 51
168.05582281153374
  0
ARC
  8
_0-0_
  6
CONTINUOUS
 62
    7
 10
-17.382160992286444
 20
5.9993959339272962
 40
0.3296206844623414
 50
93.690468061901555
 51
180.00475247008822
  0
ARC
  8
_0-0_
  6
CONTINUOUS
 62
    7
 10
-17.330153230077968
 20
5.9140782728030885
 40
0.3910431039974106
 50
167.40196526053833
 51
249.8189540713899
  0
ARC
  8
_0-0_
  6
CONTINUOUS
 62
    7
 10
-17.573467054559543
 20
6.0283398988887811
 40
0.4933555929463744
 50
282.69361944138331
 51
307.99873244251046
  0
ARC
  8
_0-0_
  6
CONTINUOUS
 62
    7
 10
-15.352978827980962
 20
5.5076010317010713
 40
0.8983539303468305
 50
82.697813710875337
 51
145.35519944648337
  0
ARC
  8
_0-0_
  6
CONTINUOUS
 62
    7
 10
-15.355989440630438
 20
5.6955073187707512
 40
0.8037282020294914
 50
156.32026712234159
 51
229.66896646149269
  0
ARC
  8
_0-0_
  6
CONTINUOUS
 62
    7
 10
-15.62789297072058
 20
5.8412499889556386
 40
0.7980404687990828
 50
251.87437507963716
 51
299.18070522367594
  0
ARC
  8
_0-0_
  6
CONTINUOUS
 62
    7
 10
-15.149701282831302
 20
5.1256448496348241
 40
0.0910661626596854
 50
94.316027519885949
 51
168.05582281153374
  0
ARC
  8
_0-0_
  6
CONTINUOUS
 62
    7
 10
-15.423182190410401
 20
5.7716077011510123
 40
0.3296206844623414
 50
93.690468061901555
 51
180.00475247008822
  0
ARC
  8
_0-0_
  6
CONTINUOUS
 62
    7
 10
-15.371174428201925
 20
5.6862900400268046
 40
0.3910431039974106
 50
167.40196526053833
 51
249.8189540713899
  0
ARC
  8
_0-0_
  6
CONTINUOUS
 62
    7
 10
-15.6144882526835
 20
5.8005516661124972
 40
0.4933555929463744
 50
282.69361944138331
 51
307.99873244251046
  0
ARC
  8
_0-0_
  6
CONTINUOUS
 62
    7
 10
-16.901938810859704
 20
8.0588292387954681
 40
0.8983539303468305
 50
82.697813710875337
 51
145.35519944648337
  0
ARC
  8
_0-0_
  6
CONTINUOUS
 62
    7
 10
-16.90494942350918
 20
8.246735525865148
 40
0.8037282020294914
 50
156.32026712234159
 51
229.66896646149269
  0
ARC
  8
_0-0_
  6
CONTINUOUS
 62
    7
 10
-17.176852953599322
 20
8.3924781960500354
 40
0.7980404687990828
 50
251.87437507963716
 51
299.18070522367594
  0
ARC
  8
_0-0_
  6
CONTINUOUS
 62
    7
 10
-16.698661265710044
 20
7.6768730567292209
 40
0.0910661626596854
 50
94.316027519885949
 51
168.05582281153374
  0
ARC
  8
_0-0_
  6
CONTINUOUS
 62
    7
 10
-16.972142173289143
 20
8.3228359082454091
 40
0.3296206844623414
 50
93.690468061901555
 51
180.00475247008822
  0
ARC
  8
_0-0_
  6
CONTINUOUS
 62
    7
 10
-16.920134411080667
 20
8.2375182471212014
 40
0.3910431039974106
 50
167.40196526053833
 51
249.8189540713899
  0
ARC
  8
_0-0_
  6
CONTINUOUS
 62
    7
 10
-17.163448235562242
 20
8.351779873206894
 40
0.4933555929463744
 50
282.69361944138331
 51
307.99873244251046
  0
ARC
  8
_0-0_
  6
CONTINUOUS
 62
    7
 10
-14.988517655538899
 20
7.9221562991296963
 40
0.8983539303468305
 50
82.697813710875337
 51
145.35519944648337
  0
ARC
  8
_0-0_
  6
CONTINUOUS
 62
    7
 10
-14.991528268188375
 20
8.1100625861993763
 40
0.8037282020294914
 50
156.32026712234159
 51
229.66896646149269
  0
ARC
  8
_0-0_
  6
CONTINUOUS
 62
    7
 10
-15.263431798278518
 20
8.2558052563842637
 40
0.7980404687990828
 50
251.87437507963716
 51
299.18070522367594
  0
ARC
  8
_0-0_
  6
CONTINUOUS
 62
    7
 10
-14.785240110389239
 20
7.5402001170634492
 40
0.0910661626596854
 50
94.316027519885949
 51
168.05582281153374
  0
ARC
  8
_0-0_
  6
CONTINUOUS
 62
    7
 10
-15.058721017968338
 20
8.1861629685796373
 40
0.3296206844623414
 50
93.690468061901555
 51
180.00475247008822
  0
ARC
  8
_0-0_
  6
CONTINUOUS
 62
    7
 10
-15.006713255759863
 20
8.1008453074554296
 40
0.3910431039974106
 50
167.40196526053833
 51
249.8189540713899
  0
ARC
  8
_0-0_
  6
CONTINUOUS
 62
    7
 10
-15.250027080241438
 20
8.2151069335411222
 40
0.4933555929463744
 50
282.69361944138331
 51
307.99873244251046
  0
ARC
  8
_0-0_
  6
CONTINUOUS
 62
    7
 10
-15.717440000423011
 20
9.1522127561216422
 40
0.8983539303468305
 50
82.697813710875337
 51
145.35519944648337
  0
ARC
  8
_0-0_
  6
CONTINUOUS
 62
    7
 10
-15.720450613072487
 20
9.3401190431913221
 40
0.8037282020294914
 50
156.32026712234159
 51
229.66896646149269
  0
ARC
  8
_0-0_
  6
CONTINUOUS
 62
    7
 10
-15.992354143162629
 20
9.4858617133762095
 40
0.7980404687990828
 50
251.87437507963716
 51
299.18070522367594
  0
ARC
  8
_0-0_
  6
CONTINUOUS
 62
    7
 10
-15.51416245527335
 20
8.770256574055395
 40
0.0910661626596854
 50
94.316027519885949
 51
168.05582281153374
  0
ARC
  8
_0-0_
  6
CONTINUOUS
 62
    7
 10
-15.78764336285245
 20
9.4162194255715832
 40
0.3296206844623414
 50
93.690468061901555
 51
180.00475247008822
  0
ARC
  8
_0-0_
  6
CONTINUOUS
 62
    7
 10
-15.735635600643974
 20
9.3309017644473755
 40
0.3910431039974106
 50
167.40196526053833
 51
249.8189540713899
  0
ARC
  8
_0-0_
  6
CONTINUOUS
 62
    7
 10
-15.978949425125549
 20
9.4451633905330681
 40
0.4933555929463744
 50
282.69361944138331
 51
307.99873244251046
  0
ARC
  8
_0-0_
  6
CONTINUOUS
 62
    7
 10
-16.583035284972894
 20
10.245596273447809
 40
0.8983539303468305
 50
82.697813710875337
 51
145.35519944648337
  0
ARC
  8
_0-0_
  6
CONTINUOUS
 62
    7
 10
-16.58604589762237
 20
10.433502560517489
 40
0.8037282020294914
 50
156.32026712234159
 51
229.66896646149269
  0
ARC
  8
_0-0_
  6
CONTINUOUS
 62
    7
 10
-16.857949427712512
 20
10.579245230702377
 40
0.7980404687990828
 50
251.87437507963716
 51
299.18070522367594
  0
ARC
  8
_0-0_
  6
CONTINUOUS
 62
    7
 10
-16.379757739823233
 20
9.8636400913815621
 40
0.0910661626596854
 50
94.316027519885949
 51
168.05582281153374
  0
ARC
  8
_0-0_
  6
CONTINUOUS
 62
    7
 10
-16.653238647402333
 20
10.50960294289775
 40
0.3296206844623414
 50
93.690468061901555
 51
180.00475247008822
  0
ARC
  8
_0-0_
  6
CONTINUOUS
 62
    7
 10
-16.601230885193857
 20
10.424285281773543
 40
0.3910431039974106
 50
167.40196526053833
 51
249.8189540713899
  0
ARC
  8
_0-0_
  6
CONTINUOUS
 62
    7
 10
-16.844544709675432
 20
10.538546907859235
 40
0.4933555929463744
 50
282.69361944138331
 51
307.99873244251046
  0
ARC
  8
_0-0_
  6
CONTINUOUS
 62
    7
 10
-15.489651767646734
 20
11.156749204552952
 40
0.8983539303468305
 50
82.697813710875337
 51
145.35519944648337
  0
ARC
  8
_0-0_
  6
CONTINUOUS
 62
    7
 10
-15.49266238029621
 20
11.344655491622632
 40
0.8037282020294914
 50
156.32026712234159
 51
229.66896646149269
  0
ARC
  8
_0-0_
  6
CONTINUOUS
 62
    7
 10
-15.764565910386352
 20
11.490398161807519
 40
0.7980404687990828
 50
251.87437507963716
 51
299.18070522367594
  0
ARC
  8
_0-0_
  6
CONTINUOUS
 62
    7
 10
-15.286374222497074
 20
10.774793022486705
 40
0.0910661626596854
 50
94.316027519885949
 51
168.05582281153374
  0
ARC
  8
_0-0_
  6
CONTINUOUS
 62
    7
 10
-15.559855130076173
 20
11.420755874002893
 40
0.3296206844623414
 50
93.690468061901555
 51
180.00475247008822
  0
ARC
  8
_0-0_
  6
CONTINUOUS
 62
    7
 10
-15.507847367867697
 20
11.335438212878685
 40
0.3910431039974106
 50
167.40196526053833
 51
249.8189540713899
  0
ARC
  8
_0-0_
  6
CONTINUOUS
 62
    7
 10
-15.751161192349272
 20
11.449699838964378
 40
0.4933555929463744
 50
282.69361944138331
 51
307.99873244251046
  0
ARC
  8
_0-0_
  6
CONTINUOUS
 62
    7
 10
-14.441825896875812
 20
10.291153920003069
 40
0.8983539303468305
 50
82.697813710875337
 51
145.35519944648337
  0
ARC
  8
_0-0_
  6
CONTINUOUS
 62
    7
 10
-14.444836509525288
 20
10.479060207072749
 40
0.8037282020294914
 50
156.32026712234159
 51
229.66896646149269
  0
ARC
  8
_0-0_
  6
CONTINUOUS
 62
    7
 10
-14.716740039615431
 20
10.624802877257636
 40
0.7980404687990828
 50
251.87437507963716
 51
299.18070522367594
  0
ARC
  8
_0-0_
  6
CONTINUOUS
 62
    7
 10
-14.238548351726152
 20
9.9091977379368217
 40
0.0910661626596854
 50
94.316027519885949
 51
168.05582281153374
  0
ARC
  8
_0-0_
  6
CONTINUOUS
 62
    7
 10
-14.512029259305251
 20
10.55516058945301
 40
0.3296206844623414
 50
93.690468061901555
 51
180.00475247008822
  0
ARC
  8
_0-0_
  6
CONTINUOUS
 62
    7
 10
-14.460021497096776
 20
10.469842928328802
 40
0.3910431039974106
 50
167.40196526053833
 51
249.8189540713899
  0
ARC
  8
_0-0_
  6
CONTINUOUS
 62
    7
 10
-14.703335321578351
 20
10.584104554414495
 40
0.4933555929463744
 50
282.69361944138331
 51
307.99873244251046
  0
ARC
  8
_0-0_
  6
CONTINUOUS
 62
    7
 10
-21.148908407107953
 20
10.813127207692922
 40
0.7486282752890253
 50
82.697813710875337
 51
145.35519944648337
  0
ARC
  8
_0-0_
  6
CONTINUOUS
 62
    7
 10
-21.151417250982519
 20
10.969715780250986
 40
0.6697735016912428
 50
156.32026712234159
 51
229.66896646149269
  0
ARC
  8
_0-0_
  6
CONTINUOUS
 62
    7
 10
-21.37800352605764
 20
11.091168005405059
 40
0.6650337239992356
 50
251.87437507963716
 51
299.18070522367594
  0
ARC
  8
_0-0_
  6
CONTINUOUS
 62
    7
 10
-20.979510452816569
 20
10.49483038930439
 40
0.0758884688830712
 50
94.316027519885949
 51
168.05582281153374
  0
ARC
  8
_0-0_
  6
CONTINUOUS
 62
    7
 10
-21.207411209132488
 20
11.033132765567878
 40
0.2746839037186178
 50
93.690468061901555
 51
180.00475247008822
  0
ARC
  8
_0-0_
  6
CONTINUOUS
 62
    7
 10
-21.164071407292099
 20
10.962034714631024
 40
0.3258692533311754
 50
167.40196526053833
 51
249.8189540713899
  0
ARC
  8
_0-0_
  6
CONTINUOUS
 62
    7
 10
-21.366832927693409
 20
11.057252736369115
 40
0.4111296607886453
 50
282.69361944138331
 51
307.99873244251046
  0
ARC
  8
_0-0_
  6
CONTINUOUS
 62
    7
 10
-21.96894604510257
 20
9.947531923143039
 40
0.7486282752890253
 50
82.697813710875337
 51
145.35519944648337
  0
ARC
  8
_0-0_
  6
CONTINUOUS
 62
    7
 10
-21.971454888977135
 20
10.104120495701103
 40
0.6697735016912428
 50
156.32026712234159
 51
229.66896646149269
  0
ARC
  8
_0-0_
  6
CONTINUOUS
 62
    7
 10
-22.198041164052256
 20
10.225572720855176
 40
0.6650337239992356
 50
251.87437507963716
 51
299.18070522367594
  0
ARC
  8
_0-0_
  6
CONTINUOUS
 62
    7
 10
-21.799548090811186
 20
9.6292351047545068
 40
0.0758884688830712
 50
94.316027519885949
 51
168.05582281153374
  0
ARC
  8
_0-0_
  6
CONTINUOUS
 62
    7
 10
-22.027448847127104
 20
10.167537481017995
 40
0.2746839037186178
 50
93.690468061901555
 51
180.00475247008822
  0
ARC
  8
_0-0_
  6
CONTINUOUS
 62
    7
 10
-21.984109045286715
 20
10.096439430081141
 40
0.3258692533311754
 50
167.40196526053833
 51
249.8189540713899
  0
ARC
  8
_0-0_
  6
CONTINUOUS
 62
    7
 10
-22.186870565688025
 20
10.191657451819232
 40
0.4111296607886453
 50
282.69361944138331
 51
307.99873244251046
  0
ARC
  8
_0-0_
  6
CONTINUOUS
 62
    7
 10
-19.873294303560755
 20
9.6741860438114955
 40
0.7486282752890253
 50
82.697813710875337
 51
145.35519944648337
  0
ARC
  8
_0-0_
  6
CONTINUOUS
 62
    7
 10
-19.87580314743532
 20
9.8307746163695597
 40
0.6697735016912428
 50
156.32026712234159
 51
229.66896646149269
  0
ARC
  8
_0-0_
  6
CONTINUOUS
 62
    7
 10
-20.102389422510441
 20
9.9522268415236326
 40
0.6650337239992356
 50
251.87437507963716
 51
299.18070522367594
  0
ARC
  8
_0-0_
  6
CONTINUOUS
 62
    7
 10
-19.703896349269371
 20
9.3558892254229633
 40
0.0758884688830712
 50
94.316027519885949
 51
168.05582281153374
  0
ARC
  8
_0-0_
  6
CONTINUOUS
 62
    7
 10
-19.931797105585289
 20
9.8941916016864511
 40
0.2746839037186178
 50
93.690468061901555
 51
180.00475247008822
  0
ARC
  8
_0-0_
  6
CONTINUOUS
 62
    7
 10
-19.8884573037449
 20
9.8230935507495971
 40
0.3258692533311754
 50
167.40196526053833
 51
249.8189540713899
  0
ARC
  8
_0-0_
  6
CONTINUOUS
 62
    7
 10
-20.09121882414621
 20
9.9183115724876885
 40
0.4111296607886453
 50
282.69361944138331
 51
307.99873244251046
  0
ARC
  8
_0-0_
  6
CONTINUOUS
 62
    7
 10
-20.192197829447551
 20
7.8063225350459504
 40
0.7486282752890253
 50
82.697813710875337
 51
145.35519944648337
  0
ARC
  8
_0-0_
  6
CONTINUOUS
 62
    7
 10
-20.194706673322116
 20
7.9629111076040147
 40
0.6697735016912428
 50
156.32026712234159
 51
229.66896646149269
  0
ARC
  8
_0-0_
  6
CONTINUOUS
 62
    7
 10
-20.421292948397237
 20
8.0843633327580875
 40
0.6650337239992356
 50
251.87437507963716
 51
299.18070522367594
  0
ARC
  8
_0-0_
  6
CONTINUOUS
 62
    7
 10
-20.022799875156167
 20
7.4880257166574182
 40
0.0758884688830712
 50
94.316027519885949
 51
168.05582281153374
  0
ARC
  8
_0-0_
  6
CONTINUOUS
 62
    7
 10
-20.250700631472085
 20
8.026328092920906
 40
0.2746839037186178
 50
93.690468061901555
 51
180.00475247008822
  0
ARC
  8
_0-0_
  6
CONTINUOUS
 62
    7
 10
-20.207360829631696
 20
7.955230041984052
 40
0.3258692533311754
 50
167.40196526053833
 51
249.8189540713899
  0
ARC
  8
_0-0_
  6
CONTINUOUS
 62
    7
 10
-20.410122350033006
 20
8.0504480637221434
 40
0.4111296607886453
 50
282.69361944138331
 51
307.99873244251046
  0
ARC
  8
_0-0_
  6
CONTINUOUS
 62
    7
 10
-21.194466053663206
 20
9.3552825179246923
 40
0.7486282752890253
 50
82.697813710875337
 51
145.35519944648337
  0
ARC
  8
_0-0_
  6
CONTINUOUS
 62
    7
 10
-21.196974897537771
 20
9.5118710904827566
 40
0.6697735016912428
 50
156.32026712234159
 51
229.66896646149269
  0
ARC
  8
_0-0_
  6
CONTINUOUS
 62
    7
 10
-21.423561172612892
 20
9.6333233156368294
 40
0.6650337239992356
 50
251.87437507963716
 51
299.18070522367594
  0
ARC
  8
_0-0_
  6
CONTINUOUS
 62
    7
 10
-21.025068099371822
 20
9.0369856995361602
 40
0.0758884688830712
 50
94.316027519885949
 51
168.05582281153374
  0
ARC
  8
_0-0_
  6
CONTINUOUS
 62
    7
 10
-21.25296885568774
 20
9.5752880757996479
 40
0.2746839037186178
 50
93.690468061901555
 51
180.00475247008822
  0
ARC
  8
_0-0_
  6
CONTINUOUS
 62
    7
 10
-21.209629053847351
 20
9.504190024862794
 40
0.3258692533311754
 50
167.40196526053833
 51
249.8189540713899
  0
ARC
  8
_0-0_
  6
CONTINUOUS
 62
    7
 10
-21.412390574248661
 20
9.5994080466008853
 40
0.4111296607886453
 50
282.69361944138331
 51
307.99873244251046
  0
ARC
  8
_0-0_
  6
CONTINUOUS
 62
    7
 10
-22.28784957098938
 20
7.85188018160121
 40
0.7486282752890253
 50
82.697813710875337
 51
145.35519944648337
  0
ARC
  8
_0-0_
  6
CONTINUOUS
 62
    7
 10
-22.290358414863945
 20
8.0084687541592743
 40
0.6697735016912428
 50
156.32026712234159
 51
229.66896646149269
  0
ARC
  8
_0-0_
  6
CONTINUOUS
 62
    7
 10
-22.516944689939066
 20
8.1299209793133471
 40
0.6650337239992356
 50
251.87437507963716
 51
299.18070522367594
  0
ARC
  8
_0-0_
  6
CONTINUOUS
 62
    7
 10
-22.118451616697996
 20
7.5335833632126779
 40
0.0758884688830712
 50
94.316027519885949
 51
168.05582281153374
  0
ARC
  8
_0-0_
  6
CONTINUOUS
 62
    7
 10
-22.346352373013914
 20
8.0718857394761656
 40
0.2746839037186178
 50
93.690468061901555
 51
180.00475247008822
  0
ARC
  8
_0-0_
  6
CONTINUOUS
 62
    7
 10
-22.303012571173525
 20
8.0007876885393117
 40
0.3258692533311754
 50
167.40196526053833
 51
249.8189540713899
  0
ARC
  8
_0-0_
  6
CONTINUOUS
 62
    7
 10
-22.505774091574835
 20
8.096005710277403
 40
0.4111296607886453
 50
282.69361944138331
 51
307.99873244251046
  0
ARC
  8
_0-0_
  6
CONTINUOUS
 62
    7
 10
-22.971214269318239
 20
5.2550943279515536
 40
0.7486282752890253
 50
82.697813710875337
 51
145.35519944648337
  0
ARC
  8
_0-0_
  6
CONTINUOUS
 62
    7
 10
-22.973723113192804
 20
5.4116829005096179
 40
0.6697735016912428
 50
156.32026712234159
 51
229.66896646149269
  0
ARC
  8
_0-0_
  6
CONTINUOUS
 62
    7
 10
-23.200309388267925
 20
5.5331351256636907
 40
0.6650337239992356
 50
251.87437507963716
 51
299.18070522367594
  0
ARC
  8
_0-0_
  6
CONTINUOUS
 62
    7
 10
-22.801816315026855
 20
4.9367975095630214
 40
0.0758884688830712
 50
94.316027519885949
 51
168.05582281153374
  0
ARC
  8
_0-0_
  6
CONTINUOUS
 62
    7
 10
-23.029717071342773
 20
5.4750998858265092
 40
0.2746839037186178
 50
93.690468061901555
 51
180.00475247008822
  0
ARC
  8
_0-0_
  6
CONTINUOUS
 62
    7
 10
-22.986377269502384
 20
5.4040018348896552
 40
0.3258692533311754
 50
167.40196526053833
 51
249.8189540713899
  0
ARC
  8
_0-0_
  6
CONTINUOUS
 62
    7
 10
-23.189138789903694
 20
5.4992198566277466
 40
0.4111296607886453
 50
282.69361944138331
 51
307.99873244251046
  0
ARC
  8
_0-0_
  6
CONTINUOUS
 62
    7
 10
-20.87556252777641
 20
5.209536681396294
 40
0.7486282752890253
 50
82.697813710875337
 51
145.35519944648337
  0
ARC
  8
_0-0_
  6
CONTINUOUS
 62
    7
 10
-20.878071371650975
 20
5.3661252539543582
 40
0.6697735016912428
 50
156.32026712234159
 51
229.66896646149269
  0
ARC
  8
_0-0_
  6
CONTINUOUS
 62
    7
 10
-21.104657646726096
 20
5.4875774791084311
 40
0.6650337239992356
 50
251.87437507963716
 51
299.18070522367594
  0
ARC
  8
_0-0_
  6
CONTINUOUS
 62
    7
 10
-20.706164573485026
 20
4.8912398630077618
 40
0.0758884688830712
 50
94.316027519885949
 51
168.05582281153374
  0
ARC
  8
_0-0_
  6
CONTINUOUS
 62
    7
 10
-20.934065329800944
 20
5.4295422392712496
 40
0.2746839037186178
 50
93.690468061901555
 51
180.00475247008822
  0
ARC
  8
_0-0_
  6
CONTINUOUS
 62
    7
 10
-20.890725527960555
 20
5.3584441883343956
 40
0.3258692533311754
 50
167.40196526053833
 51
249.8189540713899
  0
ARC
  8
_0-0_
  6
CONTINUOUS
 62
    7
 10
-21.093487048361865
 20
5.453662210072487
 40
0.4111296607886453
 50
282.69361944138331
 51
307.99873244251046
  0
ARC
  8
_0-0_
  6
CONTINUOUS
 62
    7
 10
-23.153444855539263
 20
3.4783461122965278
 40
0.7486282752890253
 50
82.697813710875337
 51
145.35519944648337
  0
ARC
  8
_0-0_
  6
CONTINUOUS
 62
    7
 10
-23.155953699413828
 20
3.634934684854592
 40
0.6697735016912428
 50
156.32026712234159
 51
229.66896646149269
  0
ARC
  8
_0-0_
  6
CONTINUOUS
 62
    7
 10
-23.382539974488949
 20
3.7563869100086649
 40
0.6650337239992356
 50
251.87437507963716
 51
299.18070522367594
  0
ARC
  8
_0-0_
  6
CONTINUOUS
 62
    7
 10
-22.984046901247879
 20
3.1600492939079956
 40
0.0758884688830712
 50
94.316027519885949
 51
168.05582281153374
  0
ARC
  8
_0-0_
  6
CONTINUOUS
 62
    7
 10
-23.211947657563798
 20
3.6983516701714834
 40
0.2746839037186178
 50
93.690468061901555
 51
180.00475247008822
  0
ARC
  8
_0-0_
  6
CONTINUOUS
 62
    7
 10
-23.168607855723408
 20
3.6272536192346294
 40
0.3258692533311754
 50
167.40196526053833
 51
249.8189540713899
  0
ARC
  8
_0-0_
  6
CONTINUOUS
 62
    7
 10
-23.371369376124719
 20
3.7224716409727208
 40
0.4111296607886453
 50
282.69361944138331
 51
307.99873244251046
  0
ARC
  8
_0-0_
  6
CONTINUOUS
 62
    7
 10
-21.422254286439497
 20
3.1138849398544721
 40
0.7486282752890253
 50
82.697813710875337
 51
145.35519944648337
  0
ARC
  8
_0-0_
  6
CONTINUOUS
 62
    7
 10
-21.424763130314062
 20
3.2704735124125364
 40
0.6697735016912428
 50
156.32026712234159
 51
229.66896646149269
  0
ARC
  8
_0-0_
  6
CONTINUOUS
 62
    7
 10
-21.651349405389183
 20
3.3919257375666092
 40
0.6650337239992356
 50
251.87437507963716
 51
299.18070522367594
  0
ARC
  8
_0-0_
  6
CONTINUOUS
 62
    7
 10
-21.252856332148113
 20
2.7955881214659399
 40
0.0758884688830712
 50
94.316027519885949
 51
168.05582281153374
  0
ARC
  8
_0-0_
  6
CONTINUOUS
 62
    7
 10
-21.480757088464031
 20
3.3338904977294277
 40
0.2746839037186178
 50
93.690468061901555
 51
180.00475247008822
  0
ARC
  8
_0-0_
  6
CONTINUOUS
 62
    7
 10
-21.437417286623642
 20
3.2627924467925737
 40
0.3258692533311754
 50
167.40196526053833
 51
249.8189540713899
  0
ARC
  8
_0-0_
  6
CONTINUOUS
 62
    7
 10
-21.640178807024952
 20
3.3580104685306651
 40
0.4111296607886453
 50
282.69361944138331
 51
307.99873244251046
  0
ARC
  8
_0-0_
  6
CONTINUOUS
 62
    7
 10
-23.791251907312869
 20
1.1549061379784149
 40
0.7486282752890253
 50
82.697813710875337
 51
145.35519944648337
  0
ARC
  8
_0-0_
  6
CONTINUOUS
 62
    7
 10
-23.793760751187435
 20
1.3114947105364791
 40
0.6697735016912428
 50
156.32026712234159
 51
229.66896646149269
  0
ARC
  8
_0-0_
  6
CONTINUOUS
 62
    7
 10
-24.020347026262556
 20
1.432946935690552
 40
0.6650337239992356
 50
251.87437507963716
 51
299.18070522367594
  0
ARC
  8
_0-0_
  6
CONTINUOUS
 62
    7
 10
-23.621853953021485
 20
0.8366093195898827
 40
0.0758884688830712
 50
94.316027519885949
 51
168.05582281153374
  0
ARC
  8
_0-0_
  6
CONTINUOUS
 62
    7
 10
-23.849754709337404
 20
1.3749116958533705
 40
0.2746839037186178
 50
93.690468061901555
 51
180.00475247008822
  0
ARC
  8
_0-0_
  6
CONTINUOUS
 62
    7
 10
-23.806414907497015
 20
1.3038136449165165
 40
0.3258692533311754
 50
167.40196526053833
 51
249.8189540713899
  0
ARC
  8
_0-0_
  6
CONTINUOUS
 62
    7
 10
-24.009176427898325
 20
1.3990316666546079
 40
0.4111296607886453
 50
282.69361944138331
 51
307.99873244251046
  0
ARC
  8
_0-0_
  6
CONTINUOUS
 62
    7
 10
-21.877830751992065
 20
0.927117905202131
 40
0.7486282752890253
 50
82.697813710875337
 51
145.35519944648337
  0
ARC
  8
_0-0_
  6
CONTINUOUS
 62
    7
 10
-21.88033959586663
 20
1.0837064777601952
 40
0.6697735016912428
 50
156.32026712234159
 51
229.66896646149269
  0
ARC
  8
_0-0_
  6
CONTINUOUS
 62
    7
 10
-22.106925870941751
 20
1.2051587029142681
 40
0.6650337239992356
 50
251.87437507963716
 51
299.18070522367594
  0
ARC
  8
_0-0_
  6
CONTINUOUS
 62
    7
 10
-21.708432797700681
 20
0.6088210868135988
 40
0.0758884688830712
 50
94.316027519885949
 51
168.05582281153374
  0
ARC
  8
_0-0_
  6
CONTINUOUS
 62
    7
 10
-21.936333554016599
 20
1.1471234630770866
 40
0.2746839037186178
 50
93.690468061901555
 51
180.00475247008822
  0
ARC
  8
_0-0_
  6
CONTINUOUS
 62
    7
 10
-21.89299375217621
 20
1.0760254121402326
 40
0.3258692533311754
 50
167.40196526053833
 51
249.8189540713899
  0
ARC
  8
_0-0_
  6
CONTINUOUS
 62
    7
 10
-22.09575527257752
 20
1.171243433878324
 40
0.4111296607886453
 50
282.69361944138331
 51
307.99873244251046
  0
ARC
  8
_0-0_
  6
CONTINUOUS
 62
    7
 10
-10.397303820067265
 20
5.7562284400593811
 40
0.7486282752890253
 50
82.697813710875337
 51
145.35519944648337
  0
ARC
  8
_0-0_
  6
CONTINUOUS
 62
    7
 10
-10.39981266394183
 20
5.9128170126174453
 40
0.6697735016912428
 50
156.32026712234159
 51
229.66896646149269
  0
ARC
  8
_0-0_
  6
CONTINUOUS
 62
    7
 10
-10.626398939016951
 20
6.0342692377715181
 40
0.6650337239992356
 50
251.87437507963716
 51
299.18070522367594
  0
ARC
  8
_0-0_
  6
CONTINUOUS
 62
    7
 10
-10.227905865775881
 20
5.4379316216708489
 40
0.0758884688830712
 50
94.316027519885949
 51
168.05582281153374
  0
ARC
  8
_0-0_
  6
CONTINUOUS
 62
    7
 10
-10.455806622091799
 20
5.9762339979343366
 40
0.2746839037186178
 50
93.690468061901555
 51
180.00475247008822
  0
ARC
  8
_0-0_
  6
CONTINUOUS
 62
    7
 10
-10.41246682025141
 20
5.9051359469974827
 40
0.3258692533311754
 50
167.40196526053833
 51
249.8189540713899
  0
ARC
  8
_0-0_
  6
CONTINUOUS
 62
    7
 10
-10.61522834065272
 20
6.000353968735574
 40
0.4111296607886453
 50
282.69361944138331
 51
307.99873244251046
  0
ARC
  8
_0-0_
  6
CONTINUOUS
 62
    7
 10
-10.943995578730352
 20
3.4327884657412682
 40
0.7486282752890253
 50
82.697813710875337
 51
145.35519944648337
  0
ARC
  8
_0-0_
  6
CONTINUOUS
 62
    7
 10
-10.946504422604917
 20
3.5893770382993324
 40
0.6697735016912428
 50
156.32026712234159
 51
229.66896646149269
  0
ARC
  8
_0-0_
  6
CONTINUOUS
 62
    7
 10
-11.173090697680038
 20
3.7108292634534052
 40
0.6650337239992356
 50
251.87437507963716
 51
299.18070522367594
  0
ARC
  8
_0-0_
  6
CONTINUOUS
 62
    7
 10
-10.774597624438968
 20
3.114491647352736
 40
0.0758884688830712
 50
94.316027519885949
 51
168.05582281153374
  0
ARC
  8
_0-0_
  6
CONTINUOUS
 62
    7
 10
-11.002498380754886
 20
3.6527940236162237
 40
0.2746839037186178
 50
93.690468061901555
 51
180.00475247008822
  0
ARC
  8
_0-0_
  6
CONTINUOUS
 62
    7
 10
-10.959158578914497
 20
3.5816959726793698
 40
0.3258692533311754
 50
167.40196526053833
 51
249.8189540713899
  0
ARC
  8
_0-0_
  6
CONTINUOUS
 62
    7
 10
-11.161920099315807
 20
3.6769139944174611
 40
0.4111296607886453
 50
282.69361944138331
 51
307.99873244251046
  0
ARC
  8
_0-0_
  6
CONTINUOUS
 62
    7
 10
-16.729816691248004
 20
5.3462096210620658
 40
0.7486282752890253
 50
82.697813710875337
 51
145.35519944648337
  0
ARC
  8
_0-0_
  6
CONTINUOUS
 62
    7
 10
-16.73232553512257
 20
5.50279819362013
 40
0.6697735016912428
 50
156.32026712234159
 51
229.66896646149269
  0
ARC
  8
_0-0_
  6
CONTINUOUS
 62
    7
 10
-16.958911810197691
 20
5.6242504187742028
 40
0.6650337239992356
 50
251.87437507963716
 51
299.18070522367594
  0
ARC
  8
_0-0_
  6
CONTINUOUS
 62
    7
 10
-16.56041873695662
 20
5.0279128026735336
 40
0.0758884688830712
 50
94.316027519885949
 51
168.05582281153374
  0
ARC
  8
_0-0_
  6
CONTINUOUS
 62
    7
 10
-16.788319493272539
 20
5.5662151789370213
 40
0.2746839037186178
 50
93.690468061901555
 51
180.00475247008822
  0
ARC
  8
_0-0_
  6
CONTINUOUS
 62
    7
 10
-16.74497969143215
 20
5.4951171280001674
 40
0.3258692533311754
 50
167.40196526053833
 51
249.8189540713899
  0
ARC
  8
_0-0_
  6
CONTINUOUS
 62
    7
 10
-16.94774121183346
 20
5.5903351497382587
 40
0.4111296607886453
 50
282.69361944138331
 51
307.99873244251046
  0
ARC
  8
_0-0_
  6
CONTINUOUS
 62
    7
 10
-17.048720217134814
 20
3.0683272932992125
 40
0.7486282752890253
 50
82.697813710875337
 51
145.35519944648337
  0
ARC
  8
_0-0_
  6
CONTINUOUS
 62
    7
 10
-17.05122906100938
 20
3.2249158658572767
 40
0.6697735016912428
 50
156.32026712234159
 51
229.66896646149269
  0
ARC
  8
_0-0_
  6
CONTINUOUS
 62
    7
 10
-17.277815336084501
 20
3.3463680910113496
 40
0.6650337239992356
 50
251.87437507963716
 51
299.18070522367594
  0
ARC
  8
_0-0_
  6
CONTINUOUS
 62
    7
 10
-16.879322262843431
 20
2.7500304749106803
 40
0.0758884688830712
 50
94.316027519885949
 51
168.05582281153374
  0
ARC
  8
_0-0_
  6
CONTINUOUS
 62
    7
 10
-17.107223019159349
 20
3.2883328511741681
 40
0.2746839037186178
 50
93.690468061901555
 51
180.00475247008822
  0
ARC
  8
_0-0_
  6
CONTINUOUS
 62
    7
 10
-17.06388321731896
 20
3.2172348002373141
 40
0.3258692533311754
 50
167.40196526053833
 51
249.8189540713899
  0
ARC
  8
_0-0_
  6
CONTINUOUS
 62
    7
 10
-17.26664473772027
 20
3.3124528219754055
 40
0.4111296607886453
 50
282.69361944138331
 51
307.99873244251046
  0
ARC
  8
_0-0_
  6
CONTINUOUS
 62
    7
 10
-21.513369579550002
 20
7.3507460694933826
 40
0.7486282752890253
 50
82.697813710875337
 51
145.35519944648337
  0
ARC
  8
_0-0_
  6
CONTINUOUS
 62
    7
 10
-21.515878423424567
 20
7.5073346420514468
 40
0.6697735016912428
 50
156.32026712234159
 51
229.66896646149269
  0
ARC
  8
_0-0_
  6
CONTINUOUS
 62
    7
 10
-21.742464698499688
 20
7.6287868672055197
 40
0.6650337239992356
 50
251.87437507963716
 51
299.18070522367594
  0
ARC
  8
_0-0_
  6
CONTINUOUS
 62
    7
 10
-21.343971625258618
 20
7.0324492511048504
 40
0.0758884688830712
 50
94.316027519885949
 51
168.05582281153374
  0
ARC
  8
_0-0_
  6
CONTINUOUS
 62
    7
 10
-21.571872381574536
 20
7.5707516273683382
 40
0.2746839037186178
 50
93.690468061901555
 51
180.00475247008822
  0
ARC
  8
_0-0_
  6
CONTINUOUS
 62
    7
 10
-21.528532579734147
 20
7.4996535764314842
 40
0.3258692533311754
 50
167.40196526053833
 51
249.8189540713899
  0
ARC
  8
_0-0_
  6
CONTINUOUS
 62
    7
 10
-21.731294100135457
 20
7.5948715981695756
 40
0.4111296607886453
 50
282.69361944138331
 51
307.99873244251046
  0
ARC
  8
_0-0_
  6
CONTINUOUS
 62
    7
 10
-21.96894604510257
 20
4.9817484486200101
 40
0.7486282752890253
 50
82.697813710875337
 51
145.35519944648337
  0
ARC
  8
_0-0_
  6
CONTINUOUS
 62
    7
 10
-21.971454888977135
 20
5.1383370211780743
 40
0.6697735016912428
 50
156.32026712234159
 51
229.66896646149269
  0
ARC
  8
_0-0_
  6
CONTINUOUS
 62
    7
 10
-22.198041164052256
 20
5.2597892463321472
 40
0.6650337239992356
 50
251.87437507963716
 51
299.18070522367594
  0
ARC
  8
_0-0_
  6
CONTINUOUS
 62
    7
 10
-21.799548090811186
 20
4.6634516302314779
 40
0.0758884688830712
 50
94.316027519885949
 51
168.05582281153374
  0
ARC
  8
_0-0_
  6
CONTINUOUS
 62
    7
 10
-22.027448847127104
 20
5.2017540064949657
 40
0.2746839037186178
 50
93.690468061901555
 51
180.00475247008822
  0
ARC
  8
_0-0_
  6
CONTINUOUS
 62
    7
 10
-21.984109045286715
 20
5.1306559555581117
 40
0.3258692533311754
 50
167.40196526053833
 51
249.8189540713899
  0
ARC
  8
_0-0_
  6
CONTINUOUS
 62
    7
 10
-22.186870565688025
 20
5.2258739772962031
 40
0.4111296607886453
 50
282.69361944138331
 51
307.99873244251046
  0
ARC
  8
_0-0_
  6
CONTINUOUS
 62
    7
 10
-22.333407217544632
 20
3.2505578795202439
 40
0.7486282752890253
 50
82.697813710875337
 51
145.35519944648337
  0
ARC
  8
_0-0_
  6
CONTINUOUS
 62
    7
 10
-22.335916061419198
 20
3.4071464520783081
 40
0.6697735016912428
 50
156.32026712234159
 51
229.66896646149269
  0
ARC
  8
_0-0_
  6
CONTINUOUS
 62
    7
 10
-22.562502336494319
 20
3.528598677232381
 40
0.6650337239992356
 50
251.87437507963716
 51
299.18070522367594
  0
ARC
  8
_0-0_
  6
CONTINUOUS
 62
    7
 10
-22.164009263253249
 20
2.9322610611317117
 40
0.0758884688830712
 50
94.316027519885949
 51
168.05582281153374
  0
ARC
  8
_0-0_
  6
CONTINUOUS
 62
    7
 10
-22.391910019569167
 20
3.4705634373951995
 40
0.2746839037186178
 50
93.690468061901555
 51
180.00475247008822
  0
ARC
  8
_0-0_
  6
CONTINUOUS
 62
    7
 10
-22.348570217728778
 20
3.3994653864583455
 40
0.3258692533311754
 50
167.40196526053833
 51
249.8189540713899
  0
ARC
  8
_0-0_
  6
CONTINUOUS
 62
    7
 10
-22.551331738130088
 20
3.4946834081964369
 40
0.4111296607886453
 50
282.69361944138331
 51
307.99873244251046
  0
ARC
  8
_0-0_
  6
CONTINUOUS
 62
    7
 10
-24.29238601942069
 20
-1.168533836339698
 40
0.7486282752890253
 50
82.697813710875337
 51
145.35519944648337
  0
ARC
  8
_0-0_
  6
CONTINUOUS
 62
    7
 10
-24.294894863295255
 20
-1.0119452637816337
 40
0.6697735016912428
 50
156.32026712234159
 51
229.66896646149269
  0
ARC
  8
_0-0_
  6
CONTINUOUS
 62
    7
 10
-24.521481138370376
 20
-0.8904930386275609
 40
0.6650337239992356
 50
251.87437507963716
 51
299.18070522367594
  0
ARC
  8
_0-0_
  6
CONTINUOUS
 62
    7
 10
-24.122988065129306
 20
-1.4868306547282302
 40
0.0758884688830712
 50
94.316027519885949
 51
168.05582281153374
  0
ARC
  8
_0-0_
  6
CONTINUOUS
 62
    7
 10
-24.350888821445224
 20
-0.9485282784647424
 40
0.2746839037186178
 50
93.690468061901555
 51
180.00475247008822
  0
ARC
  8
_0-0_
  6
CONTINUOUS
 62
    7
 10
-24.307549019604835
 20
-1.0196263294015964
 40
0.3258692533311754
 50
167.40196526053833
 51
249.8189540713899
  0
ARC
  8
_0-0_
  6
CONTINUOUS
 62
    7
 10
-24.510310540006145
 20
-0.924408307663505
 40
0.4111296607886453
 50
282.69361944138331
 51
307.99873244251046
  0
ARC
  8
_0-0_
  6
CONTINUOUS
 62
    7
 10
-22.060061338213089
 20
-1.3507644225607294
 40
0.7486282752890253
 50
82.697813710875337
 51
145.35519944648337
  0
ARC
  8
_0-0_
  6
CONTINUOUS
 62
    7
 10
-22.062570182087654
 20
-1.1941758500026651
 40
0.6697735016912428
 50
156.32026712234159
 51
229.66896646149269
  0
ARC
  8
_0-0_
  6
CONTINUOUS
 62
    7
 10
-22.289156457162775
 20
-1.0727236248485923
 40
0.6650337239992356
 50
251.87437507963716
 51
299.18070522367594
  0
ARC
  8
_0-0_
  6
CONTINUOUS
 62
    7
 10
-21.890663383921705
 20
-1.6690612409492616
 40
0.0758884688830712
 50
94.316027519885949
 51
168.05582281153374
  0
ARC
  8
_0-0_
  6
CONTINUOUS
 62
    7
 10
-22.118564140237623
 20
-1.1307588646857738
 40
0.2746839037186178
 50
93.690468061901555
 51
180.00475247008822
  0
ARC
  8
_0-0_
  6
CONTINUOUS
 62
    7
 10
-22.075224338397234
 20
-1.2018569156226278
 40
0.3258692533311754
 50
167.40196526053833
 51
249.8189540713899
  0
ARC
  8
_0-0_
  6
CONTINUOUS
 62
    7
 10
-22.277985858798544
 20
-1.1066388938845364
 40
0.4111296607886453
 50
282.69361944138331
 51
307.99873244251046
  0
ARC
  8
_0-0_
  6
CONTINUOUS
 62
    7
 10
-24.884635424639029
 20
-3.3097432244367866
 40
0.7486282752890253
 50
82.697813710875337
 51
145.35519944648337
  0
ARC
  8
_0-0_
  6
CONTINUOUS
 62
    7
 10
-24.887144268513595
 20
-3.1531546518787223
 40
0.6697735016912428
 50
156.32026712234159
 51
229.66896646149269
  0
ARC
  8
_0-0_
  6
CONTINUOUS
 62
    7
 10
-25.113730543588716
 20
-3.0317024267246495
 40
0.6650337239992356
 50
251.87437507963716
 51
299.18070522367594
  0
ARC
  8
_0-0_
  6
CONTINUOUS
 62
    7
 10
-24.715237470347645
 20
-3.6280400428253188
 40
0.0758884688830712
 50
94.316027519885949
 51
168.05582281153374
  0
ARC
  8
_0-0_
  6
CONTINUOUS
 62
    7
 10
-24.943138226663564
 20
-3.089737666561831
 40
0.2746839037186178
 50
93.690468061901555
 51
180.00475247008822
  0
ARC
  8
_0-0_
  6
CONTINUOUS
 62
    7
 10
-24.899798424823175
 20
-3.160835717498685
 40
0.3258692533311754
 50
167.40196526053833
 51
249.8189540713899
  0
ARC
  8
_0-0_
  6
CONTINUOUS
 62
    7
 10
-25.102559945224485
 20
-3.0656176957605936
 40
0.4111296607886453
 50
282.69361944138331
 51
307.99873244251046
  0
ARC
  8
_0-0_
  6
CONTINUOUS
 62
    7
 10
-23.882367200423374
 20
-4.1297808624314101
 40
0.7486282752890253
 50
82.697813710875337
 51
145.35519944648337
  0
ARC
  8
_0-0_
  6
CONTINUOUS
 62
    7
 10
-23.88487604429794
 20
-3.9731922898733458
 40
0.6697735016912428
 50
156.32026712234159
 51
229.66896646149269
  0
ARC
  8
_0-0_
  6
CONTINUOUS
 62
    7
 10
-24.111462319373061
 20
-3.851740064719273
 40
0.6650337239992356
 50
251.87437507963716
 51
299.18070522367594
  0
ARC
  8
_0-0_
  6
CONTINUOUS
 62
    7
 10
-23.712969246131991
 20
-4.4480776808199423
 40
0.0758884688830712
 50
94.316027519885949
 51
168.05582281153374
  0
ARC
  8
_0-0_
  6
CONTINUOUS
 62
    7
 10
-23.940870002447909
 20
-3.9097753045564545
 40
0.2746839037186178
 50
93.690468061901555
 51
180.00475247008822
  0
ARC
  8
_0-0_
  6
CONTINUOUS
 62
    7
 10
-23.89753020060752
 20
-3.9808733554933085
 40
0.3258692533311754
 50
167.40196526053833
 51
249.8189540713899
  0
ARC
  8
_0-0_
  6
CONTINUOUS
 62
    7
 10
-24.10029172100883
 20
-3.8856553337552171
 40
0.4111296607886453
 50
282.69361944138331
 51
307.99873244251046
  0
ARC
  8
_0-0_
  6
CONTINUOUS
 62
    7
 10
-23.153444855539263
 20
-3.583089103768323
 40
0.7486282752890253
 50
82.697813710875337
 51
145.35519944648337
  0
ARC
  8
_0-0_
  6
CONTINUOUS
 62
    7
 10
-23.155953699413828
 20
-3.4265005312102588
 40
0.6697735016912428
 50
156.32026712234159
 51
229.66896646149269
  0
ARC
  8
_0-0_
  6
CONTINUOUS
 62
    7
 10
-23.382539974488949
 20
-3.3050483060561859
 40
0.6650337239992356
 50
251.87437507963716
 51
299.18070522367594
  0
ARC
  8
_0-0_
  6
CONTINUOUS
 62
    7
 10
-22.984046901247879
 20
-3.9013859221568552
 40
0.0758884688830712
 50
94.316027519885949
 51
168.05582281153374
  0
ARC
  8
_0-0_
  6
CONTINUOUS
 62
    7
 10
-23.211947657563798
 20
-3.3630835458933674
 40
0.2746839037186178
 50
93.690468061901555
 51
180.00475247008822
  0
ARC
  8
_0-0_
  6
CONTINUOUS
 62
    7
 10
-23.168607855723408
 20
-3.4341815968302214
 40
0.3258692533311754
 50
167.40196526053833
 51
249.8189540713899
  0
ARC
  8
_0-0_
  6
CONTINUOUS
 62
    7
 10
-23.371369376124719
 20
-3.33896357509213
 40
0.4111296607886453
 50
282.69361944138331
 51
307.99873244251046
  0
ARC
  8
_0-0_
  6
CONTINUOUS
 62
    7
 10
-25.11242365741532
 20
-5.5876255521996399
 40
0.7486282752890253
 50
82.697813710875337
 51
145.35519944648337
  0
ARC
  8
_0-0_
  6
CONTINUOUS
 62
    7
 10
-25.114932501289886
 20
-5.4310369796415756
 40
0.6697735016912428
 50
156.32026712234159
 51
229.66896646149269
  0
ARC
  8
_0-0_
  6
CONTINUOUS
 62
    7
 10
-25.341518776365007
 20
-5.3095847544875028
 40
0.6650337239992356
 50
251.87437507963716
 51
299.18070522367594
  0
ARC
  8
_0-0_
  6
CONTINUOUS
 62
    7
 10
-24.943025703123936
 20
-5.905922370588172
 40
0.0758884688830712
 50
94.316027519885949
 51
168.05582281153374
  0
ARC
  8
_0-0_
  6
CONTINUOUS
 62
    7
 10
-25.170926459439855
 20
-5.3676199943246843
 40
0.2746839037186178
 50
93.690468061901555
 51
180.00475247008822
  0
ARC
  8
_0-0_
  6
CONTINUOUS
 62
    7
 10
-25.127586657599466
 20
-5.4387180452615382
 40
0.3258692533311754
 50
167.40196526053833
 51
249.8189540713899
  0
ARC
  8
_0-0_
  6
CONTINUOUS
 62
    7
 10
-25.330348178000776
 20
-5.3435000235234469
 40
0.4111296607886453
 50
282.69361944138331
 51
307.99873244251046
  0
ARC
  8
_0-0_
  6
CONTINUOUS
 62
    7
 10
-24.429058959086461
 20
-5.906529078086443
 40
0.7486282752890253
 50
82.697813710875337
 51
145.35519944648337
  0
ARC
  8
_0-0_
  6
CONTINUOUS
 62
    7
 10
-24.431567802961027
 20
-5.7499405055283788
 40
0.6697735016912428
 50
156.32026712234159
 51
229.66896646149269
  0
ARC
  8
_0-0_
  6
CONTINUOUS
 62
    7
 10
-24.658154078036148
 20
-5.6284882803743059
 40
0.6650337239992356
 50
251.87437507963716
 51
299.18070522367594
  0
ARC
  8
_0-0_
  6
CONTINUOUS
 62
    7
 10
-24.259661004795078
 20
-6.2248258964749752
 40
0.0758884688830712
 50
94.316027519885949
 51
168.05582281153374
  0
ARC
  8
_0-0_
  6
CONTINUOUS
 62
    7
 10
-24.487561761110996
 20
-5.6865235202114874
 40
0.2746839037186178
 50
93.690468061901555
 51
180.00475247008822
  0
ARC
  8
_0-0_
  6
CONTINUOUS
 62
    7
 10
-24.444221959270607
 20
-5.7576215711483414
 40
0.3258692533311754
 50
167.40196526053833
 51
249.8189540713899
  0
ARC
  8
_0-0_
  6
CONTINUOUS
 62
    7
 10
-24.646983479671917
 20
-5.66240354941025
 40
0.4111296607886453
 50
282.69361944138331
 51
307.99873244251046
  0
ARC
  8
_0-0_
  6
CONTINUOUS
 62
    7
 10
-23.426790734870806
 20
-5.7242984918654116
 40
0.7486282752890253
 50
82.697813710875337
 51
145.35519944648337
  0
ARC
  8
_0-0_
  6
CONTINUOUS
 62
    7
 10
-23.429299578745372
 20
-5.5677099193073474
 40
0.6697735016912428
 50
156.32026712234159
 51
229.66896646149269
  0
ARC
  8
_0-0_
  6
CONTINUOUS
 62
    7
 10
-23.655885853820493
 20
-5.4462576941532745
 40
0.6650337239992356
 50
251.87437507963716
 51
299.18070522367594
  0
ARC
  8
_0-0_
  6
CONTINUOUS
 62
    7
 10
-23.257392780579423
 20
-6.0425953102539438
 40
0.0758884688830712
 50
94.316027519885949
 51
168.05582281153374
  0
ARC
  8
_0-0_
  6
CONTINUOUS
 62
    7
 10
-23.485293536895341
 20
-5.504292933990456
 40
0.2746839037186178
 50
93.690468061901555
 51
180.00475247008822
  0
ARC
  8
_0-0_
  6
CONTINUOUS
 62
    7
 10
-23.441953735054952
 20
-5.57539098492731
 40
0.3258692533311754
 50
167.40196526053833
 51
249.8189540713899
  0
ARC
  8
_0-0_
  6
CONTINUOUS
 62
    7
 10
-23.644715255456262
 20
-5.4801729631892186
 40
0.4111296607886453
 50
282.69361944138331
 51
307.99873244251046
  0
ARC
  8
_0-0_
  6
CONTINUOUS
 62
    7
 10
-25.841346002299431
 20
-7.6832772937414688
 40
0.7486282752890253
 50
82.697813710875337
 51
145.35519944648337
  0
ARC
  8
_0-0_
  6
CONTINUOUS
 62
    7
 10
-25.843854846173997
 20
-7.5266887211834046
 40
0.6697735016912428
 50
156.32026712234159
 51
229.66896646149269
  0
ARC
  8
_0-0_
  6
CONTINUOUS
 62
    7
 10
-26.070441121249118
 20
-7.4052364960293318
 40
0.6650337239992356
 50
251.87437507963716
 51
299.18070522367594
  0
ARC
  8
_0-0_
  6
CONTINUOUS
 62
    7
 10
-25.671948048008048
 20
-8.001574112130001
 40
0.0758884688830712
 50
94.316027519885949
 51
168.05582281153374
  0
ARC
  8
_0-0_
  6
CONTINUOUS
 62
    7
 10
-25.899848804323966
 20
-7.4632717358665133
 40
0.2746839037186178
 50
93.690468061901555
 51
180.00475247008822
  0
ARC
  8
_0-0_
  6
CONTINUOUS
 62
    7
 10
-25.856509002483577
 20
-7.5343697868033672
 40
0.3258692533311754
 50
167.40196526053833
 51
249.8189540713899
  0
ARC
  8
_0-0_
  6
CONTINUOUS
 62
    7
 10
-26.059270522884887
 20
-7.4391517650652759
 40
0.4111296607886453
 50
282.69361944138331
 51
307.99873244251046
  0
ARC
  8
_0-0_
  6
CONTINUOUS
 62
    7
 10
-24.884635424639029
 20
-8.4121996386255802
 40
0.7486282752890253
 50
82.697813710875337
 51
145.35519944648337
  0
ARC
  8
_0-0_
  6
CONTINUOUS
 62
    7
 10
-24.887144268513595
 20
-8.2556110660675159
 40
0.6697735016912428
 50
156.32026712234159
 51
229.66896646149269
  0
ARC
  8
_0-0_
  6
CONTINUOUS
 62
    7
 10
-25.113730543588716
 20
-8.1341588409134431
 40
0.6650337239992356
 50
251.87437507963716
 51
299.18070522367594
  0
ARC
  8
_0-0_
  6
CONTINUOUS
 62
    7
 10
-24.715237470347645
 20
-8.7304964570141124
 40
0.0758884688830712
 50
94.316027519885949
 51
168.05582281153374
  0
ARC
  8
_0-0_
  6
CONTINUOUS
 62
    7
 10
-24.943138226663564
 20
-8.1921940807506246
 40
0.2746839037186178
 50
93.690468061901555
 51
180.00475247008822
  0
ARC
  8
_0-0_
  6
CONTINUOUS
 62
    7
 10
-24.899798424823175
 20
-8.2632921316874786
 40
0.3258692533311754
 50
167.40196526053833
 51
249.8189540713899
  0
ARC
  8
_0-0_
  6
CONTINUOUS
 62
    7
 10
-25.102559945224485
 20
-8.1680741099493872
 40
0.4111296607886453
 50
282.69361944138331
 51
307.99873244251046
  0
ARC
  8
_0-0_
  6
CONTINUOUS
 62
    7
 10
-24.110155433199665
 20
-7.9110655265177527
 40
0.7486282752890253
 50
82.697813710875337
 51
145.35519944648337
  0
ARC
  8
_0-0_
  6
CONTINUOUS
 62
    7
 10
-24.112664277074231
 20
-7.7544769539596885
 40
0.6697735016912428
 50
156.32026712234159
 51
229.66896646149269
  0
ARC
  8
_0-0_
  6
CONTINUOUS
 62
    7
 10
-24.339250552149352
 20
-7.6330247288056157
 40
0.6650337239992356
 50
251.87437507963716
 51
299.18070522367594
  0
ARC
  8
_0-0_
  6
CONTINUOUS
 62
    7
 10
-23.940757478908282
 20
-8.2293623449062849
 40
0.0758884688830712
 50
94.316027519885949
 51
168.05582281153374
  0
ARC
  8
_0-0_
  6
CONTINUOUS
 62
    7
 10
-24.1686582352242
 20
-7.6910599686427972
 40
0.2746839037186178
 50
93.690468061901555
 51
180.00475247008822
  0
ARC
  8
_0-0_
  6
CONTINUOUS
 62
    7
 10
-24.125318433383811
 20
-7.7621580195796511
 40
0.3258692533311754
 50
167.40196526053833
 51
249.8189540713899
  0
ARC
  8
_0-0_
  6
CONTINUOUS
 62
    7
 10
-24.328079953785121
 20
-7.6669399978415598
 40
0.4111296607886453
 50
282.69361944138331
 51
307.99873244251046
  0
ARC
  8
_0-0_
  6
CONTINUOUS
 62
    7
 10
-26.752498933404581
 20
-10.052274914614834
 40
0.7486282752890253
 50
82.697813710875337
 51
145.35519944648337
  0
ARC
  8
_0-0_
  6
CONTINUOUS
 62
    7
 10
-26.755007777279147
 20
-9.89568634205677
 40
0.6697735016912428
 50
156.32026712234159
 51
229.66896646149269
  0
ARC
  8
_0-0_
  6
CONTINUOUS
 62
    7
 10
-26.981594052354268
 20
-9.7742341169026972
 40
0.6650337239992356
 50
251.87437507963716
 51
299.18070522367594
  0
ARC
  8
_0-0_
  6
CONTINUOUS
 62
    7
 10
-26.583100979113198
 20
-10.370571733003366
 40
0.0758884688830712
 50
94.316027519885949
 51
168.05582281153374
  0
ARC
  8
_0-0_
  6
CONTINUOUS
 62
    7
 10
-26.811001735429116
 20
-9.8322693567398787
 40
0.2746839037186178
 50
93.690468061901555
 51
180.00475247008822
  0
ARC
  8
_0-0_
  6
CONTINUOUS
 62
    7
 10
-26.767661933588727
 20
-9.9033674076767326
 40
0.3258692533311754
 50
167.40196526053833
 51
249.8189540713899
  0
ARC
  8
_0-0_
  6
CONTINUOUS
 62
    7
 10
-26.970423453990037
 20
-9.8081493859386413
 40
0.4111296607886453
 50
282.69361944138331
 51
307.99873244251046
  0
ARC
  8
_0-0_
  6
CONTINUOUS
 62
    7
 10
-25.750230709188912
 20
-11.191216078496261
 40
0.7486282752890253
 50
82.697813710875337
 51
145.35519944648337
  0
ARC
  8
_0-0_
  6
CONTINUOUS
 62
    7
 10
-25.752739553063478
 20
-11.034627505938197
 40
0.6697735016912428
 50
156.32026712234159
 51
229.66896646149269
  0
ARC
  8
_0-0_
  6
CONTINUOUS
 62
    7
 10
-25.979325828138599
 20
-10.913175280784124
 40
0.6650337239992356
 50
251.87437507963716
 51
299.18070522367594
  0
ARC
  8
_0-0_
  6
CONTINUOUS
 62
    7
 10
-25.580832754897529
 20
-11.509512896884793
 40
0.0758884688830712
 50
94.316027519885949
 51
168.05582281153374
  0
ARC
  8
_0-0_
  6
CONTINUOUS
 62
    7
 10
-25.808733511213447
 20
-10.971210520621305
 40
0.2746839037186178
 50
93.690468061901555
 51
180.00475247008822
  0
ARC
  8
_0-0_
  6
CONTINUOUS
 62
    7
 10
-25.765393709373058
 20
-11.042308571558159
 40
0.3258692533311754
 50
167.40196526053833
 51
249.8189540713899
  0
ARC
  8
_0-0_
  6
CONTINUOUS
 62
    7
 10
-25.968155229774368
 20
-10.947090549820068
 40
0.4111296607886453
 50
282.69361944138331
 51
307.99873244251046
  0
ARC
  8
_0-0_
  6
CONTINUOUS
 62
    7
 10
-24.429058959086461
 20
-10.234505500835866
 40
0.7486282752890253
 50
82.697813710875337
 51
145.35519944648337
  0
ARC
  8
_0-0_
  6
CONTINUOUS
 62
    7
 10
-24.431567802961027
 20
-10.077916928277801
 40
0.6697735016912428
 50
156.32026712234159
 51
229.66896646149269
  0
ARC
  8
_0-0_
  6
CONTINUOUS
 62
    7
 10
-24.658154078036148
 20
-9.9564647031237286
 40
0.6650337239992356
 50
251.87437507963716
 51
299.18070522367594
  0
ARC
  8
_0-0_
  6
CONTINUOUS
 62
    7
 10
-24.259661004795078
 20
-10.552802319224398
 40
0.0758884688830712
 50
94.316027519885949
 51
168.05582281153374
  0
ARC
  8
_0-0_
  6
CONTINUOUS
 62
    7
 10
-24.487561761110996
 20
-10.01449994296091
 40
0.2746839037186178
 50
93.690468061901555
 51
180.00475247008822
  0
ARC
  8
_0-0_
  6
CONTINUOUS
 62
    7
 10
-24.444221959270607
 20
-10.085597993897764
 40
0.3258692533311754
 50
167.40196526053833
 51
249.8189540713899
  0
ARC
  8
_0-0_
  6
CONTINUOUS
 62
    7
 10
-24.646983479671917
 20
-9.9903799721596727
 40
0.4111296607886453
 50
282.69361944138331
 51
307.99873244251046
  0
ARC
  8
_0-0_
  6
CONTINUOUS
 62
    7
 10
-22.285694626304263
 20
11.636385939814758
 40
0.556597042275862
 50
66.645165367439915
 51
174.28592447148091
  0
ENDBLK
  0
ENDSEC
  0
SECTION
  2
ENTITIES
  0
LINE
  8
_0-0_
  6
CONTINUOUS
 62
  252
 10
-1244.420826261083
 20
-1127.4836411798831
 11
1755.579173738917
 21
-1127.4836411798831
  0
LINE
  8
_0-0_
  6
CONTINUOUS
 62
  252
 10
1755.579173738917
 20
-1127.4836411798831
 11
1755.579173738917
 21
1392.5163588201169
  0
LINE
  8
_0-0_
  6
CONTINUOUS
 62
  252
 10
1755.579173738917
 20
1392.5163588201169
 11
-1244.420826261083
 21
1392.5163588201169
  0
LINE
  8
_0-0_
  6
CONTINUOUS
 62
  252
 10
-1244.420826261083
 20
1392.5163588201169
 11
-1244.420826261083
 21
-1127.4836411798831
  0
INSERT
  2
-001-6
  8
_0-0_
 10
143.11224489795916
 20
110.72448979591837
 41
1
 42
1
 50
0
  0
ENDSEC
  0
EOF
