  0
SECTION
  2
HEADER
  9
$ACADVER
  1
AC1009
  9
$INSBASE
 10
0
 20
0
 30
0
  9
$EXTMIN
 10
0
 20
0
  9
$EXTMAX
 10
297
 20
210
  9
$LIMMIN
 10
0
 20
0
  9
$LIMMAX
 10
297
 20
210
  9
$LTSCALE
 40
1
  0
ENDSEC
  0
SECTION
  2
TABLES
  0
TABLE
  2
LTYPE
 70
     9
  0
LTYPE
  2
CONTINUOUS
 70
    64
  3
実線
 72
    65
 73
     0
 40
0.0
  0
LTYPE
  2
DASHED1
 70
    64
  3
--  --  --  --  --  --  --  --  
 72
    65
 73
     2
 40
2.5
 49
1.25
 49
-1.25
  0
LTYPE
  2
DASHED2
 70
    64
  3
----    ----    ----    ----    
 72
    65
 73
     2
 40
5.0
 49
2.5
 49
-2.5
  0
LTYPE
  2
DASHED3
 70
    64
  3
------  ------  ------  ------  
 72
    65
 73
     2
 40
5.0
 49
3.75
 49
-1.25
  0
LTYPE
  2
CENTER1
 70
    64
  3
----- - ----- - ----- - ----- - 
 72
    65
 73
     4
 40
10.0
 49
6.25
 49
-1.25
 49
1.25
 49
-1.25
  0
LTYPE
  2
CENTER2
 70
    64
  3
----------  --  ----------  --  
 72
    65
 73
     4
 40
20.0
 49
12.5
 49
-2.5
 49
2.5
 49
-2.5
  0
LTYPE
  2
PHANTOM1
 70
    64
  3
--- - - --- - - --- - - --- - - 
 72
    65
 73
     6
 40
10.0
 49
3.25
 49
-1.25
 49
1.25
 49
-1.25
 49
1.25
 49
-1.25
  0
LTYPE
  2
PHANTOM2
 70
    64
  3
--------  -  -  --------  -  -  
 72
    65
 73
     6
 40
20.0
 49
10.0
 49
-2.5
 49
1.25
 49
-2.5
 49
1.25
 49
-2.5
  0
LTYPE
  2
DOT
 70
    64
  3
-   -   -   -   -   -   -   -   
 72
    65
 73
     2
 40
2.5
 49
0.625
 49
-1.875
  0
LTYPE
  2
DUMMY
 70
    64
  3
ダミー
 72
    65
 73
     0
 40
0.0
  0
LTYPE
  2
RAND1
 70
    64
  3
ランダム線1
 72
    65
 73
     4
 40
10.0
 49
1.0
 49
-2.0
 49
3.0
 49
-4.0
  0
LTYPE
  2
RAND2
 70
    64
  3
ランダム線2
 72
    65
 73
     4
 40
14.0
 49
2.0
 49
-3.0
 49
4.0
 49
-5.0
  0
LTYPE
  2
RAND3
 70
    64
  3
ランダム線3
 72
    65
 73
     4
 40
18.0
 49
3.0
 49
-4.0
 49
5.0
 49
-6.0
  0
LTYPE
  2
RAND4
 70
    64
  3
ランダム線4
 72
    65
 73
     4
 40
22.0
 49
4.0
 49
-5.0
 49
6.0
 49
-7.0
  0
LTYPE
  2
RAND5
 70
    64
  3
ランダム線5
 72
    65
 73
     4
 40
26.0
 49
5.0
 49
-6.0
 49
7.0
 49
-8.0
  0
LTYPE
  2
LONG1
 70
    64
  3
----------  --  ----------  --  
 72
    65
 73
     4
 40
40.0
 49
32.5
 49
-2.5
 49
2.5
 49
-2.5
  0
LTYPE
  2
LONG2
 70
    64
  3
--------  -  -  --------  -  -  
 72
    65
 73
     6
 40
40.0
 49
30.0
 49
-2.5
 49
1.25
 49
-2.5
 49
1.25
 49
-2.5
  0
LTYPE
  2
LONG3
 70
    64
  3
+++++++++++++++..+++++++++++++++
 72
    65
 73
     2
 40
40.0
 49
37.5
 49
-2.5
  0
LTYPE
  2
LONG4
 70
    64
  3
+++++++++++++++..+++++++++++++++
 72
    65
 73
     2
 40
80.0
 49
75.0
 49
-5.0
  0
LTYPE
  2
LONG5
 70
    64
  3
----------  --  ----------  --  
 72
    65
 73
     4
 40
60.0
 49
37.5
 49
-7.5
 49
7.5
 49
-7.5
  0
LTYPE
  2
dashed
 70
   64
  3
-------   -------------   ------
 72
   65
 73
    2
 40
7.5
 49
6
 49
-1.5
  0
LTYPE
  2
dashed_spaced
 70
   64
  3
----        --------        ----
 72
   65
 73
    2
 40
12
 49
6
 49
-6
  0
LTYPE
  2
long_dashed_dotted
 70
   64
  3
------------- --- --------------
 72
   65
 73
    4
 40
15.25
 49
12
 49
-1.5
 49
0.25
 49
-1.5
  0
LTYPE
  2
long_dashed_double-dotted
 70
   64
  3
----------- --- --- ------------
 72
   65
 73
    6
 40
17
 49
12
 49
-1.5
 49
0.25
 49
-1.5
 49
0.25
 49
-1.5
  0
LTYPE
  2
long_dashed_triplicate-dotted
 70
   64
  3
--------- --- --- --- ----------
 72
   65
 73
    8
 40
18.75
 49
12
 49
-1.5
 49
0.25
 49
-1.5
 49
0.25
 49
-1.5
 49
0.25
 49
-1.5
  0
LTYPE
  2
dotted
 70
   64
  3
   -       -       -       -    
 72
   65
 73
    2
 40
1.75
 49
0.25
 49
-1.5
  0
LTYPE
  2
chain
 70
   64
  3
-------------- -- --------------
 72
   65
 73
    4
 40
18.5
 49
12
 49
-1.5
 49
3.5
 49
-1.5
  0
LTYPE
  2
chain_double_dash
 70
   64
  3
------------ -- -- -------------
 72
   65
 73
    6
 40
23.5
 49
12
 49
-1.5
 49
3.5
 49
-1.5
 49
3.5
 49
-1.5
  0
LTYPE
  2
dashed_dotted
 70
   64
  3
-----------     -     ----------
 72
   65
 73
    4
 40
9.25
 49
6
 49
-1.5
 49
0.25
 49
-1.5
  0
LTYPE
  2
double-dashed_dotted
 70
   64
  3
------   -----------   -   -----
 72
   65
 73
    6
 40
16.75
 49
6
 49
-1.5
 49
6
 49
-1.5
 49
0.25
 49
-1.5
  0
LTYPE
  2
dashed_double-dotted
 70
   64
  3
---------    -    -    ---------
 72
   65
 73
    6
 40
11
 49
6
 49
-1.5
 49
0.25
 49
-1.5
 49
0.25
 49
-1.5
  0
LTYPE
  2
double-dashed_double-dotted
 70
   64
  3
-----   ---------   -   -   ----
 72
   65
 73
    8
 40
18.5
 49
6
 49
-1.5
 49
6
 49
-1.5
 49
0.25
 49
-1.5
 49
0.25
 49
-1.5
  0
LTYPE
  2
dashed_triplicate-dotted
 70
   64
  3
-------    -    -    -    ------
 72
   65
 73
    8
 40
12.75
 49
6
 49
-1.5
 49
0.25
 49
-1.5
 49
0.25
 49
-1.5
 49
0.25
 49
-1.5
  0
LTYPE
  2
double-dashed_triplicate-dotted
 70
   64
  3
-----  ---------  -  -  -  -----
 72
   65
 73
   10
 40
20.25
 49
6
 49
-1.5
 49
6
 49
-1.5
 49
0.25
 49
-1.5
 49
0.25
 49
-1.5
 49
0.25
 49
-1.5
  0
LTYPE
  2
undefined
 70
   64
  3
--------------------------------
 72
   65
 73
    0
 40
0
  0
LTYPE
  2
_
 70
   64
  3
                                
 72
   65
 73
    0
 40
0
  0
LTYPE
  2
__18
 70
   64
  3
                                
 72
   65
 73
    0
 40
0
  0
LTYPE
  2
__19
 70
   64
  3
                                
 72
   65
 73
    0
 40
0
  0
LTYPE
  2
__20
 70
   64
  3
                                
 72
   65
 73
    0
 40
0
  0
LTYPE
  2
__21
 70
   64
  3
                                
 72
   65
 73
    0
 40
0
  0
LTYPE
  2
__22
 70
   64
  3
                                
 72
   65
 73
    0
 40
0
  0
LTYPE
  2
__23
 70
   64
  3
                                
 72
   65
 73
    0
 40
0
  0
LTYPE
  2
__24
 70
   64
  3
                                
 72
   65
 73
    0
 40
0
  0
LTYPE
  2
__25
 70
   64
  3
                                
 72
   65
 73
    0
 40
0
  0
LTYPE
  2
__26
 70
   64
  3
                                
 72
   65
 73
    0
 40
0
  0
LTYPE
  2
__27
 70
   64
  3
                                
 72
   65
 73
    0
 40
0
  0
LTYPE
  2
__28
 70
   64
  3
                                
 72
   65
 73
    0
 40
0
  0
LTYPE
  2
__29
 70
   64
  3
                                
 72
   65
 73
    0
 40
0
  0
LTYPE
  2
__30
 70
   64
  3
                                
 72
   65
 73
    0
 40
0
  0
LTYPE
  2
__31
 70
   64
  3
                                
 72
   65
 73
    0
 40
0
  0
LTYPE
  2
__32
 70
   64
  3
                                
 72
   65
 73
    0
 40
0
  0
ENDTAB
  0
TABLE
  2
STYLE
  5
3
100
AcDbSymbolTable
 70
     1
  0
STYLE
  5
10
100
AcDbSymbolTableRecord
100
AcDbTextStyleTableRecord
  2
STANDARD
 70
     0
 40
0.0
 41
1.0
 50
0.0
 71
     0
 42
0.2
  3
txt
  4
bigfont.shx
  0
STYLE
  5
26
100
AcDbSymbolTableRecord
100
AcDbTextStyleTableRecord
  2
TATEGAKI
 70
    68
 40
0.0
 41
1.0
 50
0.0
 71
     0
 42
1.0
  3
txt
  4
bigfont.shx
  0
ENDTAB
  0
TABLE
  2
LAYER
 70
    2
  0
LAYER
  2
_0-0_
 70
   64
 62
    7
  6
CONTINUOUS
  0
LAYER
  2
ADD_LINE
 70
   64
 62
    7
  6
CONTINUOUS
  0
ENDTAB
  0
ENDSEC
  0
SECTION
  2
BLOCKS
  0
BLOCK
  2
-004-5
 70
   64
 10
0
 20
0
 30
0
  0
LINE
  8
_0-0_
  6
CONTINUOUS
 62
    7
 10
-18.877062441454086
 20
15.387878183462533
 11
26.137292238846925
 21
24.629235766835578
  0
LINE
  8
_0-0_
  6
CONTINUOUS
 62
    7
 10
-18.834475540148219
 20
14.365792552121732
 11
23.965360272247722
 21
22.499890701542256
  0
LINE
  8
_0-0_
  6
CONTINUOUS
 62
    7
 10
-18.962236244065821
 20
13.556641427310268
 11
25.200380410117845
 21
21.648152675424924
  0
LINE
  8
_0-0_
  6
CONTINUOUS
 62
    7
 10
25.200380410117845
 20
21.648152675424924
 11
24.774511397059172
 21
22.219685166198545
  0
LINE
  8
_0-0_
  6
CONTINUOUS
 62
    7
 10
26.8935488047116
 20
23.95137164987149
 11
28.431559826394789
 21
23.917193627167421
  0
LINE
  8
_0-0_
  6
CONTINUOUS
 62
    7
 10
28.431559826394789
 20
23.917193627167421
 11
30.277173052414639
 21
22.595643415943329
  0
LINE
  8
_0-0_
  6
CONTINUOUS
 62
    7
 10
30.277173052414639
 20
22.595643415943329
 11
30.037926893486144
 21
19.348731259056564
  0
LINE
  8
_0-0_
  6
CONTINUOUS
 62
    7
 10
28.431559826394789
 20
23.917193627167421
 11
27.873318788894977
 21
23.14249177920847
  0
LINE
  8
_0-0_
  6
CONTINUOUS
 62
    7
 10
26.8935488047116
 20
23.95137164987149
 11
27.873318788894977
 21
23.14249177920847
  0
LINE
  8
_0-0_
  6
CONTINUOUS
 62
    7
 10
27.873318788894977
 20
23.14249177920847
 11
27.839140766190894
 21
21.319663901658004
  0
LINE
  8
_0-0_
  6
CONTINUOUS
 62
    7
 10
27.839140766190894
 20
21.319663901658004
 11
31.735435354455035
 21
18.16389313864876
  0
LINE
  8
_0-0_
  6
CONTINUOUS
 62
    7
 10
28.568271917211092
 20
20.681674144515341
 11
28.579664591445777
 21
19.223411842474974
  0
LINE
  8
_0-0_
  6
CONTINUOUS
 62
    7
 10
28.579664591445777
 20
19.223411842474974
 11
26.870763456242202
 21
19.280375213648426
  0
LINE
  8
_0-0_
  6
CONTINUOUS
 62
    7
 10
26.870763456242202
 20
19.280375213648426
 11
26.859370782007517
 21
19.65633346339321
  0
LINE
  8
_0-0_
  6
CONTINUOUS
 62
    7
 10
26.859370782007517
 20
19.65633346339321
 11
26.050490911344497
 21
19.758867531505416
  0
LINE
  8
_0-0_
  6
CONTINUOUS
 62
    7
 10
26.050490911344497
 20
19.758867531505416
 11
26.130239630987347
 21
18.574029411097612
  0
LINE
  8
_0-0_
  6
CONTINUOUS
 62
    7
 10
26.130239630987347
 20
18.574029411097612
 11
25.879600797824139
 21
18.801882895791422
  0
LINE
  8
_0-0_
  6
CONTINUOUS
 62
    7
 10
25.879600797824139
 20
18.801882895791422
 11
24.911223487875446
 21
18.767704873087354
  0
LINE
  8
_0-0_
  6
CONTINUOUS
 62
    7
 10
25.070720927161119
 20
19.565192069515689
 11
26.039098237109812
 21
19.576584743750374
  0
LINE
  8
_0-0_
  6
CONTINUOUS
 62
    7
 10
26.118846956752634
 20
18.733526850383285
 11
28.442952500629502
 21
17.081589086353176
  0
LINE
  8
_0-0_
  6
CONTINUOUS
 62
    7
 10
31.781006051393774
 20
17.149945131761299
 11
25.036542904457065
 21
-20.856016115165957
  0
LINE
  8
_0-0_
  6
CONTINUOUS
 62
    7
 10
24.763118722824487
 20
-21.220581690676056
 11
22.028876906498795
 21
-20.491450539655858
  0
LINE
  8
_0-0_
  6
CONTINUOUS
 62
    7
 10
30.869592112618562
 20
12.273880559313795
 11
32.145571626903887
 21
11.180183832783513
  0
LINE
  8
_0-0_
  6
CONTINUOUS
 62
    7
 10
32.145571626903887
 20
11.180183832783513
 11
29.730324689149512
 21
-2.7188787335388014
  0
LINE
  8
_0-0_
  6
CONTINUOUS
 62
    7
 10
29.502471204455702
 20
-1.7618940978248077
 11
30.00374887078209
 21
-36.350053074344949
  0
LINE
  8
_0-0_
  6
CONTINUOUS
 62
    7
 10
30.00374887078209
 20
-36.350053074344949
 11
25.355537783028382
 21
-38.491875830466746
  0
LINE
  8
_0-0_
  6
CONTINUOUS
 62
    7
 10
25.355537783028382
 20
-38.491875830466746
 11
25.309967086089614
 21
-19.16990032843178
  0
LINE
  8
_0-0_
  6
CONTINUOUS
 62
    7
 10
25.264396389150846
 20
-32.339831743733917
 11
-11.875721615939938
 21
-26.597923929449934
  0
LINE
  8
_0-0_
  6
CONTINUOUS
 62
    7
 10
-11.875721615939938
 20
-26.597923929449934
 11
-11.647868131246128
 21
-28.648605291694224
  0
LINE
  8
_0-0_
  6
CONTINUOUS
 62
    7
 10
-17.116351763897512
 20
-27.828332746796505
 11
23.350427117722887
 21
-34.663937287610764
  0
LINE
  8
_0-0_
  6
CONTINUOUS
 62
    7
 10
23.350427117722887
 20
-34.663937287610764
 11
23.395997814661627
 21
-37.899456770262844
  0
LINE
  8
_0-0_
  6
CONTINUOUS
 62
    7
 10
25.355537783028382
 20
-38.491875830466746
 11
23.395997814661627
 21
-37.899456770262844
  0
LINE
  8
_0-0_
  6
CONTINUOUS
 62
    7
 10
23.395997814661627
 20
-37.899456770262844
 11
-15.931513643489723
 21
-30.562574563122212
  0
LINE
  8
_0-0_
  6
CONTINUOUS
 62
    7
 10
-17.16192246083628
 20
-29.514448533530697
 11
-17.663200127162668
 21
-19.580036600880632
  0
LINE
  8
_0-0_
  6
CONTINUOUS
 62
    7
 10
-13.01498903940896
 20
-19.807890085574442
 11
-12.695994160837643
 21
-28.420751807000414
  0
LINE
  8
_0-0_
  6
CONTINUOUS
 62
    7
 10
24.854260116702022
 20
-35.575351226385997
 11
23.76056339017174
 21
-35.438639135569709
  0
LINE
  8
_0-0_
  6
CONTINUOUS
 62
    7
 10
-25.638072091445963
 20
-18.623051965166638
 11
21.801023421804985
 21
-23.681399325369185
  0
LINE
  8
_0-0_
  6
CONTINUOUS
 62
    7
 10
-25.638072091445963
 20
-15.250820391698269
 11
-25.638072091445963
 21
-18.623051965166638
  0
LINE
  8
_0-0_
  6
CONTINUOUS
 62
    7
 10
-25.638072091445963
 20
-15.250820391698269
 11
16.879388152418727
 21
-18.258486389656554
  0
LINE
  8
_0-0_
  6
CONTINUOUS
 62
    7
 10
-25.638072091445963
 20
-15.250820391698269
 11
-23.63296142614044
 21
-15.114108300881995
  0
LINE
  8
_0-0_
  6
CONTINUOUS
 62
    7
 10
-23.63296142614044
 20
-15.114108300881995
 11
17.836372788132707
 21
-18.076203601901497
  0
LINE
  8
_0-0_
  6
CONTINUOUS
 62
    7
 10
22.028876906498795
 20
-20.491450539655858
 11
22.011461353528574
 21
-23.524659348637144
  0
LINE
  8
_0-0_
  6
CONTINUOUS
 62
    7
 10
22.011461353528574
 20
-23.524659348637144
 11
21.801023421804985
 21
-23.681399325369185
  0
LINE
  8
_0-0_
  6
CONTINUOUS
 62
    7
 10
22.028876906498795
 20
-20.491450539655858
 11
19.696644104569174
 21
-20.491450539655872
  0
LINE
  8
_0-0_
  6
CONTINUOUS
 62
    7
 10
19.696644104569174
 20
-20.491450539655872
 11
19.664715590790422
 21
-23.333088265964648
  0
LINE
  8
_0-0_
  6
CONTINUOUS
 62
    7
 10
19.680679847679784
 20
-21.960162173478381
 11
18.291789498304155
 21
-21.912269402810253
  0
LINE
  8
_0-0_
  6
CONTINUOUS
 62
    7
 10
20.143643297471669
 20
-20.395664998319617
 11
20.143643297471669
 21
-19.91673729163837
  0
LINE
  8
_0-0_
  6
CONTINUOUS
 62
    7
 10
20.143643297471669
 20
-19.91673729163837
 11
18.850538489432296
 21
-19.948665805417122
  0
LINE
  8
_0-0_
  6
CONTINUOUS
 62
    7
 10
18.850538489432296
 20
-19.948665805417122
 11
18.834574232542906
 21
-21.050199530783999
  0
LINE
  8
_0-0_
  6
CONTINUOUS
 62
    7
 10
18.658967406759785
 20
-20.523379053434624
 11
17.573397938282284
 21
-20.491450539655872
  0
LINE
  8
_0-0_
  6
CONTINUOUS
 62
    7
 10
17.836372788132707
 20
-18.076203601901497
 11
17.876718819180411
 21
-18.384168630258358
  0
ARC
  8
_0-0_
  6
CONTINUOUS
 62
    7
 10
17.32025043617935
 20
-18.322592210827921
 40
0.3010489113143003
 50
105.82615407617489
 51
204.62356478616053
  0
ARC
  8
_0-0_
  6
CONTINUOUS
 62
    7
 10
23.450208662253573
 20
-19.171139628906886
 40
6.4443297849904173
 50
173.55731011998427
 51
191.09832005809739
  0
ARC
  8
_0-0_
  6
CONTINUOUS
 62
    7
 10
21.998918008829037
 20
-19.15349377178471
 40
5.0323303615060491
 50
194.47813415251267
 51
215.00088358698474
  0
ARC
  8
_0-0_
  6
CONTINUOUS
 62
    7
 10
18.603840832188666
 20
-21.322839105472852
 40
1.0212749111064936
 50
224.60418053179103
 51
267.71833910186552
  0
LINE
  8
_0-0_
  6
CONTINUOUS
 62
    7
 10
18.307753755193545
 20
-21.449305953018381
 11
18.323718012082907
 21
-22.295411568155259
  0
LINE
  8
_0-0_
  6
CONTINUOUS
 62
    7
 10
18.56318186542353
 20
-22.343304338823387
 11
19.010181058326026
 21
-22.359268595712763
  0
LINE
  8
_0-0_
  6
CONTINUOUS
 62
    7
 10
19.010181058326026
 20
-22.359268595712763
 11
18.994216801436664
 21
-21.928233659699629
  0
LINE
  8
_0-0_
  6
CONTINUOUS
 62
    7
 10
18.259860984525403
 20
-16.739850170652716
 11
21.931640069081681
 21
-18.144704776917735
  0
LINE
  8
_0-0_
  6
CONTINUOUS
 62
    7
 10
19.393323223671047
 20
-17.202813620444601
 11
19.201752140998536
 21
-18.543811199152103
  0
LINE
  8
_0-0_
  6
CONTINUOUS
 62
    7
 10
19.201752140998536
 20
-18.543811199152103
 11
20.415035664591045
 21
-19.46973809873586
  0
LINE
  8
_0-0_
  6
CONTINUOUS
 62
    7
 10
20.415035664591045
 20
-19.46973809873586
 11
20.303285866365428
 21
-19.996558576085249
  0
LINE
  8
_0-0_
  6
CONTINUOUS
 62
    7
 10
20.798177829936066
 20
-18.352240116479607
 11
20.798177829936066
 21
-18.863096336939606
  0
LINE
  8
_0-0_
  6
CONTINUOUS
 62
    7
 10
20.798177829936066
 20
-18.863096336939606
 11
21.612354931294192
 21
-19.166417217837733
  0
LINE
  8
_0-0_
  6
CONTINUOUS
 62
    7
 10
21.612354931294192
 20
-19.166417217837733
 11
21.58042641751544
 21
-20.459522025877121
  0
LINE
  8
_0-0_
  6
CONTINUOUS
 62
    7
 10
20.798177829936066
 20
-18.352240116479607
 11
19.489108765007302
 21
-18.320311602700855
  0
LINE
  8
_0-0_
  6
CONTINUOUS
 62
    7
 10
20.798177829936066
 20
-18.863096336939606
 11
20.047857756135414
 21
-18.863096336939606
  0
LINE
  8
_0-0_
  6
CONTINUOUS
 62
    7
 10
22.139175408643553
 20
-16.947385510214602
 11
18.802645718764154
 21
-15.654280702175214
  0
LINE
  8
_0-0_
  6
CONTINUOUS
 62
    7
 10
22.522317573988545
 20
-15.654280702175214
 11
18.786681461874764
 21
-14.153640554573954
  0
LINE
  8
_0-0_
  6
CONTINUOUS
 62
    7
 10
22.602138858435438
 20
-14.377140151025202
 11
20.031893499246024
 21
-13.339463453215828
  0
LINE
  8
_0-0_
  6
CONTINUOUS
 62
    7
 10
22.873531225554814
 20
-13.084035342985828
 11
20.223464581918535
 21
-11.902680333172057
  0
LINE
  8
_0-0_
  6
CONTINUOUS
 62
    7
 10
23.049138051337934
 20
-11.774966278057065
 11
19.584894306343529
 21
-10.290290387345181
  0
LINE
  8
_0-0_
  6
CONTINUOUS
 62
    7
 10
23.400351702904175
 20
-10.465897213128301
 11
19.712608361458535
 21
-8.9492928086376651
  0
LINE
  8
_0-0_
  6
CONTINUOUS
 62
    7
 10
23.575958528687323
 20
-9.2206851757570547
 11
19.792429645905401
 21
-7.5444382023726604
  0
LINE
  8
_0-0_
  6
CONTINUOUS
 62
    7
 10
23.86331515269606
 20
-7.9914373952751703
 11
20.223464581918535
 21
-6.4109759632270311
  0
LINE
  8
_0-0_
  6
CONTINUOUS
 62
    7
 10
23.975064950921706
 20
-6.7302611010145341
 11
21.500605133068547
 21
-5.6446916325370182
  0
LINE
  8
_0-0_
  6
CONTINUOUS
 62
    7
 10
24.262421574930443
 20
-5.4850490636432738
 11
21.771997500187922
 21
-4.1919442556038859
  0
LINE
  8
_0-0_
  6
CONTINUOUS
 62
    7
 10
21.612354931294163
 20
-3.8726591178163829
 11
21.468676619289795
 21
-5.5967988618688906
  0
LINE
  8
_0-0_
  6
CONTINUOUS
 62
    7
 10
21.468676619289795
 20
-5.5967988618688906
 11
20.271357352586676
 21
-5.5010133205326497
  0
LINE
  8
_0-0_
  6
CONTINUOUS
 62
    7
 10
20.271357352586676
 20
-5.5010133205326497
 11
20.239428838807925
 21
-6.4907972476738962
  0
LINE
  8
_0-0_
  6
CONTINUOUS
 62
    7
 10
20.239428838807925
 20
-6.4907972476738962
 11
20.255393095697286
 21
-7.8796875970495392
  0
LINE
  8
_0-0_
  6
CONTINUOUS
 62
    7
 10
19.808393902794791
 20
-9.0131498361951685
 11
19.728572618347897
 21
-10.322218901123932
  0
LINE
  8
_0-0_
  6
CONTINUOUS
 62
    7
 10
19.728572618347897
 20
-10.322218901123932
 11
19.664715590790422
 21
-11.312002828265193
  0
LINE
  8
_0-0_
  6
CONTINUOUS
 62
    7
 10
19.664715590790422
 20
-11.312002828265193
 11
20.223464581918535
 21
-11.902680333172057
  0
LINE
  8
_0-0_
  6
CONTINUOUS
 62
    7
 10
20.223464581918535
 20
-11.902680333172057
 11
20.031893499246024
 21
-13.339463453215828
  0
LINE
  8
_0-0_
  6
CONTINUOUS
 62
    7
 10
20.031893499246024
 20
-13.339463453215828
 11
18.770717204985402
 21
-13.419284737662707
  0
LINE
  8
_0-0_
  6
CONTINUOUS
 62
    7
 10
18.770717204985402
 20
-13.419284737662707
 11
18.786681461874764
 21
-14.153640554573954
  0
LINE
  8
_0-0_
  6
CONTINUOUS
 62
    7
 10
18.786681461874764
 20
-14.153640554573954
 11
18.802645718764154
 21
-15.654280702175214
  0
LINE
  8
_0-0_
  6
CONTINUOUS
 62
    7
 10
18.802645718764154
 20
-15.654280702175214
 11
18.259860984525403
 21
-16.739850170652716
  0
LINE
  8
_0-0_
  6
CONTINUOUS
 62
    7
 10
16.120650561349123
 20
-17.569991528900232
 11
17.908647332959134
 21
-17.474205987563977
  0
LINE
  8
_0-0_
  6
CONTINUOUS
 62
    7
 10
17.908647332959134
 20
-17.474205987563977
 11
18.291789498304155
 21
-16.707921656873978
  0
LINE
  8
_0-0_
  6
CONTINUOUS
 62
    7
 10
20.782213573046675
 20
-3.1542675577945118
 11
21.612354931294163
 21
-3.8726591178163829
  0
LINE
  8
_0-0_
  6
CONTINUOUS
 62
    7
 10
21.021677426387299
 20
-1.334342272405749
 11
20.782213573046675
 21
-3.1542675577945118
  0
LINE
  8
_0-0_
  6
CONTINUOUS
 62
    7
 10
21.021677426387299
 20
-1.334342272405749
 11
22.218996693090418
 21
-1.541877611967621
  0
LINE
  8
_0-0_
  6
CONTINUOUS
 62
    7
 10
22.394603518873566
 20
0.054548076969894
 11
22.218996693090418
 21
-1.541877611967621
  0
LINE
  8
_0-0_
  6
CONTINUOUS
 62
    7
 10
22.394603518873566
 20
0.054548076969894
 11
21.532533646847298
 21
0.9166179489961479
  0
LINE
  8
_0-0_
  6
CONTINUOUS
 62
    7
 10
21.532533646847298
 20
0.9166179489961479
 11
21.724104729519809
 21
2.5290078948230388
  0
LINE
  8
_0-0_
  6
CONTINUOUS
 62
    7
 10
21.724104729519809
 20
2.5290078948230388
 11
23.033173794448572
 21
2.6247934361592797
  0
LINE
  8
_0-0_
  6
CONTINUOUS
 62
    7
 10
23.033173794448572
 20
2.6247934361592797
 11
23.097030822006047
 21
4.2212191250967948
  0
LINE
  8
_0-0_
  6
CONTINUOUS
 62
    7
 10
23.097030822006047
 20
4.2212191250967948
 11
22.250925206869169
 21
5.0513604833443111
  0
LINE
  8
_0-0_
  6
CONTINUOUS
 62
    7
 10
22.250925206869169
 20
5.0513604833443111
 11
22.522317573988545
 21
6.6797146860605636
  0
LINE
  8
_0-0_
  6
CONTINUOUS
 62
    7
 10
22.522317573988545
 20
6.6797146860605636
 11
23.799458125138557
 21
6.5839291447243085
  0
LINE
  8
_0-0_
  6
CONTINUOUS
 62
    7
 10
23.799458125138557
 20
6.5839291447243085
 11
23.895243666474812
 21
8.0366765216574407
  0
LINE
  8
_0-0_
  6
CONTINUOUS
 62
    7
 10
23.895243666474812
 20
8.0366765216574407
 11
23.240709134010444
 21
8.6113897696749575
  0
LINE
  8
_0-0_
  6
CONTINUOUS
 62
    7
 10
23.240709134010444
 20
8.6113897696749575
 11
23.3364946753467
 21
10.559029110178713
  0
LINE
  8
_0-0_
  6
CONTINUOUS
 62
    7
 10
23.3364946753467
 20
10.559029110178713
 11
24.182600290483578
 21
10.527100596399961
  0
LINE
  8
_0-0_
  6
CONTINUOUS
 62
    7
 10
24.182600290483578
 20
10.527100596399961
 11
24.310314345598556
 21
11.74038411999247
  0
LINE
  8
_0-0_
  6
CONTINUOUS
 62
    7
 10
24.310314345598556
 20
11.74038411999247
 11
23.575958528687323
 21
12.139490542226852
  0
LINE
  8
_0-0_
  6
CONTINUOUS
 62
    7
 10
23.575958528687323
 20
12.139490542226852
 11
23.799458125138557
 21
14.294665222292494
  0
LINE
  8
_0-0_
  6
CONTINUOUS
 62
    7
 10
23.799458125138557
 20
14.294665222292494
 11
25.076598676288569
 21
14.278700965403118
  0
LINE
  8
_0-0_
  6
CONTINUOUS
 62
    7
 10
25.076598676288569
 20
14.278700965403118
 11
25.156419960735462
 21
15.795305369893754
  0
LINE
  8
_0-0_
  6
CONTINUOUS
 62
    7
 10
25.156419960735462
 20
15.795305369893754
 11
24.438028400713563
 21
16.385982874800632
  0
LINE
  8
_0-0_
  6
CONTINUOUS
 62
    7
 10
24.438028400713563
 20
16.385982874800632
 11
24.900991850505449
 21
20.137583243803789
  0
LINE
  8
_0-0_
  6
CONTINUOUS
 62
    7
 10
24.75731353850108
 20
18.221872417078771
 11
28.173664512827344
 21
16.066697737013129
  0
LINE
  8
_0-0_
  6
CONTINUOUS
 62
    7
 10
24.517849685160428
 20
17.072445921043766
 11
27.950164916376082
 21
14.837449956531245
  0
LINE
  8
_0-0_
  6
CONTINUOUS
 62
    7
 10
27.646844035477955
 20
13.735916231164367
 11
25.124491446956682
 21
15.36427043388062
  0
LINE
  8
_0-0_
  6
CONTINUOUS
 62
    7
 10
27.519129980362976
 20
12.394918652456866
 11
24.629599483386073
 21
14.278700965403118
  0
LINE
  8
_0-0_
  6
CONTINUOUS
 62
    7
 10
27.391415925247969
 20
11.053921073749351
 11
23.719636840691692
 21
13.25698852448312
  0
LINE
  8
_0-0_
  6
CONTINUOUS
 62
    7
 10
27.231773356354211
 20
9.8566018070462178
 11
24.278385831819804
 21
11.644598578656229
  0
LINE
  8
_0-0_
  6
CONTINUOUS
 62
    7
 10
26.912488218566722
 20
8.6592825403430851
 11
23.831386638917309
 21
10.543064853289351
  0
LINE
  8
_0-0_
  6
CONTINUOUS
 62
    7
 10
26.67302436522607
 20
7.4459990167505765
 11
23.320530418457309
 21
9.4734596417012114
  0
LINE
  8
_0-0_
  6
CONTINUOUS
 62
    7
 10
26.465489025664198
 20
6.3763938051624365
 11
23.895243666474812
 21
7.8451054389849446
  0
LINE
  8
_0-0_
  6
CONTINUOUS
 62
    7
 10
26.162168144766071
 20
5.0992532540124387
 11
23.416315959793565
 21
6.5200721171668192
  0
LINE
  8
_0-0_
  6
CONTINUOUS
 62
    7
 10
25.874811520757333
 20
3.7901841890836749
 11
22.330746491316063
 21
5.705895015808693
  0
LINE
  8
_0-0_
  6
CONTINUOUS
 62
    7
 10
25.683240438084823
 20
2.6247934361592939
 11
23.112995078895437
 21
3.9657910148667952
  0
LINE
  8
_0-0_
  6
CONTINUOUS
 62
    7
 10
23.033173794448572
 20
2.6247934361592797
 11
23.017209537559182
 21
0.9645107196642897
  0
LINE
  8
_0-0_
  6
CONTINUOUS
 62
    7
 10
23.017209537559182
 20
0.9645107196642897
 11
22.410567775762928
 21
-0.3605226021538499
  0
LINE
  8
_0-0_
  6
CONTINUOUS
 62
    7
 10
24.661527997164825
 20
-2.8988394475644981
 11
21.835854527745425
 21
-1.5738061257463585
  0
LINE
  8
_0-0_
  6
CONTINUOUS
 62
    7
 10
21.979532839749794
 20
-1.6057346395251102
 11
21.835854527745425
 21
-2.9307679613432498
  0
LINE
  8
_0-0_
  6
CONTINUOUS
 62
    7
 10
21.835854527745425
 20
-2.9307679613432498
 11
20.877999114382902
 21
-2.8828751906751222
  0
LINE
  8
_0-0_
  6
CONTINUOUS
 62
    7
 10
21.835854527745425
 20
-2.9307679613432498
 11
24.438028400713563
 21
-4.2238727693826235
  0
LINE
  8
_0-0_
  6
CONTINUOUS
 62
    7
 10
29.502471204455702
 20
-1.7618940978248077
 11
28.588735191951088
 21
-0.9512001070607283
  0
ARC
  8
_0-0_
  6
CONTINUOUS
 62
    7
 10
30.871067352481134
 20
17.617047074510964
 40
1.022825821290873
 50
332.82705500047399
 51
32.319663925877698
  0
ARC
  8
_0-0_
  6
CONTINUOUS
 62
    7
 10
27.625867068752569
 20
21.890582777572234
 40
2.8702852730517363
 50
135.43707552284687
 51
173.41607607695079
  0
ARC
  8
_0-0_
  6
CONTINUOUS
 62
    7
 10
27.349711301472269
 20
22.321970044528854
 40
2.3735477064136288
 50
115.13238671206969
 51
138.17983011986598
  0
ARC
  8
_0-0_
  6
CONTINUOUS
 62
    7
 10
25.774983585924247
 20
22.4061715646896
 40
2.2523947271394378
 50
67.592659004490471
 51
80.743480805275695
  0
ARC
  8
_0-0_
  6
CONTINUOUS
 62
    7
 10
26.492220645515118
 20
24.130608182827331
 40
0.3720390095783595
 50
356.5326665895268
 51
113.87528085393424
  0
ARC
  8
_0-0_
  6
CONTINUOUS
 62
    7
 10
26.784854701802715
 20
24.011821020620005
 40
0.1243725630155515
 50
330.91972019041242
 51
50.730525884413311
  0
ARC
  8
_0-0_
  6
CONTINUOUS
 62
    7
 10
26.562799814473948
 20
-0.7592222917364779
 40
22.953791088869295
 50
88.674967659875847
 51
93.446855720651882
  0
ARC
  8
_0-0_
  6
CONTINUOUS
 62
    7
 10
29.25044702101664
 20
3.3728975843880278
 40
18.220844071619489
 50
98.144947742996223
 51
104.84817829217535
  0
LINE
  8
_0-0_
  6
CONTINUOUS
 62
    7
 10
26.421256848932472
 20
21.197630237891275
 11
27.341286124952006
 21
20.31298670325711
  0
LINE
  8
_0-0_
  6
CONTINUOUS
 62
    7
 10
26.421256848932472
 20
22.046888031140071
 11
26.385871107547104
 21
21.586873393130304
  0
ARC
  8
_0-0_
  6
CONTINUOUS
 62
    7
 10
-17.161288039039022
 20
14.497328837227727
 40
1.9331218114909512
 50
152.56904503413026
 51
184.70818572873114
  0
ARC
  8
_0-0_
  6
CONTINUOUS
 62
    7
 10
-18.402015658689749
 20
14.047757125019587
 40
0.7450112299929599
 50
157.01668637585411
 51
221.23932800396895
  0
LINE
  8
_0-0_
  6
CONTINUOUS
 62
    7
 10
-19.034996070443981
 20
13.254395279946394
 11
-14.142598025826004
 21
14.100647914691123
  0
LINE
  8
_0-0_
  6
CONTINUOUS
 62
    7
 10
-12.159193413143015
 20
14.523774232063502
 11
-6.7378874718095858
 21
15.396472261643993
  0
LINE
  8
_0-0_
  6
CONTINUOUS
 62
    7
 10
-4.3313565417542748
 20
15.872489368687908
 11
1.9890928239954349
 21
16.956750556954603
  0
LINE
  8
_0-0_
  6
CONTINUOUS
 62
    7
 10
4.6071869127369496
 20
17.485658453670055
 11
12.170569835767992
 21
18.755037405787149
  0
LINE
  8
_0-0_
  6
CONTINUOUS
 62
    7
 10
-18.585424358235827
 20
12.487478829708991
 11
-14.59216973803413
 21
13.016386726424443
  0
LINE
  8
_0-0_
  6
CONTINUOUS
 62
    7
 10
-18.479642778892725
 20
13.122168305767531
 11
-14.459942763855253
 21
13.703966992154534
  0
LINE
  8
_0-0_
  6
CONTINUOUS
 62
    7
 10
-11.841848675113766
 20
14.312211073377313
 11
-7.1610137891819647
 21
15.07912752361473
  0
LINE
  8
_0-0_
  6
CONTINUOUS
 62
    7
 10
-4.3049111469184993
 20
15.581590025494407
 11
1.3544033479369091
 21
16.61296042408955
  0
LINE
  8
_0-0_
  6
CONTINUOUS
 62
    7
 10
4.7658592817516023
 20
17.194759110476554
 11
11.297871806187487
 21
18.411247272922111
  0
LINE
  8
_0-0_
  6
CONTINUOUS
 62
    7
 10
5.1625402042881774
 20
16.427842660239136
 11
11.350762595859038
 21
17.406322269162743
  0
LINE
  8
_0-0_
  6
CONTINUOUS
 62
    7
 10
11.271426411351712
 20
16.877414372447276
 11
5.3741033629743811
 21
15.951825553195235
  0
LINE
  8
_0-0_
  6
CONTINUOUS
 62
    7
 10
1.1957309789222563
 20
15.740262394509045
 11
-4.1197933830680711
 21
14.973345944271628
  0
LINE
  8
_0-0_
  6
CONTINUOUS
 62
    7
 10
-3.1677591689802682
 20
14.603110416570814
 11
1.0899493995791829
 21
15.158463708122042
  0
LINE
  8
_0-0_
  6
CONTINUOUS
 62
    7
 10
-11.921184859621064
 20
13.571740017975671
 11
-7.37257694786814
 21
14.312211073377313
  0
LINE
  8
_0-0_
  6
CONTINUOUS
 62
    7
 10
-11.418722357741387
 20
13.227949885110633
 11
-7.2667953685250382
 21
13.78330317666186
  0
LINE
  8
_0-0_
  6
CONTINUOUS
 62
    7
 10
-18.400306594385427
 20
12.196579486515489
 11
-14.671505922541456
 21
12.619705803887854
  0
LINE
  8
_0-0_
  6
CONTINUOUS
 62
    7
 10
24.361896855059285
 20
19.733517014710742
 11
17.882775120294923
 21
-15.756202854896415
  0
LINE
  8
_0-0_
  6
CONTINUOUS
 62
    7
 10
16.772068537192467
 20
-15.703312065224864
 11
23.330526456464128
 21
19.707071619874966
  0
LINE
  8
_0-0_
  6
CONTINUOUS
 62
    7
 10
22.722282375241377
 20
20.341761095933521
 11
15.18534484704611
 21
19.363281487009928
  0
LINE
  8
_0-0_
  6
CONTINUOUS
 62
    7
 10
15.317571821224959
 20
18.226129509071697
 11
22.457828426883651
 21
19.20460911799529
  0
LINE
  8
_0-0_
  6
CONTINUOUS
 62
    7
 10
15.529134979911163
 20
17.69722161235623
 11
22.457828426883651
 21
18.622810431608286
  0
LINE
  8
_0-0_
  6
CONTINUOUS
 62
    7
 10
22.616500795898276
 20
19.283945302502616
 11
16.084488271462391
 21
-15.438858116867138
  0
LINE
  8
_0-0_
  6
CONTINUOUS
 62
    7
 10
15.872925112776187
 20
-16.681791674148457
 11
7.4897349498362189
 21
-16.443783120626506
  0
LINE
  8
_0-0_
  6
CONTINUOUS
 62
    7
 10
7.7806342930296921
 20
-17.025581807013509
 11
16.851404721699794
 21
-17.237144965699699
  0
LINE
  8
_0-0_
  6
CONTINUOUS
 62
    7
 10
15.767143533433114
 20
-15.597530485881776
 11
8.62688692777445
 21
-15.385967327195587
  0
LINE
  8
_0-0_
  6
CONTINUOUS
 62
    7
 10
9.1293494296541269
 20
-15.200849563345187
 11
15.529134979911163
 21
17.69722161235623
  0
LINE
  8
_0-0_
  6
CONTINUOUS
 62
    7
 10
15.317571821224959
 20
18.226129509071697
 11
8.9442316658036987
 21
-15.042177194330549
  0
LINE
  8
_0-0_
  6
CONTINUOUS
 62
    7
 10
7.06660863246384
 20
-15.174404168509412
 11
13.677957341407051
 21
18.279020298743234
  0
LINE
  8
_0-0_
  6
CONTINUOUS
 62
    7
 10
12.937486286005424
 20
17.935230165878195
 11
6.4319191564052858
 21
-15.438858116867138
  0
LINE
  8
_0-0_
  6
CONTINUOUS
 62
    7
 10
5.426994152645932
 20
-16.708237068984232
 11
-2.162834165220886
 21
-16.470228515462281
  0
LINE
  8
_0-0_
  6
CONTINUOUS
 62
    7
 10
-2.4272881135786122
 20
-15.676866670389089
 11
4.8187500714231533
 21
-15.861984434239503
  0
LINE
  8
_0-0_
  6
CONTINUOUS
 62
    7
 10
-1.2372453459688302
 20
-14.619050876958184
 11
4.9245316507662267
 21
-14.88350482531591
  0
LINE
  8
_0-0_
  6
CONTINUOUS
 62
    7
 10
5.5856665216605563
 20
-15.095067984002085
 11
11.985452071917592
 21
17.90878477104242
  0
LINE
  8
_0-0_
  6
CONTINUOUS
 62
    7
 10
11.45654417520214
 20
17.326986084655417
 11
5.1625402042882058
 21
-14.909950220151686
  0
LINE
  8
_0-0_
  6
CONTINUOUS
 62
    7
 10
-1.1050183717899813
 20
-14.143033769914268
 11
5.1889855991239813
 21
15.846043973852133
  0
LINE
  8
_0-0_
  6
CONTINUOUS
 62
    7
 10
4.8187500714231533
 20
16.189834106717186
 11
-1.4223631098192584
 21
-14.354596928600458
  0
LINE
  8
_0-0_
  6
CONTINUOUS
 62
    7
 10
-2.7975236412794402
 20
-14.671941666629721
 11
3.6287073038133713
 21
16.586515029253775
  0
LINE
  8
_0-0_
  6
CONTINUOUS
 62
    7
 10
3.0204632225905925
 20
16.454288055074912
 11
-3.4851039070095169
 21
-14.962841009823222
  0
LINE
  8
_0-0_
  6
CONTINUOUS
 62
    7
 10
-4.3049111469184993
 20
-15.96776601358259
 11
-11.074932224876335
 21
-15.756202854896415
  0
LINE
  8
_0-0_
  6
CONTINUOUS
 62
    7
 10
-11.207159199055212
 20
-15.147958773673636
 11
-4.9660460178128005
 21
-15.412412722031362
  0
LINE
  8
_0-0_
  6
CONTINUOUS
 62
    7
 10
-4.4371381210973482
 20
-14.724832456301272
 11
1.5130757169515334
 21
15.581590025494407
  0
LINE
  8
_0-0_
  6
CONTINUOUS
 62
    7
 10
-3.9346756192176713
 20
14.497328837227727
 11
-3.1677591689802682
 21
14.603110416570814
  0
LINE
  8
_0-0_
  6
CONTINUOUS
 62
    7
 10
-3.9346756192176713
 20
14.206429494034225
 11
-9.8848894572665529
 21
-13.957916006063854
  0
LINE
  8
_0-0_
  6
CONTINUOUS
 62
    7
 10
-10.070007221116981
 20
-14.169479164750044
 11
-4.8602644384697271
 21
-14.354596928600458
  0
LINE
  8
_0-0_
  6
CONTINUOUS
 62
    7
 10
-4.7015920694550744
 20
-14.116588375078493
 11
-0.2852111318810273
 21
6.5108195968243194
  0
LINE
  8
_0-0_
  6
CONTINUOUS
 62
    7
 10
-10.070007221116981
 20
-13.640571268034591
 11
-4.1991295675753975
 21
14.86756436492854
  0
LINE
  8
_0-0_
  6
CONTINUOUS
 62
    7
 10
-5.3891723351851795
 20
14.682446601078126
 11
-11.550949331920265
 21
-14.037252190571181
  0
LINE
  8
_0-0_
  6
CONTINUOUS
 62
    7
 10
-12.185638807978791
 20
-14.830614035644359
 11
-5.8122986525575584
 21
14.576665021735039
  0
LINE
  8
_0-0_
  6
CONTINUOUS
 62
    7
 10
-6.7114420769738103
 20
14.62955581140659
 11
-12.873219073708896
 21
-13.931470611228093
  0
LINE
  8
_0-0_
  6
CONTINUOUS
 62
    7
 10
-13.164118416902397
 20
-15.465303511702913
 11
-18.241634225370774
 21
-15.438858116867138
  0
LINE
  8
_0-0_
  6
CONTINUOUS
 62
    7
 10
-18.611869753071602
 20
-14.645496271793959
 11
-13.269899996245499
 21
-14.751277851137047
  0
LINE
  8
_0-0_
  6
CONTINUOUS
 62
    7
 10
-13.349236180752797
 20
-13.957916006063854
 11
-18.003625671848823
 21
-13.852134426720767
  0
LINE
  8
_0-0_
  6
CONTINUOUS
 62
    7
 10
-17.606944749312248
 20
-13.799243637049216
 11
-11.577394726756012
 21
13.175059095439082
  0
LINE
  8
_0-0_
  6
CONTINUOUS
 62
    7
 10
-12.053411833799942
 20
13.413067648961032
 11
-17.792062513162648
 21
-13.667016662870353
  0
LINE
  8
_0-0_
  6
CONTINUOUS
 62
    7
 10
-19.140777649787054
 20
-14.43393311310777
 11
-13.03189144272352
 21
13.492403833468359
  0
LINE
  8
_0-0_
  6
CONTINUOUS
 62
    7
 10
-13.375681575588573
 20
13.651076202482997
 11
-14.116152630990229
 21
8.5735603940146063
  0
LINE
  8
_0-0_
  6
CONTINUOUS
 62
    7
 10
-14.354161184512179
 20
13.598185412811446
 11
-20.145702653546437
 21
-13.402562714512626
  0
LINE
  8
_0-0_
  6
CONTINUOUS
 62
    7
 10
-19.563903967159433
 20
-14.354596928600458
 11
-17.712726328655322
 21
-7.3730126919564185
  0
LINE
  8
_0-0_
  6
CONTINUOUS
 62
    7
 10
-20.277929627725285
 20
-14.962841009823222
 11
-25.514117805208315
 21
-14.936395614987461
  0
LINE
  8
_0-0_
  6
CONTINUOUS
 62
    7
 10
-25.276109251686364
 20
-14.301706138928907
 11
-20.410156601904163
 21
-14.381042323436219
  0
LINE
  8
_0-0_
  6
CONTINUOUS
 62
    7
 10
-20.410156601904163
 20
-13.429008109348402
 11
-24.694310565299361
 21
-13.34967192484109
  0
LINE
  8
_0-0_
  6
CONTINUOUS
 62
    7
 10
-24.324075037598533
 20
-13.296781135169539
 11
-18.638315147907377
 21
12.143688696843938
  0
LINE
  8
_0-0_
  6
CONTINUOUS
 62
    7
 10
-18.796987516922002
 20
12.408142645201664
 11
-20.542383576083012
 21
3.839834718411268
  0
LINE
  8
_0-0_
  6
CONTINUOUS
 62
    7
 10
-25.276109251686364
 20
-13.085217976483364
 11
-19.061441465279728
 21
12.831268962574029
  0
ARC
  8
_0-0_
  6
CONTINUOUS
 62
    7
 10
-18.368194329227919
 20
12.719820512909124
 40
0.7021483807406805
 50
130.41738702603359
 51
170.8671058883848
  0
ARC
  8
_0-0_
  6
CONTINUOUS
 62
    7
 10
-18.384300171195378
 20
12.802735773409125
 40
0.3333576991332882
 50
106.61904623465382
 51
202.97870647439242
  0
ARC
  8
_0-0_
  6
CONTINUOUS
 62
    7
 10
-14.007839045758601
 20
13.451610405264205
 40
0.6628798317582975
 50
17.512143584855018
 51
101.72960439241128
  0
ARC
  8
_0-0_
  6
CONTINUOUS
 62
    7
 10
-11.678768740293179
 20
13.232357450916624
 40
1.3778843089717867
 50
110.40588814793385
 51
169.12139523351846
  0
ARC
  8
_0-0_
  6
CONTINUOUS
 62
    7
 10
-7.3329088556145052
 20
14.457660744974021
 40
0.6448014196773309
 50
15.461217740445008
 51
74.538782259557763
  0
ARC
  8
_0-0_
  6
CONTINUOUS
 62
    7
 10
-6.4741891061614467
 20
14.761782785585453
 40
0.6872900108869303
 50
344.37473725843063
 51
112.56172125940336
  0
ARC
  8
_0-0_
  6
CONTINUOUS
 62
    7
 10
-3.6208569338332097
 20
13.829729536484749
 40
1.8806768301313486
 50
111.32930268197396
 51
152.12972147166082
  0
ARC
  8
_0-0_
  6
CONTINUOUS
 62
    7
 10
-2.9310542616834425
 20
13.530209573973877
 40
2.7289413904107862
 50
120.87255759673114
 51
150.65523932513028
  0
ARC
  8
_0-0_
  6
CONTINUOUS
 62
    7
 10
-11.268208674367429
 20
12.235122242818463
 40
2.1548459017963721
 50
105.43882147749189
 51
142.55409681900952
  0
LINE
  8
_0-0_
  6
CONTINUOUS
 62
    7
 10
-5.9709710215721827
 20
15.370026866808232
 11
-5.4420631248567304
 21
14.973345944271628
  0
LINE
  8
_0-0_
  6
CONTINUOUS
 62
    7
 10
-13.534353944603225
 20
14.021311730183811
 11
-13.058336837559295
 21
13.78330317666186
  0
LINE
  8
_0-0_
  6
CONTINUOUS
 62
    7
 10
2.7560092742328663
 20
16.983195951790364
 11
3.4700349347987185
 21
16.480733449910687
  0
ARC
  8
_0-0_
  6
CONTINUOUS
 62
    7
 10
-7.4590911681165721
 20
13.887573590585774
 40
0.4333609374375299
 50
338.73656324375764
 51
78.484356088172845
  0
ARC
  8
_0-0_
  6
CONTINUOUS
 62
    7
 10
0.7726046615499342
 20
14.497328837227784
 40
1.3129812292142276
 50
55.669782804496585
 51
71.200114841348267
  0
ARC
  8
_0-0_
  6
CONTINUOUS
 62
    7
 10
1.6022657587702724
 20
15.559776785805028
 40
1.0819572776474786
 50
345.59921979866044
 51
103.24332907012335
  0
ARC
  8
_0-0_
  6
CONTINUOUS
 62
    7
 10
2.2459909452572049
 20
16.252169680258589
 40
0.7499539029257353
 50
22.042597030679776
 51
110.03242502016424
  0
ARC
  8
_0-0_
  6
CONTINUOUS
 62
    7
 10
-3.7786477896866018
 20
14.391547257884639
 40
0.1322534169296948
 50
88.854237161834632
 51
191.53462065364519
  0
ARC
  8
_0-0_
  6
CONTINUOUS
 62
    7
 10
5.1766159789589494
 20
15.88400591160017
 40
1.6998647966757148
 50
109.57162070052344
 51
155.58936086616515
  0
ARC
  8
_0-0_
  6
CONTINUOUS
 62
    7
 10
6.9940624817682533
 20
10.965439145844385
 40
6.6158383234726479
 50
109.68192971453611
 51
120.04546342896607
  0
ARC
  8
_0-0_
  6
CONTINUOUS
 62
    7
 10
5.1707597188992622
 20
16.0486728775263
 40
0.3792588621811544
 50
91.241844077156429
 51
158.14846298531251
  0
ARC
  8
_0-0_
  6
CONTINUOUS
 62
    7
 10
11.413570408594012
 20
17.379876874326968
 40
0.0681482226369162
 50
157.16634582208479
 51
309.09385888622489
  0
ARC
  8
_0-0_
  6
CONTINUOUS
 62
    7
 10
11.234003682810481
 20
17.602167881861575
 40
0.8115963271372016
 50
22.197155523100513
 51
85.486473597281361
  0
ARC
  8
_0-0_
  6
CONTINUOUS
 62
    7
 10
12.034954130089915
 20
17.85954849573244
 40
0.9056997337183716
 50
4.7933132466087756
 51
81.388381887399603
  0
LINE
  8
_0-0_
  6
CONTINUOUS
 62
    7
 10
12.620141547976118
 20
18.781482800622925
 11
13.466394182720848
 21
18.146793324564385
  0
LINE
  8
_0-0_
  6
CONTINUOUS
 62
    7
 10
23.67431658932918
 20
20.897114387484763
 11
24.679241593088534
 21
20.183088726918896
  0
LINE
  8
_0-0_
  6
CONTINUOUS
 62
    7
 10
15.317571821224959
 20
19.65418083020343
 11
23.700761984164956
 21
20.870668992648987
  0
ARC
  8
_0-0_
  6
CONTINUOUS
 62
    7
 10
16.195208448636009
 20
16.369376034307379
 40
3.1596351614606073
 50
108.63958226213111
 51
142.81521418346838
  0
ARC
  8
_0-0_
  6
CONTINUOUS
 62
    7
 10
22.574258373173848
 20
19.591109733670322
 40
0.7651069028937566
 50
8.717514708296445
 51
78.844734821437441
  0
ARC
  8
_0-0_
  6
CONTINUOUS
 62
    7
 10
23.285731195823956
 20
19.839298594053844
 40
0.9269724431181741
 50
351.7991330303069
 51
114.08781059087396
  0
ARC
  8
_0-0_
  6
CONTINUOUS
 62
    7
 10
14.274534336671763
 20
-14.342929842642761
 40
3.8751441469661572
 50
311.68033633908959
 51
338.61075252870381
  0
ARC
  8
_0-0_
  6
CONTINUOUS
 62
    7
 10
15.527482142733874
 20
-15.461997837348406
 40
1.2677649032241869
 50
285.81200697040845
 51
349.02701146290417
  0
ARC
  8
_0-0_
  6
CONTINUOUS
 62
    7
 10
15.820034323104636
 20
-15.306631142688232
 40
0.2956685027230823
 50
259.6951535312399
 51
333.43494882291708
  0
ARC
  8
_0-0_
  6
CONTINUOUS
 62
    7
 10
8.3492102819983813
 20
-15.452080814285168
 40
1.3123152483294516
 50
167.78428086585905
 51
229.0856167799858
  0
ARC
  8
_0-0_
  6
CONTINUOUS
 62
    7
 10
8.1770077109751753
 20
-15.978528674271558
 40
1.1195678403913312
 50
172.66222136918725
 51
249.26529169496052
  0
ARC
  8
_0-0_
  6
CONTINUOUS
 62
    7
 10
4.8444567680790271
 20
-15.214589349488833
 40
1.6032259087140064
 50
291.30627552125674
 51
351.95875370902155
  0
ARC
  8
_0-0_
  6
CONTINUOUS
 62
    7
 10
4.5516515835817586
 20
-14.827969496160719
 40
1.0679552866937896
 50
284.48358881237948
 51
345.51641118762217
  0
ARC
  8
_0-0_
  6
CONTINUOUS
 62
    7
 10
-0.9331233053573555
 20
-14.209147257003607
 40
0.5104029714231164
 50
196.557071375644
 51
233.42696902147935
  0
ARC
  8
_0-0_
  6
CONTINUOUS
 62
    7
 10
-1.6263907527726644
 20
-14.811135438372844
 40
1.179375745313729
 50
173.22196693367658
 51
227.22775192866027
  0
ARC
  8
_0-0_
  6
CONTINUOUS
 62
    7
 10
-1.5447509724514816
 20
-15.491170135271219
 40
1.1578351113204193
 50
172.15218048704637
 51
237.73563003980416
  0
ARC
  8
_0-0_
  6
CONTINUOUS
 62
    7
 10
-5.2831666423265347
 20
-14.33285791759134
 40
1.9052318222814142
 50
300.89440520885489
 51
340.69118778120787
  0
ARC
  8
_0-0_
  6
CONTINUOUS
 62
    7
 10
-6.5351394447358473
 20
-13.65820153125803
 40
2.3535741085097555
 50
311.8117526950204
 51
333.05106324732463
  0
ARC
  8
_0-0_
  6
CONTINUOUS
 62
    7
 10
-10.83251610554845
 20
-14.474580664429411
 40
0.7705812906641604
 50
158.80040059835829
 51
240.91002814028514
  0
ARC
  8
_0-0_
  6
CONTINUOUS
 62
    7
 10
-10.628966702873072
 20
-15.071961654170821
 40
0.8167443097971657
 50
177.9101142294513
 51
236.90503664618728
  0
ARC
  8
_0-0_
  6
CONTINUOUS
 62
    7
 10
-9.0915276121934312
 20
-13.905025216392318
 40
1.0135868171405811
 50
164.87599269168888
 51
195.12400730831109
  0
ARC
  8
_0-0_
  6
CONTINUOUS
 62
    7
 10
-12.357533874411331
 20
-9.7310603981457291
 40
5.1024499228889333
 50
259.69958030859698
 51
271.93058744116701
  0
ARC
  8
_0-0_
  6
CONTINUOUS
 62
    7
 10
-13.163550571001025
 20
-14.394589504226303
 40
1.0707141580532009
 50
269.96961357534792
 51
335.96919423157692
  0
ARC
  8
_0-0_
  6
CONTINUOUS
 62
    7
 10
-16.441047776988199
 20
-13.932045511116215
 40
2.7459848053322009
 50
190.53123024775508
 51
211.96978076650956
  0
ARC
  8
_0-0_
  6
CONTINUOUS
 62
    7
 10
-17.547951176217055
 20
-13.693462057706128
 40
1.4276875999216583
 50
170.4034644522782
 51
221.82337201390098
  0
ARC
  8
_0-0_
  6
CONTINUOUS
 62
    7
 10
-20.473836463701929
 20
-13.404266252216814
 40
0.9788496401927117
 50
273.73005793006195
 51
334.49888796062044
  0
ARC
  8
_0-0_
  6
CONTINUOUS
 62
    7
 10
-20.092811863874886
 20
-14.382931280210187
 40
0.5296663088106718
 50
264.26907479113436
 51
3.0664855011229331
  0
ARC
  8
_0-0_
  6
CONTINUOUS
 62
    7
 10
-33.037832635993226
 20
-14.288483441511019
 40
7.5515610995020053
 50
355.07806006282516
 51
1.1036350711858676
  0
ARC
  8
_0-0_
  6
CONTINUOUS
 62
    7
 10
-21.216741144396281
 20
-14.447155810525544
 40
4.2817454494959684
 50
161.45314550000887
 51
175.92698955194831
  0
ARC
  8
_0-0_
  6
CONTINUOUS
 62
    7
 10
-24.858272013281152
 20
-13.786020939631328
 40
0.5180125668535183
 50
163.69299458368715
 51
243.3041367682163
  0
LINE
  8
_0-0_
  6
CONTINUOUS
 62
    7
 10
-24.403411222105859
 20
-17.316481150207011
 11
14.682882345166405
 21
-20.066802213127389
  0
ARC
  8
_0-0_
  6
CONTINUOUS
 62
    7
 10
18.985031844515419
 20
16.168426185392761
 40
1.5760595269242637
 50
82.697813710875337
 51
145.35519944648334
  0
ARC
  8
_0-0_
  6
CONTINUOUS
 62
    7
 10
18.979750067937402
 20
16.498086338146578
 40
1.4100494772447216
 50
156.32026712234159
 51
229.66896646149269
  0
ARC
  8
_0-0_
  6
CONTINUOUS
 62
    7
 10
18.502726330937151
 20
16.75377523320779
 40
1.4000709978931276
 50
251.87437507963716
 51
299.18070522367594
  0
ARC
  8
_0-0_
  6
CONTINUOUS
 62
    7
 10
19.341659116707802
 20
15.49832762036425
 40
0.159765197648571
 50
94.316027519885949
 51
168.05582281153374
  0
ARC
  8
_0-0_
  6
CONTINUOUS
 62
    7
 10
18.861868050779577
 20
16.631595780918971
 40
0.5782819025655112
 50
93.690468061901555
 51
180.00475247008825
  0
ARC
  8
_0-0_
  6
CONTINUOUS
 62
    7
 10
18.953109738864583
 20
16.481915673683503
 40
0.6860405333287903
 50
167.40196526053836
 51
249.8189540713899
  0
ARC
  8
_0-0_
  6
CONTINUOUS
 62
    7
 10
18.526243380124981
 20
16.682374666816315
 40
0.8655361279760954
 50
282.69361944138331
 51
307.99873244251046
  0
ARC
  8
_0-0_
  6
CONTINUOUS
 62
    7
 10
16.622528265560817
 20
14.75293728325282
 40
1.5760595269242637
 50
82.697813710875337
 51
145.35519944648334
  0
ARC
  8
_0-0_
  6
CONTINUOUS
 62
    7
 10
16.617246488982801
 20
15.082597436006637
 40
1.4100494772447216
 50
156.32026712234159
 51
229.66896646149269
  0
ARC
  8
_0-0_
  6
CONTINUOUS
 62
    7
 10
16.140222751982549
 20
15.338286331067849
 40
1.4000709978931276
 50
251.87437507963716
 51
299.18070522367594
  0
ARC
  8
_0-0_
  6
CONTINUOUS
 62
    7
 10
16.979155537753201
 20
14.082838718224309
 40
0.159765197648571
 50
94.316027519885949
 51
168.05582281153374
  0
ARC
  8
_0-0_
  6
CONTINUOUS
 62
    7
 10
16.499364471824975
 20
15.21610687877903
 40
0.5782819025655112
 50
93.690468061901555
 51
180.00475247008825
  0
ARC
  8
_0-0_
  6
CONTINUOUS
 62
    7
 10
16.590606159909981
 20
15.066426771543561
 40
0.6860405333287903
 50
167.40196526053836
 51
249.8189540713899
  0
ARC
  8
_0-0_
  6
CONTINUOUS
 62
    7
 10
16.163739801170379
 20
15.266885764676374
 40
0.8655361279760954
 50
282.69361944138331
 51
307.99873244251046
  0
ARC
  8
_0-0_
  6
CONTINUOUS
 62
    7
 10
21.041185256360393
 20
15.312032657598891
 40
1.5760595269242637
 50
82.697813710875337
 51
145.35519944648334
  0
ARC
  8
_0-0_
  6
CONTINUOUS
 62
    7
 10
21.035903479782377
 20
15.641692810352708
 40
1.4100494772447216
 50
156.32026712234159
 51
229.66896646149269
  0
ARC
  8
_0-0_
  6
CONTINUOUS
 62
    7
 10
20.558879742782125
 20
15.89738170541392
 40
1.4000709978931276
 50
251.87437507963716
 51
299.18070522367594
  0
ARC
  8
_0-0_
  6
CONTINUOUS
 62
    7
 10
21.397812528552777
 20
14.641934092570381
 40
0.159765197648571
 50
94.316027519885949
 51
168.05582281153374
  0
ARC
  8
_0-0_
  6
CONTINUOUS
 62
    7
 10
20.918021462624552
 20
15.775202253125101
 40
0.5782819025655112
 50
93.690468061901555
 51
180.00475247008825
  0
ARC
  8
_0-0_
  6
CONTINUOUS
 62
    7
 10
21.009263150709558
 20
15.625522145889633
 40
0.6860405333287903
 50
167.40196526053836
 51
249.8189540713899
  0
ARC
  8
_0-0_
  6
CONTINUOUS
 62
    7
 10
20.582396791969956
 20
15.825981139022446
 40
0.8655361279760954
 50
282.69361944138331
 51
307.99873244251046
  0
ARC
  8
_0-0_
  6
CONTINUOUS
 62
    7
 10
20.554231220639622
 20
12.191919762054695
 40
1.5760595269242637
 50
82.697813710875337
 51
145.35519944648334
  0
ARC
  8
_0-0_
  6
CONTINUOUS
 62
    7
 10
20.548949444061606
 20
12.521579914808513
 40
1.4100494772447216
 50
156.32026712234159
 51
229.66896646149269
  0
ARC
  8
_0-0_
  6
CONTINUOUS
 62
    7
 10
20.071925707061354
 20
12.777268809869724
 40
1.4000709978931276
 50
251.87437507963716
 51
299.18070522367594
  0
ARC
  8
_0-0_
  6
CONTINUOUS
 62
    7
 10
20.910858492832006
 20
11.521821197026185
 40
0.159765197648571
 50
94.316027519885949
 51
168.05582281153374
  0
ARC
  8
_0-0_
  6
CONTINUOUS
 62
    7
 10
20.43106742690378
 20
12.655089357580906
 40
0.5782819025655112
 50
93.690468061901555
 51
180.00475247008825
  0
ARC
  8
_0-0_
  6
CONTINUOUS
 62
    7
 10
20.522309114988786
 20
12.505409250345437
 40
0.6860405333287903
 50
167.40196526053836
 51
249.8189540713899
  0
ARC
  8
_0-0_
  6
CONTINUOUS
 62
    7
 10
20.095442756249184
 20
12.70586824347825
 40
0.8655361279760954
 50
282.69361944138331
 51
307.99873244251046
  0
ARC
  8
_0-0_
  6
CONTINUOUS
 62
    7
 10
18.335885057911668
 20
13.183863168152556
 40
1.5760595269242637
 50
82.697813710875337
 51
145.35519944648334
  0
ARC
  8
_0-0_
  6
CONTINUOUS
 62
    7
 10
18.330603281333651
 20
13.513523320906373
 40
1.4100494772447216
 50
156.32026712234159
 51
229.66896646149269
  0
ARC
  8
_0-0_
  6
CONTINUOUS
 62
    7
 10
17.8535795443334
 20
13.769212215967585
 40
1.4000709978931276
 50
251.87437507963716
 51
299.18070522367594
  0
ARC
  8
_0-0_
  6
CONTINUOUS
 62
    7
 10
18.692512330104051
 20
12.513764603124045
 40
0.159765197648571
 50
94.316027519885949
 51
168.05582281153374
  0
ARC
  8
_0-0_
  6
CONTINUOUS
 62
    7
 10
18.212721264175826
 20
13.647032763678766
 40
0.5782819025655112
 50
93.690468061901555
 51
180.00475247008825
  0
ARC
  8
_0-0_
  6
CONTINUOUS
 62
    7
 10
18.303962952260832
 20
13.497352656443297
 40
0.6860405333287903
 50
167.40196526053836
 51
249.8189540713899
  0
ARC
  8
_0-0_
  6
CONTINUOUS
 62
    7
 10
17.87709659352123
 20
13.69781164957611
 40
0.8655361279760954
 50
282.69361944138331
 51
307.99873244251046
  0
ARC
  8
_0-0_
  6
CONTINUOUS
 62
    7
 10
16.135574229840046
 20
11.614789053052306
 40
1.5760595269242637
 50
82.697813710875337
 51
145.35519944648334
  0
ARC
  8
_0-0_
  6
CONTINUOUS
 62
    7
 10
16.13029245326203
 20
11.944449205806123
 40
1.4100494772447216
 50
156.32026712234159
 51
229.66896646149269
  0
ARC
  8
_0-0_
  6
CONTINUOUS
 62
    7
 10
15.653268716261778
 20
12.200138100867335
 40
1.4000709978931276
 50
251.87437507963716
 51
299.18070522367594
  0
ARC
  8
_0-0_
  6
CONTINUOUS
 62
    7
 10
16.49220150203243
 20
10.944690488023795
 40
0.159765197648571
 50
94.316027519885949
 51
168.05582281153374
  0
ARC
  8
_0-0_
  6
CONTINUOUS
 62
    7
 10
16.012410436104204
 20
12.077958648578516
 40
0.5782819025655112
 50
93.690468061901555
 51
180.00475247008825
  0
ARC
  8
_0-0_
  6
CONTINUOUS
 62
    7
 10
16.10365212418921
 20
11.928278541343047
 40
0.6860405333287903
 50
167.40196526053836
 51
249.8189540713899
  0
ARC
  8
_0-0_
  6
CONTINUOUS
 62
    7
 10
15.676785765449608
 20
12.12873753447586
 40
0.8655361279760954
 50
282.69361944138331
 51
307.99873244251046
  0
ARC
  8
_0-0_
  6
CONTINUOUS
 62
    7
 10
15.576478855493974
 20
8.6209235001023927
 40
1.5760595269242637
 50
82.697813710875337
 51
145.35519944648334
  0
ARC
  8
_0-0_
  6
CONTINUOUS
 62
    7
 10
15.571197078915958
 20
8.9505836528562099
 40
1.4100494772447216
 50
156.32026712234159
 51
229.66896646149269
  0
ARC
  8
_0-0_
  6
CONTINUOUS
 62
    7
 10
15.094173341915706
 20
9.2062725479174219
 40
1.4000709978931276
 50
251.87437507963716
 51
299.18070522367594
  0
ARC
  8
_0-0_
  6
CONTINUOUS
 62
    7
 10
15.933106127686358
 20
7.9508249350738822
 40
0.159765197648571
 50
94.316027519885949
 51
168.05582281153374
  0
ARC
  8
_0-0_
  6
CONTINUOUS
 62
    7
 10
15.453315061758133
 20
9.084093095628603
 40
0.5782819025655112
 50
93.690468061901555
 51
180.00475247008825
  0
ARC
  8
_0-0_
  6
CONTINUOUS
 62
    7
 10
15.544556749843139
 20
8.9344129883931345
 40
0.6860405333287903
 50
167.40196526053836
 51
249.8189540713899
  0
ARC
  8
_0-0_
  6
CONTINUOUS
 62
    7
 10
15.117690391103537
 20
9.1348719815259471
 40
0.8655361279760954
 50
282.69361944138331
 51
307.99873244251046
  0
ARC
  8
_0-0_
  6
CONTINUOUS
 62
    7
 10
17.506259663720726
 20
8.512711492164442
 40
1.5760595269242637
 50
82.697813710875337
 51
145.35519944648334
  0
ARC
  8
_0-0_
  6
CONTINUOUS
 62
    7
 10
17.50097788714271
 20
8.8423716449182592
 40
1.4100494772447216
 50
156.32026712234159
 51
229.66896646149269
  0
ARC
  8
_0-0_
  6
CONTINUOUS
 62
    7
 10
17.023954150142458
 20
9.0980605399794712
 40
1.4000709978931276
 50
251.87437507963716
 51
299.18070522367594
  0
ARC
  8
_0-0_
  6
CONTINUOUS
 62
    7
 10
17.86288693591311
 20
7.8426129271359315
 40
0.159765197648571
 50
94.316027519885949
 51
168.05582281153374
  0
ARC
  8
_0-0_
  6
CONTINUOUS
 62
    7
 10
17.383095869984885
 20
8.9758810876906523
 40
0.5782819025655112
 50
93.690468061901555
 51
180.00475247008825
  0
ARC
  8
_0-0_
  6
CONTINUOUS
 62
    7
 10
17.474337558069891
 20
8.8262009804551838
 40
0.6860405333287903
 50
167.40196526053836
 51
249.8189540713899
  0
ARC
  8
_0-0_
  6
CONTINUOUS
 62
    7
 10
17.047471199330289
 20
9.0266599735879964
 40
0.8655361279760954
 50
282.69361944138331
 51
307.99873244251046
  0
ARC
  8
_0-0_
  6
CONTINUOUS
 62
    7
 10
19.904959173011946
 20
9.1078775358231638
 40
1.5760595269242637
 50
82.697813710875337
 51
145.35519944648334
  0
ARC
  8
_0-0_
  6
CONTINUOUS
 62
    7
 10
19.89967739643393
 20
9.4375376885769811
 40
1.4100494772447216
 50
156.32026712234159
 51
229.66896646149269
  0
ARC
  8
_0-0_
  6
CONTINUOUS
 62
    7
 10
19.422653659433678
 20
9.693226583638193
 40
1.4000709978931276
 50
251.87437507963716
 51
299.18070522367594
  0
ARC
  8
_0-0_
  6
CONTINUOUS
 62
    7
 10
20.26158644520433
 20
8.4377789707946533
 40
0.159765197648571
 50
94.316027519885949
 51
168.05582281153374
  0
ARC
  8
_0-0_
  6
CONTINUOUS
 62
    7
 10
19.781795379276105
 20
9.5710471313493741
 40
0.5782819025655112
 50
93.690468061901555
 51
180.00475247008825
  0
ARC
  8
_0-0_
  6
CONTINUOUS
 62
    7
 10
19.873037067361111
 20
9.4213670241139056
 40
0.6860405333287903
 50
167.40196526053836
 51
249.8189540713899
  0
ARC
  8
_0-0_
  6
CONTINUOUS
 62
    7
 10
19.446170708621509
 20
9.6218260172467183
 40
0.8655361279760954
 50
282.69361944138331
 51
307.99873244251046
  0
ARC
  8
_0-0_
  6
CONTINUOUS
 62
    7
 10
19.219616456071577
 20
5.8615172976846992
 40
1.5760595269242637
 50
82.697813710875337
 51
145.35519944648334
  0
ARC
  8
_0-0_
  6
CONTINUOUS
 62
    7
 10
19.214334679493561
 20
6.1911774504385164
 40
1.4100494772447216
 50
156.32026712234159
 51
229.66896646149269
  0
ARC
  8
_0-0_
  6
CONTINUOUS
 62
    7
 10
18.737310942493309
 20
6.4468663454997284
 40
1.4000709978931276
 50
251.87437507963716
 51
299.18070522367594
  0
ARC
  8
_0-0_
  6
CONTINUOUS
 62
    7
 10
19.576243728263961
 20
5.1914187326561887
 40
0.159765197648571
 50
94.316027519885949
 51
168.05582281153374
  0
ARC
  8
_0-0_
  6
CONTINUOUS
 62
    7
 10
19.096452662335736
 20
6.3246868932109095
 40
0.5782819025655112
 50
93.690468061901555
 51
180.00475247008825
  0
ARC
  8
_0-0_
  6
CONTINUOUS
 62
    7
 10
19.187694350420742
 20
6.1750067859754409
 40
0.6860405333287903
 50
167.40196526053836
 51
249.8189540713899
  0
ARC
  8
_0-0_
  6
CONTINUOUS
 62
    7
 10
18.76082799168114
 20
6.3754657791082536
 40
0.8655361279760954
 50
282.69361944138331
 51
307.99873244251046
  0
ARC
  8
_0-0_
  6
CONTINUOUS
 62
    7
 10
17.037340962656288
 20
5.9336586363099997
 40
1.5760595269242637
 50
82.697813710875337
 51
145.35519944648334
  0
ARC
  8
_0-0_
  6
CONTINUOUS
 62
    7
 10
17.032059186078271
 20
6.2633187890638169
 40
1.4100494772447216
 50
156.32026712234159
 51
229.66896646149269
  0
ARC
  8
_0-0_
  6
CONTINUOUS
 62
    7
 10
16.555035449078019
 20
6.5190076841250288
 40
1.4000709978931276
 50
251.87437507963716
 51
299.18070522367594
  0
ARC
  8
_0-0_
  6
CONTINUOUS
 62
    7
 10
17.393968234848671
 20
5.2635600712814892
 40
0.159765197648571
 50
94.316027519885949
 51
168.05582281153374
  0
ARC
  8
_0-0_
  6
CONTINUOUS
 62
    7
 10
16.914177168920446
 20
6.39682823183621
 40
0.5782819025655112
 50
93.690468061901555
 51
180.00475247008825
  0
ARC
  8
_0-0_
  6
CONTINUOUS
 62
    7
 10
17.005418857005452
 20
6.2471481246007414
 40
0.6860405333287903
 50
167.40196526053836
 51
249.8189540713899
  0
ARC
  8
_0-0_
  6
CONTINUOUS
 62
    7
 10
16.57855249826585
 20
6.4476071177335541
 40
0.8655361279760954
 50
282.69361944138331
 51
307.99873244251046
  0
ARC
  8
_0-0_
  6
CONTINUOUS
 62
    7
 10
15.053454150460567
 20
5.6991992857777802
 40
1.5760595269242637
 50
82.697813710875337
 51
145.35519944648334
  0
ARC
  8
_0-0_
  6
CONTINUOUS
 62
    7
 10
15.048172373882551
 20
6.0288594385315974
 40
1.4100494772447216
 50
156.32026712234159
 51
229.66896646149269
  0
ARC
  8
_0-0_
  6
CONTINUOUS
 62
    7
 10
14.571148636882299
 20
6.2845483335928094
 40
1.4000709978931276
 50
251.87437507963716
 51
299.18070522367594
  0
ARC
  8
_0-0_
  6
CONTINUOUS
 62
    7
 10
15.410081422652951
 20
5.0291007207492697
 40
0.159765197648571
 50
94.316027519885949
 51
168.05582281153374
  0
ARC
  8
_0-0_
  6
CONTINUOUS
 62
    7
 10
14.930290356724726
 20
6.1623688813039905
 40
0.5782819025655112
 50
93.690468061901555
 51
180.00475247008825
  0
ARC
  8
_0-0_
  6
CONTINUOUS
 62
    7
 10
15.021532044809732
 20
6.012688774068522
 40
0.6860405333287903
 50
167.40196526053836
 51
249.8189540713899
  0
ARC
  8
_0-0_
  6
CONTINUOUS
 62
    7
 10
14.59466568607013
 20
6.2131477672013347
 40
0.8655361279760954
 50
282.69361944138331
 51
307.99873244251046
  0
ARC
  8
_0-0_
  6
CONTINUOUS
 62
    7
 10
14.277934760238594
 20
2.4708743822956478
 40
1.5760595269242637
 50
82.697813710875337
 51
145.35519944648334
  0
ARC
  8
_0-0_
  6
CONTINUOUS
 62
    7
 10
14.272652983660578
 20
2.800534535049465
 40
1.4100494772447216
 50
156.32026712234159
 51
229.66896646149269
  0
ARC
  8
_0-0_
  6
CONTINUOUS
 62
    7
 10
13.795629246660326
 20
3.056223430110677
 40
1.4000709978931276
 50
251.87437507963716
 51
299.18070522367594
  0
ARC
  8
_0-0_
  6
CONTINUOUS
 62
    7
 10
14.634562032430978
 20
1.8007758172671373
 40
0.159765197648571
 50
94.316027519885949
 51
168.05582281153374
  0
ARC
  8
_0-0_
  6
CONTINUOUS
 62
    7
 10
14.154770966502753
 20
2.9340439778218581
 40
0.5782819025655112
 50
93.690468061901555
 51
180.00475247008825
  0
ARC
  8
_0-0_
  6
CONTINUOUS
 62
    7
 10
14.246012654587759
 20
2.7843638705863896
 40
0.6860405333287903
 50
167.40196526053836
 51
249.8189540713899
  0
ARC
  8
_0-0_
  6
CONTINUOUS
 62
    7
 10
13.819146295848157
 20
2.9848228637192022
 40
0.8655361279760954
 50
282.69361944138331
 51
307.99873244251046
  0
ARC
  8
_0-0_
  6
CONTINUOUS
 62
    7
 10
18.69659175103817
 20
2.8676517447347862
 40
1.5760595269242637
 50
82.697813710875337
 51
145.35519944648334
  0
ARC
  8
_0-0_
  6
CONTINUOUS
 62
    7
 10
18.691309974460154
 20
3.1973118974886034
 40
1.4100494772447216
 50
156.32026712234159
 51
229.66896646149269
  0
ARC
  8
_0-0_
  6
CONTINUOUS
 62
    7
 10
18.214286237459902
 20
3.4530007925498154
 40
1.4000709978931276
 50
251.87437507963716
 51
299.18070522367594
  0
ARC
  8
_0-0_
  6
CONTINUOUS
 62
    7
 10
19.053219023230554
 20
2.1975531797062757
 40
0.159765197648571
 50
94.316027519885949
 51
168.05582281153374
  0
ARC
  8
_0-0_
  6
CONTINUOUS
 62
    7
 10
18.573427957302329
 20
3.3308213402609965
 40
0.5782819025655112
 50
93.690468061901555
 51
180.00475247008825
  0
ARC
  8
_0-0_
  6
CONTINUOUS
 62
    7
 10
18.664669645387335
 20
3.181141233025528
 40
0.6860405333287903
 50
167.40196526053836
 51
249.8189540713899
  0
ARC
  8
_0-0_
  6
CONTINUOUS
 62
    7
 10
18.237803286647733
 20
3.3816002261583407
 40
0.8655361279760954
 50
282.69361944138331
 51
307.99873244251046
  0
ARC
  8
_0-0_
  6
CONTINUOUS
 62
    7
 10
18.029284368754162
 20
-0.3967438280599964
 40
1.5760595269242637
 50
82.697813710875337
 51
145.35519944648334
  0
ARC
  8
_0-0_
  6
CONTINUOUS
 62
    7
 10
18.024002592176146
 20
-0.0670836753061792
 40
1.4100494772447216
 50
156.32026712234159
 51
229.66896646149269
  0
ARC
  8
_0-0_
  6
CONTINUOUS
 62
    7
 10
17.546978855175894
 20
0.1886052197550327
 40
1.4000709978931276
 50
251.87437507963716
 51
299.18070522367594
  0
ARC
  8
_0-0_
  6
CONTINUOUS
 62
    7
 10
18.385911640946546
 20
-1.0668423930885069
 40
0.159765197648571
 50
94.316027519885949
 51
168.05582281153374
  0
ARC
  8
_0-0_
  6
CONTINUOUS
 62
    7
 10
17.906120575018321
 20
0.0664257674662138
 40
0.5782819025655112
 50
93.690468061901555
 51
180.00475247008825
  0
ARC
  8
_0-0_
  6
CONTINUOUS
 62
    7
 10
17.997362263103327
 20
-0.0832543397692546
 40
0.6860405333287903
 50
167.40196526053836
 51
249.8189540713899
  0
ARC
  8
_0-0_
  6
CONTINUOUS
 62
    7
 10
17.570495904363725
 20
0.117204653363558
 40
0.8655361279760954
 50
282.69361944138331
 51
307.99873244251046
  0
ARC
  8
_0-0_
  6
CONTINUOUS
 62
    7
 10
13.772945389861519
 20
-0.5410265053105973
 40
1.5760595269242637
 50
82.697813710875337
 51
145.35519944648334
  0
ARC
  8
_0-0_
  6
CONTINUOUS
 62
    7
 10
13.767663613283503
 20
-0.2113663525567801
 40
1.4100494772447216
 50
156.32026712234159
 51
229.66896646149269
  0
ARC
  8
_0-0_
  6
CONTINUOUS
 62
    7
 10
13.290639876283251
 20
0.0443225425044317
 40
1.4000709978931276
 50
251.87437507963716
 51
299.18070522367594
  0
ARC
  8
_0-0_
  6
CONTINUOUS
 62
    7
 10
14.129572662053903
 20
-1.2111250703391079
 40
0.159765197648571
 50
94.316027519885949
 51
168.05582281153374
  0
ARC
  8
_0-0_
  6
CONTINUOUS
 62
    7
 10
13.649781596125678
 20
-0.077856909784387
 40
0.5782819025655112
 50
93.690468061901555
 51
180.00475247008825
  0
ARC
  8
_0-0_
  6
CONTINUOUS
 62
    7
 10
13.741023284210684
 20
-0.2275370170198556
 40
0.6860405333287903
 50
167.40196526053836
 51
249.8189540713899
  0
ARC
  8
_0-0_
  6
CONTINUOUS
 62
    7
 10
13.314156925471082
 20
-0.0270780238870429
 40
0.8655361279760954
 50
282.69361944138331
 51
307.99873244251046
  0
ARC
  8
_0-0_
  6
CONTINUOUS
 62
    7
 10
13.231885350171751
 20
-3.7152454048237473
 40
1.5760595269242637
 50
82.697813710875337
 51
145.35519944648334
  0
ARC
  8
_0-0_
  6
CONTINUOUS
 62
    7
 10
13.226603573593735
 20
-3.3855852520699301
 40
1.4100494772447216
 50
156.32026712234159
 51
229.66896646149269
  0
ARC
  8
_0-0_
  6
CONTINUOUS
 62
    7
 10
12.749579836593483
 20
-3.1298963570087182
 40
1.4000709978931276
 50
251.87437507963716
 51
299.18070522367594
  0
ARC
  8
_0-0_
  6
CONTINUOUS
 62
    7
 10
13.588512622364135
 20
-4.3853439698522578
 40
0.159765197648571
 50
94.316027519885949
 51
168.05582281153374
  0
ARC
  8
_0-0_
  6
CONTINUOUS
 62
    7
 10
13.10872155643591
 20
-3.252075809297537
 40
0.5782819025655112
 50
93.690468061901555
 51
180.00475247008825
  0
ARC
  8
_0-0_
  6
CONTINUOUS
 62
    7
 10
13.199963244520916
 20
-3.4017559165330056
 40
0.6860405333287903
 50
167.40196526053836
 51
249.8189540713899
  0
ARC
  8
_0-0_
  6
CONTINUOUS
 62
    7
 10
12.773096885781314
 20
-3.2012969234001929
 40
0.8655361279760954
 50
282.69361944138331
 51
307.99873244251046
  0
ARC
  8
_0-0_
  6
CONTINUOUS
 62
    7
 10
15.071489485116899
 20
-3.9136340860433307
 40
1.5760595269242637
 50
82.697813710875337
 51
145.35519944648334
  0
ARC
  8
_0-0_
  6
CONTINUOUS
 62
    7
 10
15.066207708538883
 20
-3.5839739332895135
 40
1.4100494772447216
 50
156.32026712234159
 51
229.66896646149269
  0
ARC
  8
_0-0_
  6
CONTINUOUS
 62
    7
 10
14.589183971538631
 20
-3.3282850382283016
 40
1.4000709978931276
 50
251.87437507963716
 51
299.18070522367594
  0
ARC
  8
_0-0_
  6
CONTINUOUS
 62
    7
 10
15.428116757309283
 20
-4.5837326510718412
 40
0.159765197648571
 50
94.316027519885949
 51
168.05582281153374
  0
ARC
  8
_0-0_
  6
CONTINUOUS
 62
    7
 10
14.948325691381058
 20
-3.4504644905171205
 40
0.5782819025655112
 50
93.690468061901555
 51
180.00475247008825
  0
ARC
  8
_0-0_
  6
CONTINUOUS
 62
    7
 10
15.039567379466064
 20
-3.600144597752589
 40
0.6860405333287903
 50
167.40196526053836
 51
249.8189540713899
  0
ARC
  8
_0-0_
  6
CONTINUOUS
 62
    7
 10
14.612701020726462
 20
-3.3996856046197763
 40
0.8655361279760954
 50
282.69361944138331
 51
307.99873244251046
  0
ARC
  8
_0-0_
  6
CONTINUOUS
 62
    7
 10
17.542330333033391
 20
-3.5889980622294786
 40
1.5760595269242637
 50
82.697813710875337
 51
145.35519944648334
  0
ARC
  8
_0-0_
  6
CONTINUOUS
 62
    7
 10
17.537048556455375
 20
-3.2593379094756614
 40
1.4100494772447216
 50
156.32026712234159
 51
229.66896646149269
  0
ARC
  8
_0-0_
  6
CONTINUOUS
 62
    7
 10
17.060024819455123
 20
-3.0036490144144494
 40
1.4000709978931276
 50
251.87437507963716
 51
299.18070522367594
  0
ARC
  8
_0-0_
  6
CONTINUOUS
 62
    7
 10
17.898957605225775
 20
-4.2590966272579891
 40
0.159765197648571
 50
94.316027519885949
 51
168.05582281153374
  0
ARC
  8
_0-0_
  6
CONTINUOUS
 62
    7
 10
17.419166539297549
 20
-3.1258284667032683
 40
0.5782819025655112
 50
93.690468061901555
 51
180.00475247008825
  0
ARC
  8
_0-0_
  6
CONTINUOUS
 62
    7
 10
17.510408227382555
 20
-3.2755085739387368
 40
0.6860405333287903
 50
167.40196526053836
 51
249.8189540713899
  0
ARC
  8
_0-0_
  6
CONTINUOUS
 62
    7
 10
17.083541868642953
 20
-3.0750495808059242
 40
0.8655361279760954
 50
282.69361944138331
 51
307.99873244251046
  0
ARC
  8
_0-0_
  6
CONTINUOUS
 62
    7
 10
12.636719306513044
 20
-6.7271462924299925
 40
1.5760595269242637
 50
82.697813710875337
 51
145.35519944648334
  0
ARC
  8
_0-0_
  6
CONTINUOUS
 62
    7
 10
12.631437529935027
 20
-6.3974861396761753
 40
1.4100494772447216
 50
156.32026712234159
 51
229.66896646149269
  0
ARC
  8
_0-0_
  6
CONTINUOUS
 62
    7
 10
12.154413792934776
 20
-6.1417972446149633
 40
1.4000709978931276
 50
251.87437507963716
 51
299.18070522367594
  0
ARC
  8
_0-0_
  6
CONTINUOUS
 62
    7
 10
12.993346578705427
 20
-7.397244857458503
 40
0.159765197648571
 50
94.316027519885949
 51
168.05582281153374
  0
ARC
  8
_0-0_
  6
CONTINUOUS
 62
    7
 10
12.513555512777202
 20
-6.2639766969037822
 40
0.5782819025655112
 50
93.690468061901555
 51
180.00475247008825
  0
ARC
  8
_0-0_
  6
CONTINUOUS
 62
    7
 10
12.604797200862208
 20
-6.4136568041392508
 40
0.6860405333287903
 50
167.40196526053836
 51
249.8189540713899
  0
ARC
  8
_0-0_
  6
CONTINUOUS
 62
    7
 10
12.177930842122606
 20
-6.2131978110064381
 40
0.8655361279760954
 50
282.69361944138331
 51
307.99873244251046
  0
ARC
  8
_0-0_
  6
CONTINUOUS
 62
    7
 10
14.87310080389733
 20
-6.3664395993034901
 40
1.5760595269242637
 50
82.697813710875337
 51
145.35519944648334
  0
ARC
  8
_0-0_
  6
CONTINUOUS
 62
    7
 10
14.867819027319314
 20
-6.0367794465496729
 40
1.4100494772447216
 50
156.32026712234159
 51
229.66896646149269
  0
ARC
  8
_0-0_
  6
CONTINUOUS
 62
    7
 10
14.390795290319062
 20
-5.781090551488461
 40
1.4000709978931276
 50
251.87437507963716
 51
299.18070522367594
  0
ARC
  8
_0-0_
  6
CONTINUOUS
 62
    7
 10
15.229728076089714
 20
-7.0365381643320006
 40
0.159765197648571
 50
94.316027519885949
 51
168.05582281153374
  0
ARC
  8
_0-0_
  6
CONTINUOUS
 62
    7
 10
14.749937010161489
 20
-5.9032700037772798
 40
0.5782819025655112
 50
93.690468061901555
 51
180.00475247008825
  0
ARC
  8
_0-0_
  6
CONTINUOUS
 62
    7
 10
14.841178698246495
 20
-6.0529501110127484
 40
0.6860405333287903
 50
167.40196526053836
 51
249.8189540713899
  0
ARC
  8
_0-0_
  6
CONTINUOUS
 62
    7
 10
14.414312339506893
 20
-5.8524911178799357
 40
0.8655361279760954
 50
282.69361944138331
 51
307.99873244251046
  0
ARC
  8
_0-0_
  6
CONTINUOUS
 62
    7
 10
16.802881612124082
 20
-6.5828636151793916
 40
1.5760595269242637
 50
82.697813710875337
 51
145.35519944648334
  0
ARC
  8
_0-0_
  6
CONTINUOUS
 62
    7
 10
16.797599835546066
 20
-6.2532034624255743
 40
1.4100494772447216
 50
156.32026712234159
 51
229.66896646149269
  0
ARC
  8
_0-0_
  6
CONTINUOUS
 62
    7
 10
16.320576098545814
 20
-5.9975145673643624
 40
1.4000709978931276
 50
251.87437507963716
 51
299.18070522367594
  0
ARC
  8
_0-0_
  6
CONTINUOUS
 62
    7
 10
17.159508884316466
 20
-7.2529621802079021
 40
0.159765197648571
 50
94.316027519885949
 51
168.05582281153374
  0
ARC
  8
_0-0_
  6
CONTINUOUS
 62
    7
 10
16.679717818388241
 20
-6.1196940196531813
 40
0.5782819025655112
 50
93.690468061901555
 51
180.00475247008825
  0
ARC
  8
_0-0_
  6
CONTINUOUS
 62
    7
 10
16.770959506473247
 20
-6.2693741268886498
 40
0.6860405333287903
 50
167.40196526053836
 51
249.8189540713899
  0
ARC
  8
_0-0_
  6
CONTINUOUS
 62
    7
 10
16.344093147733645
 20
-6.0689151337558371
 40
0.8655361279760954
 50
282.69361944138331
 51
307.99873244251046
  0
ARC
  8
_0-0_
  6
CONTINUOUS
 62
    7
 10
16.243786237778011
 20
-9.8833298572868244
 40
1.5760595269242637
 50
82.697813710875337
 51
145.35519944648334
  0
ARC
  8
_0-0_
  6
CONTINUOUS
 62
    7
 10
16.238504461199994
 20
-9.5536697045330072
 40
1.4100494772447216
 50
156.32026712234159
 51
229.66896646149269
  0
ARC
  8
_0-0_
  6
CONTINUOUS
 62
    7
 10
15.761480724199743
 20
-9.2979808094717953
 40
1.4000709978931276
 50
251.87437507963716
 51
299.18070522367594
  0
ARC
  8
_0-0_
  6
CONTINUOUS
 62
    7
 10
16.600413509970394
 20
-10.553428422315335
 40
0.159765197648571
 50
94.316027519885949
 51
168.05582281153374
  0
ARC
  8
_0-0_
  6
CONTINUOUS
 62
    7
 10
16.120622444042169
 20
-9.4201602617606142
 40
0.5782819025655112
 50
93.690468061901555
 51
180.00475247008825
  0
ARC
  8
_0-0_
  6
CONTINUOUS
 62
    7
 10
16.211864132127175
 20
-9.5698403689960827
 40
0.6860405333287903
 50
167.40196526053836
 51
249.8189540713899
  0
ARC
  8
_0-0_
  6
CONTINUOUS
 62
    7
 10
15.784997773387573
 20
-9.36938137586327
 40
0.8655361279760954
 50
282.69361944138331
 51
307.99873244251046
  0
ARC
  8
_0-0_
  6
CONTINUOUS
 62
    7
 10
13.881157397799456
 20
-11.163838617885887
 40
1.5760595269242637
 50
82.697813710875337
 51
145.35519944648334
  0
ARC
  8
_0-0_
  6
CONTINUOUS
 62
    7
 10
13.875875621221439
 20
-10.834178465132069
 40
1.4100494772447216
 50
156.32026712234159
 51
229.66896646149269
  0
ARC
  8
_0-0_
  6
CONTINUOUS
 62
    7
 10
13.398851884221187
 20
-10.578489570070857
 40
1.4000709978931276
 50
251.87437507963716
 51
299.18070522367594
  0
ARC
  8
_0-0_
  6
CONTINUOUS
 62
    7
 10
14.237784669991839
 20
-11.833937182914397
 40
0.159765197648571
 50
94.316027519885949
 51
168.05582281153374
  0
ARC
  8
_0-0_
  6
CONTINUOUS
 62
    7
 10
13.757993604063614
 20
-10.700669022359676
 40
0.5782819025655112
 50
93.690468061901555
 51
180.00475247008825
  0
ARC
  8
_0-0_
  6
CONTINUOUS
 62
    7
 10
13.84923529214862
 20
-10.850349129595145
 40
0.6860405333287903
 50
167.40196526053836
 51
249.8189540713899
  0
ARC
  8
_0-0_
  6
CONTINUOUS
 62
    7
 10
13.422368933409018
 20
-10.649890136462332
 40
0.8655361279760954
 50
282.69361944138331
 51
307.99873244251046
  0
ARC
  8
_0-0_
  6
CONTINUOUS
 62
    7
 10
11.915305920260067
 20
-9.9194005265994747
 40
1.5760595269242637
 50
82.697813710875337
 51
145.35519944648334
  0
ARC
  8
_0-0_
  6
CONTINUOUS
 62
    7
 10
11.910024143682051
 20
-9.5897403738456575
 40
1.4100494772447216
 50
156.32026712234159
 51
229.66896646149269
  0
ARC
  8
_0-0_
  6
CONTINUOUS
 62
    7
 10
11.433000406681799
 20
-9.3340514787844455
 40
1.4000709978931276
 50
251.87437507963716
 51
299.18070522367594
  0
ARC
  8
_0-0_
  6
CONTINUOUS
 62
    7
 10
12.271933192452451
 20
-10.589499091627985
 40
0.159765197648571
 50
94.316027519885949
 51
168.05582281153374
  0
ARC
  8
_0-0_
  6
CONTINUOUS
 62
    7
 10
11.792142126524226
 20
-9.4562309310732644
 40
0.5782819025655112
 50
93.690468061901555
 51
180.00475247008825
  0
ARC
  8
_0-0_
  6
CONTINUOUS
 62
    7
 10
11.883383814609232
 20
-9.6059110383087329
 40
0.6860405333287903
 50
167.40196526053836
 51
249.8189540713899
  0
ARC
  8
_0-0_
  6
CONTINUOUS
 62
    7
 10
11.45651745586963
 20
-9.4054520451759203
 40
0.8655361279760954
 50
282.69361944138331
 51
307.99873244251046
  0
ARC
  8
_0-0_
  6
CONTINUOUS
 62
    7
 10
15.774867536713572
 20
-12.949336748862038
 40
1.5760595269242637
 50
82.697813710875337
 51
145.35519944648334
  0
ARC
  8
_0-0_
  6
CONTINUOUS
 62
    7
 10
15.769585760135556
 20
-12.619676596108221
 40
1.4100494772447216
 50
156.32026712234159
 51
229.66896646149269
  0
ARC
  8
_0-0_
  6
CONTINUOUS
 62
    7
 10
15.292562023135304
 20
-12.363987701047009
 40
1.4000709978931276
 50
251.87437507963716
 51
299.18070522367594
  0
ARC
  8
_0-0_
  6
CONTINUOUS
 62
    7
 10
16.131494808905956
 20
-13.619435313890548
 40
0.159765197648571
 50
94.316027519885949
 51
168.05582281153374
  0
ARC
  8
_0-0_
  6
CONTINUOUS
 62
    7
 10
15.65170374297773
 20
-12.486167153335828
 40
0.5782819025655112
 50
93.690468061901555
 51
180.00475247008825
  0
ARC
  8
_0-0_
  6
CONTINUOUS
 62
    7
 10
15.742945431062736
 20
-12.635847260571296
 40
0.6860405333287903
 50
167.40196526053836
 51
249.8189540713899
  0
ARC
  8
_0-0_
  6
CONTINUOUS
 62
    7
 10
15.316079072323134
 20
-12.435388267438483
 40
0.8655361279760954
 50
282.69361944138331
 51
307.99873244251046
  0
ARC
  8
_0-0_
  6
CONTINUOUS
 62
    7
 10
13.502415370016649
 20
-14.283951513430068
 40
1.5760595269242637
 50
82.697813710875337
 51
145.35519944648334
  0
ARC
  8
_0-0_
  6
CONTINUOUS
 62
    7
 10
13.497133593438633
 20
-13.954291360676251
 40
1.4100494772447216
 50
156.32026712234159
 51
229.66896646149269
  0
ARC
  8
_0-0_
  6
CONTINUOUS
 62
    7
 10
13.020109856438381
 20
-13.698602465615039
 40
1.4000709978931276
 50
251.87437507963716
 51
299.18070522367594
  0
ARC
  8
_0-0_
  6
CONTINUOUS
 62
    7
 10
13.859042642209033
 20
-14.954050078458579
 40
0.159765197648571
 50
94.316027519885949
 51
168.05582281153374
  0
ARC
  8
_0-0_
  6
CONTINUOUS
 62
    7
 10
13.379251576280808
 20
-13.820781917903858
 40
0.5782819025655112
 50
93.690468061901555
 51
180.00475247008825
  0
ARC
  8
_0-0_
  6
CONTINUOUS
 62
    7
 10
13.470493264365814
 20
-13.970462025139327
 40
0.6860405333287903
 50
167.40196526053836
 51
249.8189540713899
  0
ARC
  8
_0-0_
  6
CONTINUOUS
 62
    7
 10
13.043626905626212
 20
-13.770003032006514
 40
0.8655361279760954
 50
282.69361944138331
 51
307.99873244251046
  0
ARC
  8
_0-0_
  6
CONTINUOUS
 62
    7
 10
11.338175211257663
 20
-12.985407418174688
 40
1.5760595269242637
 50
82.697813710875337
 51
145.35519944648334
  0
ARC
  8
_0-0_
  6
CONTINUOUS
 62
    7
 10
11.332893434679647
 20
-12.655747265420871
 40
1.4100494772447216
 50
156.32026712234159
 51
229.66896646149269
  0
ARC
  8
_0-0_
  6
CONTINUOUS
 62
    7
 10
10.855869697679395
 20
-12.400058370359659
 40
1.4000709978931276
 50
251.87437507963716
 51
299.18070522367594
  0
ARC
  8
_0-0_
  6
CONTINUOUS
 62
    7
 10
11.694802483450047
 20
-13.655505983203199
 40
0.159765197648571
 50
94.316027519885949
 51
168.05582281153374
  0
ARC
  8
_0-0_
  6
CONTINUOUS
 62
    7
 10
11.215011417521822
 20
-12.522237822648478
 40
0.5782819025655112
 50
93.690468061901555
 51
180.00475247008825
  0
ARC
  8
_0-0_
  6
CONTINUOUS
 62
    7
 10
11.306253105606828
 20
-12.671917929883946
 40
0.6860405333287903
 50
167.40196526053836
 51
249.8189540713899
  0
ARC
  8
_0-0_
  6
CONTINUOUS
 62
    7
 10
10.879386746867226
 20
-12.471458936751134
 40
0.8655361279760954
 50
282.69361944138331
 51
307.99873244251046
  0
ARC
  8
_0-0_
  6
CONTINUOUS
 62
    7
 10
2.714039597855276
 20
-13.699019525146596
 40
1.2608476215394111
 50
82.697813710875337
 51
145.35519944648334
  0
ARC
  8
_0-0_
  6
CONTINUOUS
 62
    7
 10
2.7098141765928858
 20
-13.435291402943534
 40
1.1280395817957773
 50
156.32026712234159
 51
229.66896646149269
  0
ARC
  8
_0-0_
  6
CONTINUOUS
 62
    7
 10
2.3281951869926729
 20
-13.230740286894573
 40
1.1200567983145022
 50
251.87437507963716
 51
299.18070522367594
  0
ARC
  8
_0-0_
  6
CONTINUOUS
 62
    7
 10
2.9993414156091944
 20
-14.235098377169393
 40
0.1278121581188567
 50
94.316027519885949
 51
168.05582281153374
  0
ARC
  8
_0-0_
  6
CONTINUOUS
 62
    7
 10
2.6155085628666086
 20
-13.328483848725625
 40
0.462625522052409
 50
93.690468061901555
 51
180.00475247008825
  0
ARC
  8
_0-0_
  6
CONTINUOUS
 62
    7
 10
2.6885019133346191
 20
-13.448227934513994
 40
0.5488324266630323
 50
167.40196526053836
 51
249.8189540713899
  0
ARC
  8
_0-0_
  6
CONTINUOUS
 62
    7
 10
2.3470088263429432
 20
-13.287860740007744
 40
0.6924289023808764
 50
282.69361944138331
 51
307.99873244251046
  0
ARC
  8
_0-0_
  6
CONTINUOUS
 62
    7
 10
1.0728241441297257
 20
-12.454581433860184
 40
1.2608476215394111
 50
82.697813710875337
 51
145.35519944648334
  0
ARC
  8
_0-0_
  6
CONTINUOUS
 62
    7
 10
1.0685987228673355
 20
-12.190853311657122
 40
1.1280395817957773
 50
156.32026712234159
 51
229.66896646149269
  0
ARC
  8
_0-0_
  6
CONTINUOUS
 62
    7
 10
0.6869797332671225
 20
-11.986302195608161
 40
1.1200567983145022
 50
251.87437507963716
 51
299.18070522367594
  0
ARC
  8
_0-0_
  6
CONTINUOUS
 62
    7
 10
1.3581259618836441
 20
-12.990660285882981
 40
0.1278121581188567
 50
94.316027519885949
 51
168.05582281153374
  0
ARC
  8
_0-0_
  6
CONTINUOUS
 62
    7
 10
0.9742931091410582
 20
-12.084045757439213
 40
0.462625522052409
 50
93.690468061901555
 51
180.00475247008825
  0
ARC
  8
_0-0_
  6
CONTINUOUS
 62
    7
 10
1.0472864596090687
 20
-12.203789843227582
 40
0.5488324266630323
 50
167.40196526053836
 51
249.8189540713899
  0
ARC
  8
_0-0_
  6
CONTINUOUS
 62
    7
 10
0.7057933726173928
 20
-12.043422648721332
 40
0.6924289023808764
 50
282.69361944138331
 51
307.99873244251046
  0
ARC
  8
_0-0_
  6
CONTINUOUS
 62
    7
 10
4.9684564298958946
 20
-12.634934780423436
 40
1.2608476215394111
 50
82.697813710875337
 51
145.35519944648334
  0
ARC
  8
_0-0_
  6
CONTINUOUS
 62
    7
 10
4.9642310086335044
 20
-12.371206658220373
 40
1.1280395817957773
 50
156.32026712234159
 51
229.66896646149269
  0
ARC
  8
_0-0_
  6
CONTINUOUS
 62
    7
 10
4.5826120190332915
 20
-12.166655542171412
 40
1.1200567983145022
 50
251.87437507963716
 51
299.18070522367594
  0
ARC
  8
_0-0_
  6
CONTINUOUS
 62
    7
 10
5.253758247649813
 20
-13.171013632446233
 40
0.1278121581188567
 50
94.316027519885949
 51
168.05582281153374
  0
ARC
  8
_0-0_
  6
CONTINUOUS
 62
    7
 10
4.8699253949072272
 20
-12.264399104002464
 40
0.462625522052409
 50
93.690468061901555
 51
180.00475247008825
  0
ARC
  8
_0-0_
  6
CONTINUOUS
 62
    7
 10
4.9429187453752377
 20
-12.384143189790834
 40
0.5488324266630323
 50
167.40196526053836
 51
249.8189540713899
  0
ARC
  8
_0-0_
  6
CONTINUOUS
 62
    7
 10
4.6014256583835618
 20
-12.223775995284583
 40
0.6924289023808764
 50
282.69361944138331
 51
307.99873244251046
  0
ARC
  8
_0-0_
  6
CONTINUOUS
 62
    7
 10
3.2550996375450154
 20
-10.777295310821984
 40
1.2608476215394111
 50
82.697813710875337
 51
145.35519944648334
  0
ARC
  8
_0-0_
  6
CONTINUOUS
 62
    7
 10
3.2508742162826252
 20
-10.513567188618921
 40
1.1280395817957773
 50
156.32026712234159
 51
229.66896646149269
  0
ARC
  8
_0-0_
  6
CONTINUOUS
 62
    7
 10
2.8692552266824123
 20
-10.30901607256996
 40
1.1200567983145022
 50
251.87437507963716
 51
299.18070522367594
  0
ARC
  8
_0-0_
  6
CONTINUOUS
 62
    7
 10
3.5404014552989338
 20
-11.313374162844781
 40
0.1278121581188567
 50
94.316027519885949
 51
168.05582281153374
  0
ARC
  8
_0-0_
  6
CONTINUOUS
 62
    7
 10
3.156568602556348
 20
-10.406759634401013
 40
0.462625522052409
 50
93.690468061901555
 51
180.00475247008825
  0
ARC
  8
_0-0_
  6
CONTINUOUS
 62
    7
 10
3.2295619530243584
 20
-10.526503720189382
 40
0.5488324266630323
 50
167.40196526053836
 51
249.8189540713899
  0
ARC
  8
_0-0_
  6
CONTINUOUS
 62
    7
 10
2.8880688660326825
 20
-10.366136525683132
 40
0.6924289023808764
 50
282.69361944138331
 51
307.99873244251046
  0
ARC
  8
_0-0_
  6
CONTINUOUS
 62
    7
 10
1.5778135145068291
 20
-9.6591045621298406
 40
1.2608476215394111
 50
82.697813710875337
 51
145.35519944648334
  0
ARC
  8
_0-0_
  6
CONTINUOUS
 62
    7
 10
1.5735880932444388
 20
-9.3953764399267783
 40
1.1280395817957773
 50
156.32026712234159
 51
229.66896646149269
  0
ARC
  8
_0-0_
  6
CONTINUOUS
 62
    7
 10
1.1919691036442259
 20
-9.1908253238778173
 40
1.1200567983145022
 50
251.87437507963716
 51
299.18070522367594
  0
ARC
  8
_0-0_
  6
CONTINUOUS
 62
    7
 10
1.8631153322607474
 20
-10.195183414152638
 40
0.1278121581188567
 50
94.316027519885949
 51
168.05582281153374
  0
ARC
  8
_0-0_
  6
CONTINUOUS
 62
    7
 10
1.4792824795181616
 20
-9.2885688857088695
 40
0.462625522052409
 50
93.690468061901555
 51
180.00475247008825
  0
ARC
  8
_0-0_
  6
CONTINUOUS
 62
    7
 10
1.5522758299861721
 20
-9.4083129714972387
 40
0.5488324266630323
 50
167.40196526053836
 51
249.8189540713899
  0
ARC
  8
_0-0_
  6
CONTINUOUS
 62
    7
 10
1.2107827429944962
 20
-9.2479457769909885
 40
0.6924289023808764
 50
282.69361944138331
 51
307.99873244251046
  0
ARC
  8
_0-0_
  6
CONTINUOUS
 62
    7
 10
5.4193397963040013
 20
-9.6230338928171903
 40
1.2608476215394111
 50
82.697813710875337
 51
145.35519944648334
  0
ARC
  8
_0-0_
  6
CONTINUOUS
 62
    7
 10
5.4151143750416111
 20
-9.3593057706141281
 40
1.1280395817957773
 50
156.32026712234159
 51
229.66896646149269
  0
ARC
  8
_0-0_
  6
CONTINUOUS
 62
    7
 10
5.0334953854413982
 20
-9.154754654565167
 40
1.1200567983145022
 50
251.87437507963716
 51
299.18070522367594
  0
ARC
  8
_0-0_
  6
CONTINUOUS
 62
    7
 10
5.7046416140579197
 20
-10.159112744839987
 40
0.1278121581188567
 50
94.316027519885949
 51
168.05582281153374
  0
ARC
  8
_0-0_
  6
CONTINUOUS
 62
    7
 10
5.3208087613153339
 20
-9.2524982163962193
 40
0.462625522052409
 50
93.690468061901555
 51
180.00475247008825
  0
ARC
  8
_0-0_
  6
CONTINUOUS
 62
    7
 10
5.3938021117833443
 20
-9.3722423021845884
 40
0.5488324266630323
 50
167.40196526053836
 51
249.8189540713899
  0
ARC
  8
_0-0_
  6
CONTINUOUS
 62
    7
 10
5.0523090247916684
 20
-9.2118751076783383
 40
0.6924289023808764
 50
282.69361944138331
 51
307.99873244251046
  0
ARC
  8
_0-0_
  6
CONTINUOUS
 62
    7
 10
6.0145058399627089
 20
-6.6111330052109594
 40
1.2608476215394111
 50
82.697813710875337
 51
145.35519944648334
  0
ARC
  8
_0-0_
  6
CONTINUOUS
 62
    7
 10
6.0102804187003187
 20
-6.3474048830078971
 40
1.1280395817957773
 50
156.32026712234159
 51
229.66896646149269
  0
ARC
  8
_0-0_
  6
CONTINUOUS
 62
    7
 10
5.6286614291001058
 20
-6.142853766958936
 40
1.1200567983145022
 50
251.87437507963716
 51
299.18070522367594
  0
ARC
  8
_0-0_
  6
CONTINUOUS
 62
    7
 10
6.2998076577166273
 20
-7.1472118572337564
 40
0.1278121581188567
 50
94.316027519885949
 51
168.05582281153374
  0
ARC
  8
_0-0_
  6
CONTINUOUS
 62
    7
 10
5.9159748049740415
 20
-6.2405973287899883
 40
0.462625522052409
 50
93.690468061901555
 51
180.00475247008825
  0
ARC
  8
_0-0_
  6
CONTINUOUS
 62
    7
 10
5.988968155442052
 20
-6.3603414145783574
 40
0.5488324266630323
 50
167.40196526053836
 51
249.8189540713899
  0
ARC
  8
_0-0_
  6
CONTINUOUS
 62
    7
 10
5.6474750684503761
 20
-6.1999742200721073
 40
0.6924289023808764
 50
282.69361944138331
 51
307.99873244251046
  0
ARC
  8
_0-0_
  6
CONTINUOUS
 62
    7
 10
3.9765130237980202
 20
-6.3225676507097575
 40
1.2608476215394111
 50
82.697813710875337
 51
145.35519944648334
  0
ARC
  8
_0-0_
  6
CONTINUOUS
 62
    7
 10
3.97228760253563
 20
-6.0588395285066952
 40
1.1280395817957773
 50
156.32026712234159
 51
229.66896646149269
  0
ARC
  8
_0-0_
  6
CONTINUOUS
 62
    7
 10
3.5906686129354171
 20
-5.8542884124577341
 40
1.1200567983145022
 50
251.87437507963716
 51
299.18070522367594
  0
ARC
  8
_0-0_
  6
CONTINUOUS
 62
    7
 10
4.2618148415519386
 20
-6.8586465027325545
 40
0.1278121581188567
 50
94.316027519885949
 51
168.05582281153374
  0
ARC
  8
_0-0_
  6
CONTINUOUS
 62
    7
 10
3.8779819888093527
 20
-5.9520319742887864
 40
0.462625522052409
 50
93.690468061901555
 51
180.00475247008825
  0
ARC
  8
_0-0_
  6
CONTINUOUS
 62
    7
 10
3.9509753392773632
 20
-6.0717760600771555
 40
0.5488324266630323
 50
167.40196526053836
 51
249.8189540713899
  0
ARC
  8
_0-0_
  6
CONTINUOUS
 62
    7
 10
3.6094822522856873
 20
-5.9114088655709054
 40
0.6924289023808764
 50
282.69361944138331
 51
307.99873244251046
  0
ARC
  8
_0-0_
  6
CONTINUOUS
 62
    7
 10
2.3713682393851059
 20
-6.3766736546787399
 40
1.2608476215394111
 50
82.697813710875337
 51
145.35519944648334
  0
ARC
  8
_0-0_
  6
CONTINUOUS
 62
    7
 10
2.3671428181227157
 20
-6.1129455324756776
 40
1.1280395817957773
 50
156.32026712234159
 51
229.66896646149269
  0
ARC
  8
_0-0_
  6
CONTINUOUS
 62
    7
 10
1.9855238285225028
 20
-5.9083944164267166
 40
1.1200567983145022
 50
251.87437507963716
 51
299.18070522367594
  0
ARC
  8
_0-0_
  6
CONTINUOUS
 62
    7
 10
2.6566700571390243
 20
-6.912752506701537
 40
0.1278121581188567
 50
94.316027519885949
 51
168.05582281153374
  0
ARC
  8
_0-0_
  6
CONTINUOUS
 62
    7
 10
2.2728372043964384
 20
-6.0061379782577689
 40
0.462625522052409
 50
93.690468061901555
 51
180.00475247008825
  0
ARC
  8
_0-0_
  6
CONTINUOUS
 62
    7
 10
2.3458305548644489
 20
-6.125882064046138
 40
0.5488324266630323
 50
167.40196526053836
 51
249.8189540713899
  0
ARC
  8
_0-0_
  6
CONTINUOUS
 62
    7
 10
2.004337467872773
 20
-5.9655148695398879
 40
0.6924289023808764
 50
282.69361944138331
 51
307.99873244251046
  0
ARC
  8
_0-0_
  6
CONTINUOUS
 62
    7
 10
2.67796892854264
 20
-3.8156561334806156
 40
1.2608476215394111
 50
82.697813710875337
 51
145.35519944648334
  0
ARC
  8
_0-0_
  6
CONTINUOUS
 62
    7
 10
2.6737435072802498
 20
-3.5519280112775533
 40
1.1280395817957773
 50
156.32026712234159
 51
229.66896646149269
  0
ARC
  8
_0-0_
  6
CONTINUOUS
 62
    7
 10
2.2921245176800369
 20
-3.3473768952285923
 40
1.1200567983145022
 50
251.87437507963716
 51
299.18070522367594
  0
ARC
  8
_0-0_
  6
CONTINUOUS
 62
    7
 10
2.9632707462965584
 20
-4.3517349855034126
 40
0.1278121581188567
 50
94.316027519885949
 51
168.05582281153374
  0
ARC
  8
_0-0_
  6
CONTINUOUS
 62
    7
 10
2.5794378935539726
 20
-3.4451204570596445
 40
0.462625522052409
 50
93.690468061901555
 51
180.00475247008825
  0
ARC
  8
_0-0_
  6
CONTINUOUS
 62
    7
 10
2.652431244021983
 20
-3.5648645428480137
 40
0.5488324266630323
 50
167.40196526053836
 51
249.8189540713899
  0
ARC
  8
_0-0_
  6
CONTINUOUS
 62
    7
 10
2.3109381570303071
 20
-3.4044973483417635
 40
0.6924289023808764
 50
282.69361944138331
 51
307.99873244251046
  0
ARC
  8
_0-0_
  6
CONTINUOUS
 62
    7
 10
4.6438204060820283
 20
-3.8156561334806156
 40
1.2608476215394111
 50
82.697813710875337
 51
145.35519944648334
  0
ARC
  8
_0-0_
  6
CONTINUOUS
 62
    7
 10
4.6395949848196381
 20
-3.5519280112775533
 40
1.1280395817957773
 50
156.32026712234159
 51
229.66896646149269
  0
ARC
  8
_0-0_
  6
CONTINUOUS
 62
    7
 10
4.2579759952194252
 20
-3.3473768952285923
 40
1.1200567983145022
 50
251.87437507963716
 51
299.18070522367594
  0
ARC
  8
_0-0_
  6
CONTINUOUS
 62
    7
 10
4.9291222238359467
 20
-4.3517349855034126
 40
0.1278121581188567
 50
94.316027519885949
 51
168.05582281153374
  0
ARC
  8
_0-0_
  6
CONTINUOUS
 62
    7
 10
4.5452893710933608
 20
-3.4451204570596445
 40
0.462625522052409
 50
93.690468061901555
 51
180.00475247008825
  0
ARC
  8
_0-0_
  6
CONTINUOUS
 62
    7
 10
4.6182827215613713
 20
-3.5648645428480137
 40
0.5488324266630323
 50
167.40196526053836
 51
249.8189540713899
  0
ARC
  8
_0-0_
  6
CONTINUOUS
 62
    7
 10
4.2767896345696954
 20
-3.4044973483417635
 40
0.6924289023808764
 50
282.69361944138331
 51
307.99873244251046
  0
ARC
  8
_0-0_
  6
CONTINUOUS
 62
    7
 10
6.50145987568348
 20
-3.5270907789794137
 40
1.2608476215394111
 50
82.697813710875337
 51
145.35519944648334
  0
ARC
  8
_0-0_
  6
CONTINUOUS
 62
    7
 10
6.4972344544210898
 20
-3.2633626567763514
 40
1.1280395817957773
 50
156.32026712234159
 51
229.66896646149269
  0
ARC
  8
_0-0_
  6
CONTINUOUS
 62
    7
 10
6.1156154648208769
 20
-3.0588115407273904
 40
1.1200567983145022
 50
251.87437507963716
 51
299.18070522367594
  0
ARC
  8
_0-0_
  6
CONTINUOUS
 62
    7
 10
6.7867616934373984
 20
-4.0631696310022107
 40
0.1278121581188567
 50
94.316027519885949
 51
168.05582281153374
  0
ARC
  8
_0-0_
  6
CONTINUOUS
 62
    7
 10
6.4029288406948126
 20
-3.1565551025584426
 40
0.462625522052409
 50
93.690468061901555
 51
180.00475247008825
  0
ARC
  8
_0-0_
  6
CONTINUOUS
 62
    7
 10
6.4759221911628231
 20
-3.2762991883468118
 40
0.5488324266630323
 50
167.40196526053836
 51
249.8189540713899
  0
ARC
  8
_0-0_
  6
CONTINUOUS
 62
    7
 10
6.1344291041711472
 20
-3.1159319938405616
 40
0.6924289023808764
 50
282.69361944138331
 51
307.99873244251046
  0
ARC
  8
_0-0_
  6
CONTINUOUS
 62
    7
 10
7.0966259193422161
 20
-0.5151898913731827
 40
1.2608476215394111
 50
82.697813710875337
 51
145.35519944648334
  0
ARC
  8
_0-0_
  6
CONTINUOUS
 62
    7
 10
7.0924004980798259
 20
-0.2514617691701204
 40
1.1280395817957773
 50
156.32026712234159
 51
229.66896646149269
  0
ARC
  8
_0-0_
  6
CONTINUOUS
 62
    7
 10
6.710781508479613
 20
-0.0469106531211593
 40
1.1200567983145022
 50
251.87437507963716
 51
299.18070522367594
  0
ARC
  8
_0-0_
  6
CONTINUOUS
 62
    7
 10
7.3819277370961345
 20
-1.0512687433959798
 40
0.1278121581188567
 50
94.316027519885949
 51
168.05582281153374
  0
ARC
  8
_0-0_
  6
CONTINUOUS
 62
    7
 10
6.9980948843535487
 20
-0.1446542149522116
 40
0.462625522052409
 50
93.690468061901555
 51
180.00475247008825
  0
ARC
  8
_0-0_
  6
CONTINUOUS
 62
    7
 10
7.0710882348215591
 20
-0.2643983007405807
 40
0.5488324266630323
 50
167.40196526053836
 51
249.8189540713899
  0
ARC
  8
_0-0_
  6
CONTINUOUS
 62
    7
 10
6.7295951478298832
 20
-0.1040311062343306
 40
0.6924289023808764
 50
282.69361944138331
 51
307.99873244251046
  0
ARC
  8
_0-0_
  6
CONTINUOUS
 62
    7
 10
3.5075943227335813
 20
-0.7857199112180524
 40
1.2608476215394111
 50
82.697813710875337
 51
145.35519944648334
  0
ARC
  8
_0-0_
  6
CONTINUOUS
 62
    7
 10
3.5033689014711911
 20
-0.5219917890149901
 40
1.1280395817957773
 50
156.32026712234159
 51
229.66896646149269
  0
ARC
  8
_0-0_
  6
CONTINUOUS
 62
    7
 10
3.1217499118709782
 20
-0.317440672966029
 40
1.1200567983145022
 50
251.87437507963716
 51
299.18070522367594
  0
ARC
  8
_0-0_
  6
CONTINUOUS
 62
    7
 10
3.7928961404874997
 20
-1.3217987632408494
 40
0.1278121581188567
 50
94.316027519885949
 51
168.05582281153374
  0
ARC
  8
_0-0_
  6
CONTINUOUS
 62
    7
 10
3.4090632877449139
 20
-0.4151842347970813
 40
0.462625522052409
 50
93.690468061901555
 51
180.00475247008825
  0
ARC
  8
_0-0_
  6
CONTINUOUS
 62
    7
 10
3.4820566382129243
 20
-0.5349283205854504
 40
0.5488324266630323
 50
167.40196526053836
 51
249.8189540713899
  0
ARC
  8
_0-0_
  6
CONTINUOUS
 62
    7
 10
3.1405635512212484
 20
-0.3745611260792003
 40
0.6924289023808764
 50
282.69361944138331
 51
307.99873244251046
  0
ARC
  8
_0-0_
  6
CONTINUOUS
 62
    7
 10
7.6557212936882877
 20
2.0458276298249274
 40
1.2608476215394111
 50
82.697813710875337
 51
145.35519944648334
  0
ARC
  8
_0-0_
  6
CONTINUOUS
 62
    7
 10
7.6514958724258975
 20
2.3095557520279897
 40
1.1280395817957773
 50
156.32026712234159
 51
229.66896646149269
  0
ARC
  8
_0-0_
  6
CONTINUOUS
 62
    7
 10
7.2698768828256846
 20
2.5141068680769507
 40
1.1200567983145022
 50
251.87437507963716
 51
299.18070522367594
  0
ARC
  8
_0-0_
  6
CONTINUOUS
 62
    7
 10
7.9410231114422061
 20
1.5097487778021303
 40
0.1278121581188567
 50
94.316027519885949
 51
168.05582281153374
  0
ARC
  8
_0-0_
  6
CONTINUOUS
 62
    7
 10
7.5571902586996202
 20
2.4163633062458985
 40
0.462625522052409
 50
93.690468061901555
 51
180.00475247008825
  0
ARC
  8
_0-0_
  6
CONTINUOUS
 62
    7
 10
7.6301836091676307
 20
2.2966192204575293
 40
0.5488324266630323
 50
167.40196526053836
 51
249.8189540713899
  0
ARC
  8
_0-0_
  6
CONTINUOUS
 62
    7
 10
7.2886905221759548
 20
2.4569864149637795
 40
0.6924289023808764
 50
282.69361944138331
 51
307.99873244251046
  0
ARC
  8
_0-0_
  6
CONTINUOUS
 62
    7
 10
4.0486543624233207
 20
1.9736862911996411
 40
1.2608476215394111
 50
82.697813710875337
 51
145.35519944648334
  0
ARC
  8
_0-0_
  6
CONTINUOUS
 62
    7
 10
4.0444289411609304
 20
2.2374144134027034
 40
1.1280395817957773
 50
156.32026712234159
 51
229.66896646149269
  0
ARC
  8
_0-0_
  6
CONTINUOUS
 62
    7
 10
3.6628099515607175
 20
2.4419655294516645
 40
1.1200567983145022
 50
251.87437507963716
 51
299.18070522367594
  0
ARC
  8
_0-0_
  6
CONTINUOUS
 62
    7
 10
4.333956180177239
 20
1.4376074391768441
 40
0.1278121581188567
 50
94.316027519885949
 51
168.05582281153374
  0
ARC
  8
_0-0_
  6
CONTINUOUS
 62
    7
 10
3.9501233274346532
 20
2.3442219676206122
 40
0.462625522052409
 50
93.690468061901555
 51
180.00475247008825
  0
ARC
  8
_0-0_
  6
CONTINUOUS
 62
    7
 10
4.0231166779026637
 20
2.224477881832243
 40
0.5488324266630323
 50
167.40196526053836
 51
249.8189540713899
  0
ARC
  8
_0-0_
  6
CONTINUOUS
 62
    7
 10
3.6816235909109878
 20
2.3848450763384932
 40
0.6924289023808764
 50
282.69361944138331
 51
307.99873244251046
  0
ARC
  8
_0-0_
  6
CONTINUOUS
 62
    7
 10
4.5716790674567278
 20
4.7511278282736527
 40
1.2608476215394111
 50
82.697813710875337
 51
145.35519944648334
  0
ARC
  8
_0-0_
  6
CONTINUOUS
 62
    7
 10
4.5674536461943376
 20
5.014855950476715
 40
1.1280395817957773
 50
156.32026712234159
 51
229.66896646149269
  0
ARC
  8
_0-0_
  6
CONTINUOUS
 62
    7
 10
4.1858346565941247
 20
5.219407066525676
 40
1.1200567983145022
 50
251.87437507963716
 51
299.18070522367594
  0
ARC
  8
_0-0_
  6
CONTINUOUS
 62
    7
 10
4.8569808852106462
 20
4.2150489762508556
 40
0.1278121581188567
 50
94.316027519885949
 51
168.05582281153374
  0
ARC
  8
_0-0_
  6
CONTINUOUS
 62
    7
 10
4.4731480324680604
 20
5.1216635046946237
 40
0.462625522052409
 50
93.690468061901555
 51
180.00475247008825
  0
ARC
  8
_0-0_
  6
CONTINUOUS
 62
    7
 10
4.5461413829360708
 20
5.0019194189062546
 40
0.5488324266630323
 50
167.40196526053836
 51
249.8189540713899
  0
ARC
  8
_0-0_
  6
CONTINUOUS
 62
    7
 10
4.2046482959443949
 20
5.1622866134125047
 40
0.6924289023808764
 50
282.69361944138331
 51
307.99873244251046
  0
ARC
  8
_0-0_
  6
CONTINUOUS
 62
    7
 10
6.465389206370844
 20
4.9855871788058721
 40
1.2608476215394111
 50
82.697813710875337
 51
145.35519944648334
  0
ARC
  8
_0-0_
  6
CONTINUOUS
 62
    7
 10
6.4611637851084538
 20
5.2493153010089344
 40
1.1280395817957773
 50
156.32026712234159
 51
229.66896646149269
  0
ARC
  8
_0-0_
  6
CONTINUOUS
 62
    7
 10
6.0795447955082409
 20
5.4538664170578954
 40
1.1200567983145022
 50
251.87437507963716
 51
299.18070522367594
  0
ARC
  8
_0-0_
  6
CONTINUOUS
 62
    7
 10
6.7506910241247624
 20
4.4495083267830751
 40
0.1278121581188567
 50
94.316027519885949
 51
168.05582281153374
  0
ARC
  8
_0-0_
  6
CONTINUOUS
 62
    7
 10
6.3668581713821766
 20
5.3561228552268432
 40
0.462625522052409
 50
93.690468061901555
 51
180.00475247008825
  0
ARC
  8
_0-0_
  6
CONTINUOUS
 62
    7
 10
6.4398515218501871
 20
5.236378769438474
 40
0.5488324266630323
 50
167.40196526053836
 51
249.8189540713899
  0
ARC
  8
_0-0_
  6
CONTINUOUS
 62
    7
 10
6.0983584348585111
 20
5.3967459639447242
 40
0.6924289023808764
 50
282.69361944138331
 51
307.99873244251046
  0
ARC
  8
_0-0_
  6
CONTINUOUS
 62
    7
 10
8.341064010628628
 20
5.0216578481185223
 40
1.2608476215394111
 50
82.697813710875337
 51
145.35519944648334
  0
ARC
  8
_0-0_
  6
CONTINUOUS
 62
    7
 10
8.3368385893662378
 20
5.2853859703215846
 40
1.1280395817957773
 50
156.32026712234159
 51
229.66896646149269
  0
ARC
  8
_0-0_
  6
CONTINUOUS
 62
    7
 10
7.9552195997660249
 20
5.4899370863705457
 40
1.1200567983145022
 50
251.87437507963716
 51
299.18070522367594
  0
ARC
  8
_0-0_
  6
CONTINUOUS
 62
    7
 10
8.6263658283825464
 20
4.4855789960957253
 40
0.1278121581188567
 50
94.316027519885949
 51
168.05582281153374
  0
ARC
  8
_0-0_
  6
CONTINUOUS
 62
    7
 10
8.2425329756399606
 20
5.3921935245394934
 40
0.462625522052409
 50
93.690468061901555
 51
180.00475247008825
  0
ARC
  8
_0-0_
  6
CONTINUOUS
 62
    7
 10
8.315526326107971
 20
5.2724494387511243
 40
0.5488324266630323
 50
167.40196526053836
 51
249.8189540713899
  0
ARC
  8
_0-0_
  6
CONTINUOUS
 62
    7
 10
7.9740332391162951
 20
5.4328166332573744
 40
0.6924289023808764
 50
282.69361944138331
 51
307.99873244251046
  0
ARC
  8
_0-0_
  6
CONTINUOUS
 62
    7
 10
5.1668451111154639
 20
7.6548167079419329
 40
1.2608476215394111
 50
82.697813710875337
 51
145.35519944648334
  0
ARC
  8
_0-0_
  6
CONTINUOUS
 62
    7
 10
5.1626196898530736
 20
7.9185448301449952
 40
1.1280395817957773
 50
156.32026712234159
 51
229.66896646149269
  0
ARC
  8
_0-0_
  6
CONTINUOUS
 62
    7
 10
4.7810007002528607
 20
8.1230959461939563
 40
1.1200567983145022
 50
251.87437507963716
 51
299.18070522367594
  0
ARC
  8
_0-0_
  6
CONTINUOUS
 62
    7
 10
5.4521469288693822
 20
7.1187378559191359
 40
0.1278121581188567
 50
94.316027519885949
 51
168.05582281153374
  0
ARC
  8
_0-0_
  6
CONTINUOUS
 62
    7
 10
5.0683140761267964
 20
8.025352384362904
 40
0.462625522052409
 50
93.690468061901555
 51
180.00475247008825
  0
ARC
  8
_0-0_
  6
CONTINUOUS
 62
    7
 10
5.1413074265948069
 20
7.9056082985745348
 40
0.5488324266630323
 50
167.40196526053836
 51
249.8189540713899
  0
ARC
  8
_0-0_
  6
CONTINUOUS
 62
    7
 10
4.799814339603131
 20
8.065975493080785
 40
0.6924289023808764
 50
282.69361944138331
 51
307.99873244251046
  0
ARC
  8
_0-0_
  6
CONTINUOUS
 62
    7
 10
6.9343079074352829
 20
7.2219686761901443
 40
1.2608476215394111
 50
82.697813710875337
 51
145.35519944648334
  0
ARC
  8
_0-0_
  6
CONTINUOUS
 62
    7
 10
6.9300824861728927
 20
7.4856967983932066
 40
1.1280395817957773
 50
156.32026712234159
 51
229.66896646149269
  0
ARC
  8
_0-0_
  6
CONTINUOUS
 62
    7
 10
6.5484634965726798
 20
7.6902479144421676
 40
1.1200567983145022
 50
251.87437507963716
 51
299.18070522367594
  0
ARC
  8
_0-0_
  6
CONTINUOUS
 62
    7
 10
7.2196097251892013
 20
6.6858898241673472
 40
0.1278121581188567
 50
94.316027519885949
 51
168.05582281153374
  0
ARC
  8
_0-0_
  6
CONTINUOUS
 62
    7
 10
6.8357768724466155
 20
7.5925043526111153
 40
0.462625522052409
 50
93.690468061901555
 51
180.00475247008825
  0
ARC
  8
_0-0_
  6
CONTINUOUS
 62
    7
 10
6.9087702229146259
 20
7.4727602668227462
 40
0.5488324266630323
 50
167.40196526053836
 51
249.8189540713899
  0
ARC
  8
_0-0_
  6
CONTINUOUS
 62
    7
 10
6.56727713592295
 20
7.6331274613289963
 40
0.6924289023808764
 50
282.69361944138331
 51
307.99873244251046
  0
ARC
  8
_0-0_
  6
CONTINUOUS
 62
    7
 10
8.7378413730677664
 20
8.0155234010684353
 40
1.2608476215394111
 50
82.697813710875337
 51
145.35519944648334
  0
ARC
  8
_0-0_
  6
CONTINUOUS
 62
    7
 10
8.7336159518053762
 20
8.2792515232714976
 40
1.1280395817957773
 50
156.32026712234159
 51
229.66896646149269
  0
ARC
  8
_0-0_
  6
CONTINUOUS
 62
    7
 10
8.3519969622051633
 20
8.4838026393204586
 40
1.1200567983145022
 50
251.87437507963716
 51
299.18070522367594
  0
ARC
  8
_0-0_
  6
CONTINUOUS
 62
    7
 10
9.0231431908216848
 20
7.4794445490456383
 40
0.1278121581188567
 50
94.316027519885949
 51
168.05582281153374
  0
ARC
  8
_0-0_
  6
CONTINUOUS
 62
    7
 10
8.639310338079099
 20
8.3860590774894064
 40
0.462625522052409
 50
93.690468061901555
 51
180.00475247008825
  0
ARC
  8
_0-0_
  6
CONTINUOUS
 62
    7
 10
8.7123036885471095
 20
8.2663149917010372
 40
0.5488324266630323
 50
167.40196526053836
 51
249.8189540713899
  0
ARC
  8
_0-0_
  6
CONTINUOUS
 62
    7
 10
8.3708106015554335
 20
8.4266821862072874
 40
0.6924289023808764
 50
282.69361944138331
 51
307.99873244251046
  0
ARC
  8
_0-0_
  6
CONTINUOUS
 62
    7
 10
5.834152493399472
 20
10.468328914328609
 40
1.2608476215394111
 50
82.697813710875337
 51
145.35519944648334
  0
ARC
  8
_0-0_
  6
CONTINUOUS
 62
    7
 10
5.8299270721370817
 20
10.732057036531671
 40
1.1280395817957773
 50
156.32026712234159
 51
229.66896646149269
  0
ARC
  8
_0-0_
  6
CONTINUOUS
 62
    7
 10
5.4483080825368688
 20
10.936608152580632
 40
1.1200567983145022
 50
251.87437507963716
 51
299.18070522367594
  0
ARC
  8
_0-0_
  6
CONTINUOUS
 62
    7
 10
6.1194543111533903
 20
9.9322500623058119
 40
0.1278121581188567
 50
94.316027519885949
 51
168.05582281153374
  0
ARC
  8
_0-0_
  6
CONTINUOUS
 62
    7
 10
5.7356214584108045
 20
10.83886459074958
 40
0.462625522052409
 50
93.690468061901555
 51
180.00475247008825
  0
ARC
  8
_0-0_
  6
CONTINUOUS
 62
    7
 10
5.808614808878815
 20
10.719120504961211
 40
0.5488324266630323
 50
167.40196526053836
 51
249.8189540713899
  0
ARC
  8
_0-0_
  6
CONTINUOUS
 62
    7
 10
5.4671217218871391
 20
10.879487699467461
 40
0.6924289023808764
 50
282.69361944138331
 51
307.99873244251046
  0
ARC
  8
_0-0_
  6
CONTINUOUS
 62
    7
 10
7.8541099749078569
 20
11.748837674927657
 40
1.2608476215394111
 50
82.697813710875337
 51
145.35519944648334
  0
ARC
  8
_0-0_
  6
CONTINUOUS
 62
    7
 10
7.8498845536454667
 20
12.012565797130719
 40
1.1280395817957773
 50
156.32026712234159
 51
229.66896646149269
  0
ARC
  8
_0-0_
  6
CONTINUOUS
 62
    7
 10
7.4682655640452538
 20
12.21711691317968
 40
1.1200567983145022
 50
251.87437507963716
 51
299.18070522367594
  0
ARC
  8
_0-0_
  6
CONTINUOUS
 62
    7
 10
8.1394117926617753
 20
11.21275882290486
 40
0.1278121581188567
 50
94.316027519885949
 51
168.05582281153374
  0
ARC
  8
_0-0_
  6
CONTINUOUS
 62
    7
 10
7.7555789399191895
 20
12.119373351348628
 40
0.462625522052409
 50
93.690468061901555
 51
180.00475247008825
  0
ARC
  8
_0-0_
  6
CONTINUOUS
 62
    7
 10
7.8285722903871999
 20
11.999629265560259
 40
0.5488324266630323
 50
167.40196526053836
 51
249.8189540713899
  0
ARC
  8
_0-0_
  6
CONTINUOUS
 62
    7
 10
7.487079203395524
 20
12.159996460066509
 40
0.6924289023808764
 50
282.69361944138331
 51
307.99873244251046
  0
ARC
  8
_0-0_
  6
CONTINUOUS
 62
    7
 10
9.4051487553517745
 20
10.720823599517146
 40
1.2608476215394111
 50
82.697813710875337
 51
145.35519944648334
  0
ARC
  8
_0-0_
  6
CONTINUOUS
 62
    7
 10
9.4009233340893843
 20
10.984551721720209
 40
1.1280395817957773
 50
156.32026712234159
 51
229.66896646149269
  0
ARC
  8
_0-0_
  6
CONTINUOUS
 62
    7
 10
9.0193043444891714
 20
11.18910283776917
 40
1.1200567983145022
 50
251.87437507963716
 51
299.18070522367594
  0
ARC
  8
_0-0_
  6
CONTINUOUS
 62
    7
 10
9.6904505731056929
 20
10.184744747494349
 40
0.1278121581188567
 50
94.316027519885949
 51
168.05582281153374
  0
ARC
  8
_0-0_
  6
CONTINUOUS
 62
    7
 10
9.3066177203631071
 20
11.091359275938117
 40
0.462625522052409
 50
93.690468061901555
 51
180.00475247008825
  0
ARC
  8
_0-0_
  6
CONTINUOUS
 62
    7
 10
9.3796110708311176
 20
10.971615190149748
 40
0.5488324266630323
 50
167.40196526053836
 51
249.8189540713899
  0
ARC
  8
_0-0_
  6
CONTINUOUS
 62
    7
 10
9.0381179838394416
 20
11.131982384655998
 40
0.6924289023808764
 50
282.69361944138331
 51
307.99873244251046
  0
ARC
  8
_0-0_
  6
CONTINUOUS
 62
    7
 10
9.9462087950415139
 20
13.949148502999279
 40
1.2608476215394111
 50
82.697813710875337
 51
145.35519944648334
  0
ARC
  8
_0-0_
  6
CONTINUOUS
 62
    7
 10
9.9419833737791237
 20
14.212876625202341
 40
1.1280395817957773
 50
156.32026712234159
 51
229.66896646149269
  0
ARC
  8
_0-0_
  6
CONTINUOUS
 62
    7
 10
9.5603643841789108
 20
14.417427741251302
 40
1.1200567983145022
 50
251.87437507963716
 51
299.18070522367594
  0
ARC
  8
_0-0_
  6
CONTINUOUS
 62
    7
 10
10.231510612795432
 20
13.413069650976482
 40
0.1278121581188567
 50
94.316027519885949
 51
168.05582281153374
  0
ARC
  8
_0-0_
  6
CONTINUOUS
 62
    7
 10
9.8476777600528465
 20
14.31968417942025
 40
0.462625522052409
 50
93.690468061901555
 51
180.00475247008825
  0
ARC
  8
_0-0_
  6
CONTINUOUS
 62
    7
 10
9.9206711105208569
 20
14.199940093631881
 40
0.5488324266630323
 50
167.40196526053836
 51
249.8189540713899
  0
ARC
  8
_0-0_
  6
CONTINUOUS
 62
    7
 10
9.579178023529181
 20
14.360307288138131
 40
0.6924289023808764
 50
282.69361944138331
 51
307.99873244251046
  0
ARC
  8
_0-0_
  6
CONTINUOUS
 62
    7
 10
8.521417357191865
 20
14.418067204063732
 40
1.2608476215394111
 50
82.697813710875337
 51
145.35519944648334
  0
ARC
  8
_0-0_
  6
CONTINUOUS
 62
    7
 10
8.5171919359294748
 20
14.681795326266794
 40
1.1280395817957773
 50
156.32026712234159
 51
229.66896646149269
  0
ARC
  8
_0-0_
  6
CONTINUOUS
 62
    7
 10
8.1355729463292619
 20
14.886346442315755
 40
1.1200567983145022
 50
251.87437507963716
 51
299.18070522367594
  0
ARC
  8
_0-0_
  6
CONTINUOUS
 62
    7
 10
8.8067191749457834
 20
13.881988352040935
 40
0.1278121581188567
 50
94.316027519885949
 51
168.05582281153374
  0
ARC
  8
_0-0_
  6
CONTINUOUS
 62
    7
 10
8.4228863222031976
 20
14.788602880484703
 40
0.462625522052409
 50
93.690468061901555
 51
180.00475247008825
  0
ARC
  8
_0-0_
  6
CONTINUOUS
 62
    7
 10
8.495879672671208
 20
14.668858794696334
 40
0.5488324266630323
 50
167.40196526053836
 51
249.8189540713899
  0
ARC
  8
_0-0_
  6
CONTINUOUS
 62
    7
 10
8.1543865856795321
 20
14.829225989202584
 40
0.6924289023808764
 50
282.69361944138331
 51
307.99873244251046
  0
ARC
  8
_0-0_
  6
CONTINUOUS
 62
    7
 10
6.3030711944639108
 20
13.20969978208997
 40
1.2608476215394111
 50
82.697813710875337
 51
145.35519944648334
  0
ARC
  8
_0-0_
  6
CONTINUOUS
 62
    7
 10
6.2988457732015206
 20
13.473427904293032
 40
1.1280395817957773
 50
156.32026712234159
 51
229.66896646149269
  0
ARC
  8
_0-0_
  6
CONTINUOUS
 62
    7
 10
5.9172267836013077
 20
13.677979020341994
 40
1.1200567983145022
 50
251.87437507963716
 51
299.18070522367594
  0
ARC
  8
_0-0_
  6
CONTINUOUS
 62
    7
 10
6.5883730122178292
 20
12.673620930067173
 40
0.1278121581188567
 50
94.316027519885949
 51
168.05582281153374
  0
ARC
  8
_0-0_
  6
CONTINUOUS
 62
    7
 10
6.2045401594752434
 20
13.580235458510941
 40
0.462625522052409
 50
93.690468061901555
 51
180.00475247008825
  0
ARC
  8
_0-0_
  6
CONTINUOUS
 62
    7
 10
6.2775335099432539
 20
13.460491372722572
 40
0.5488324266630323
 50
167.40196526053836
 51
249.8189540713899
  0
ARC
  8
_0-0_
  6
CONTINUOUS
 62
    7
 10
5.936040422951578
 20
13.620858567228822
 40
0.6924289023808764
 50
282.69361944138331
 51
307.99873244251046
  0
ARC
  8
_0-0_
  6
CONTINUOUS
 62
    7
 10
-1.202873670246305
 20
13.109289053433116
 40
0.9456357161545583
 50
82.697813710875337
 51
145.35519944648334
  0
ARC
  8
_0-0_
  6
CONTINUOUS
 62
    7
 10
-1.2060427361931261
 20
13.307085145085409
 40
0.846029686346833
 50
156.32026712234159
 51
229.66896646149269
  0
ARC
  8
_0-0_
  6
CONTINUOUS
 62
    7
 10
-1.4922569783932715
 20
13.460498482122134
 40
0.8400425987358767
 50
251.87437507963716
 51
299.18070522367594
  0
ARC
  8
_0-0_
  6
CONTINUOUS
 62
    7
 10
-0.9888973069308804
 20
12.707229914416004
 40
0.0958591185891426
 50
94.316027519885949
 51
168.05582281153374
  0
ARC
  8
_0-0_
  6
CONTINUOUS
 62
    7
 10
-1.2767719464878269
 20
13.387190810748834
 40
0.3469691415393068
 50
93.690468061901555
 51
180.00475247008825
  0
ARC
  8
_0-0_
  6
CONTINUOUS
 62
    7
 10
-1.2220269336368119
 20
13.297382746407564
 40
0.4116243199972742
 50
167.40196526053836
 51
249.8189540713899
  0
ARC
  8
_0-0_
  6
CONTINUOUS
 62
    7
 10
-1.4781467488805617
 20
13.417658142287252
 40
0.5193216767856573
 50
282.69361944138331
 51
307.99873244251046
  0
ARC
  8
_0-0_
  6
CONTINUOUS
 62
    7
 10
0.3120944408849766
 20
12.171451651304224
 40
0.9456357161545583
 50
82.697813710875337
 51
145.35519944648334
  0
ARC
  8
_0-0_
  6
CONTINUOUS
 62
    7
 10
0.3089253749381555
 20
12.369247742956517
 40
0.846029686346833
 50
156.32026712234159
 51
229.66896646149269
  0
ARC
  8
_0-0_
  6
CONTINUOUS
 62
    7
 10
0.02271113273801
 20
12.522661079993242
 40
0.8400425987358767
 50
251.87437507963716
 51
299.18070522367594
  0
ARC
  8
_0-0_
  6
CONTINUOUS
 62
    7
 10
0.5260708042004012
 20
11.769392512287112
 40
0.0958591185891426
 50
94.316027519885949
 51
168.05582281153374
  0
ARC
  8
_0-0_
  6
CONTINUOUS
 62
    7
 10
0.2381961646434547
 20
12.449353408619942
 40
0.3469691415393068
 50
93.690468061901555
 51
180.00475247008825
  0
ARC
  8
_0-0_
  6
CONTINUOUS
 62
    7
 10
0.2929411774944696
 20
12.359545344278672
 40
0.4116243199972742
 50
167.40196526053836
 51
249.8189540713899
  0
ARC
  8
_0-0_
  6
CONTINUOUS
 62
    7
 10
0.0368213622507198
 20
12.47982074015836
 40
0.5193216767856573
 50
282.69361944138331
 51
307.99873244251046
  0
ARC
  8
_0-0_
  6
CONTINUOUS
 62
    7
 10
-3.078548474504089
 20
11.900921631459354
 40
0.9456357161545583
 50
82.697813710875337
 51
145.35519944648334
  0
ARC
  8
_0-0_
  6
CONTINUOUS
 62
    7
 10
-3.0817175404509101
 20
12.098717723111648
 40
0.846029686346833
 50
156.32026712234159
 51
229.66896646149269
  0
ARC
  8
_0-0_
  6
CONTINUOUS
 62
    7
 10
-3.3679317826510555
 20
12.252131060148372
 40
0.8400425987358767
 50
251.87437507963716
 51
299.18070522367594
  0
ARC
  8
_0-0_
  6
CONTINUOUS
 62
    7
 10
-2.8645721111886644
 20
11.498862492442242
 40
0.0958591185891426
 50
94.316027519885949
 51
168.05582281153374
  0
ARC
  8
_0-0_
  6
CONTINUOUS
 62
    7
 10
-3.1524467507456109
 20
12.178823388775072
 40
0.3469691415393068
 50
93.690468061901555
 51
180.00475247008825
  0
ARC
  8
_0-0_
  6
CONTINUOUS
 62
    7
 10
-3.0977017378945959
 20
12.089015324433802
 40
0.4116243199972742
 50
167.40196526053836
 51
249.8189540713899
  0
ARC
  8
_0-0_
  6
CONTINUOUS
 62
    7
 10
-3.3538215531383457
 20
12.20929072031349
 40
0.5193216767856573
 50
282.69361944138331
 51
307.99873244251046
  0
ARC
  8
_0-0_
  6
CONTINUOUS
 62
    7
 10
-3.6556791835064644
 20
8.9431267478220917
 40
0.9456357161545583
 50
82.697813710875337
 51
145.35519944648334
  0
ARC
  8
_0-0_
  6
CONTINUOUS
 62
    7
 10
-3.6588482494532855
 20
9.1409228394743849
 40
0.846029686346833
 50
156.32026712234159
 51
229.66896646149269
  0
ARC
  8
_0-0_
  6
CONTINUOUS
 62
    7
 10
-3.9450624916534309
 20
9.2943361765111092
 40
0.8400425987358767
 50
251.87437507963716
 51
299.18070522367594
  0
ARC
  8
_0-0_
  6
CONTINUOUS
 62
    7
 10
-3.4417028201910398
 20
8.5410676088049797
 40
0.0958591185891426
 50
94.316027519885949
 51
168.05582281153374
  0
ARC
  8
_0-0_
  6
CONTINUOUS
 62
    7
 10
-3.7295774597479863
 20
9.2210285051378094
 40
0.3469691415393068
 50
93.690468061901555
 51
180.00475247008825
  0
ARC
  8
_0-0_
  6
CONTINUOUS
 62
    7
 10
-3.6748324468969713
 20
9.1312204407965396
 40
0.4116243199972742
 50
167.40196526053836
 51
249.8189540713899
  0
ARC
  8
_0-0_
  6
CONTINUOUS
 62
    7
 10
-3.9309522621407211
 20
9.2514958366762272
 40
0.5193216767856573
 50
282.69361944138331
 51
307.99873244251046
  0
ARC
  8
_0-0_
  6
CONTINUOUS
 62
    7
 10
-1.6898277059670761
 20
10.403988854984405
 40
0.9456357161545583
 50
82.697813710875337
 51
145.35519944648334
  0
ARC
  8
_0-0_
  6
CONTINUOUS
 62
    7
 10
-1.6929967719138972
 20
10.601784946636698
 40
0.846029686346833
 50
156.32026712234159
 51
229.66896646149269
  0
ARC
  8
_0-0_
  6
CONTINUOUS
 62
    7
 10
-1.9792110141140427
 20
10.755198283673423
 40
0.8400425987358767
 50
251.87437507963716
 51
299.18070522367594
  0
ARC
  8
_0-0_
  6
CONTINUOUS
 62
    7
 10
-1.4758513426516515
 20
10.001929715967293
 40
0.0958591185891426
 50
94.316027519885949
 51
168.05582281153374
  0
ARC
  8
_0-0_
  6
CONTINUOUS
 62
    7
 10
-1.763725982208598
 20
10.681890612300123
 40
0.3469691415393068
 50
93.690468061901555
 51
180.00475247008825
  0
ARC
  8
_0-0_
  6
CONTINUOUS
 62
    7
 10
-1.708980969357583
 20
10.592082547958853
 40
0.4116243199972742
 50
167.40196526053836
 51
249.8189540713899
  0
ARC
  8
_0-0_
  6
CONTINUOUS
 62
    7
 10
-1.9651007846013329
 20
10.712357943838541
 40
0.5193216767856573
 50
282.69361944138331
 51
307.99873244251046
  0
ARC
  8
_0-0_
  6
CONTINUOUS
 62
    7
 10
-0.4453896146806641
 20
9.3940101142302126
 40
0.9456357161545583
 50
82.697813710875337
 51
145.35519944648334
  0
ARC
  8
_0-0_
  6
CONTINUOUS
 62
    7
 10
-0.4485586806274852
 20
9.5918062058825058
 40
0.846029686346833
 50
156.32026712234159
 51
229.66896646149269
  0
ARC
  8
_0-0_
  6
CONTINUOUS
 62
    7
 10
-0.7347729228276307
 20
9.7452195429192301
 40
0.8400425987358767
 50
251.87437507963716
 51
299.18070522367594
  0
ARC
  8
_0-0_
  6
CONTINUOUS
 62
    7
 10
-0.2314132513652396
 20
8.9919509752131006
 40
0.0958591185891426
 50
94.316027519885949
 51
168.05582281153374
  0
ARC
  8
_0-0_
  6
CONTINUOUS
 62
    7
 10
-0.519287890922186
 20
9.6719118715459302
 40
0.3469691415393068
 50
93.690468061901555
 51
180.00475247008825
  0
ARC
  8
_0-0_
  6
CONTINUOUS
 62
    7
 10
-0.4645428780711711
 20
9.5821038072046605
 40
0.4116243199972742
 50
167.40196526053836
 51
249.8189540713899
  0
ARC
  8
_0-0_
  6
CONTINUOUS
 62
    7
 10
-0.7206626933149209
 20
9.7023792030843481
 40
0.5193216767856573
 50
282.69361944138331
 51
307.99873244251046
  0
ARC
  8
_0-0_
  6
CONTINUOUS
 62
    7
 10
-1.0044849890267358
 20
6.796921923719438
 40
0.9456357161545583
 50
82.697813710875337
 51
145.35519944648334
  0
ARC
  8
_0-0_
  6
CONTINUOUS
 62
    7
 10
-1.0076540549735569
 20
6.9947180153717312
 40
0.846029686346833
 50
156.32026712234159
 51
229.66896646149269
  0
ARC
  8
_0-0_
  6
CONTINUOUS
 62
    7
 10
-1.2938682971737023
 20
7.1481313524084555
 40
0.8400425987358767
 50
251.87437507963716
 51
299.18070522367594
  0
ARC
  8
_0-0_
  6
CONTINUOUS
 62
    7
 10
-0.7905086257113112
 20
6.3948627847023261
 40
0.0958591185891426
 50
94.316027519885949
 51
168.05582281153374
  0
ARC
  8
_0-0_
  6
CONTINUOUS
 62
    7
 10
-1.0783832652682577
 20
7.0748236810351557
 40
0.3469691415393068
 50
93.690468061901555
 51
180.00475247008825
  0
ARC
  8
_0-0_
  6
CONTINUOUS
 62
    7
 10
-1.0236382524172427
 20
6.9850156166938859
 40
0.4116243199972742
 50
167.40196526053836
 51
249.8189540713899
  0
ARC
  8
_0-0_
  6
CONTINUOUS
 62
    7
 10
-1.2797580676609925
 20
7.1052910125735735
 40
0.5193216767856573
 50
282.69361944138331
 51
307.99873244251046
  0
ARC
  8
_0-0_
  6
CONTINUOUS
 62
    7
 10
-2.4292764268763847
 20
6.4903212345619181
 40
0.9456357161545583
 50
82.697813710875337
 51
145.35519944648334
  0
ARC
  8
_0-0_
  6
CONTINUOUS
 62
    7
 10
-2.4324454928232058
 20
6.6881173262142113
 40
0.846029686346833
 50
156.32026712234159
 51
229.66896646149269
  0
ARC
  8
_0-0_
  6
CONTINUOUS
 62
    7
 10
-2.7186597350233512
 20
6.8415306632509356
 40
0.8400425987358767
 50
251.87437507963716
 51
299.18070522367594
  0
ARC
  8
_0-0_
  6
CONTINUOUS
 62
    7
 10
-2.2153000635609601
 20
6.0882620955448061
 40
0.0958591185891426
 50
94.316027519885949
 51
168.05582281153374
  0
ARC
  8
_0-0_
  6
CONTINUOUS
 62
    7
 10
-2.5031747031179066
 20
6.7682229918776358
 40
0.3469691415393068
 50
93.690468061901555
 51
180.00475247008825
  0
ARC
  8
_0-0_
  6
CONTINUOUS
 62
    7
 10
-2.4484296902668916
 20
6.678414927536366
 40
0.4116243199972742
 50
167.40196526053836
 51
249.8189540713899
  0
ARC
  8
_0-0_
  6
CONTINUOUS
 62
    7
 10
-2.7045495055106414
 20
6.7986903234160536
 40
0.5193216767856573
 50
282.69361944138331
 51
307.99873244251046
  0
ARC
  8
_0-0_
  6
CONTINUOUS
 62
    7
 10
-3.9262092033513625
 20
6.5804979078435508
 40
0.9456357161545583
 50
82.697813710875337
 51
145.35519944648334
  0
ARC
  8
_0-0_
  6
CONTINUOUS
 62
    7
 10
-3.9293782692981836
 20
6.778293999495844
 40
0.846029686346833
 50
156.32026712234159
 51
229.66896646149269
  0
ARC
  8
_0-0_
  6
CONTINUOUS
 62
    7
 10
-4.215592511498329
 20
6.9317073365325683
 40
0.8400425987358767
 50
251.87437507963716
 51
299.18070522367594
  0
ARC
  8
_0-0_
  6
CONTINUOUS
 62
    7
 10
-3.7122328400359379
 20
6.1784387688264388
 40
0.0958591185891426
 50
94.316027519885949
 51
168.05582281153374
  0
ARC
  8
_0-0_
  6
CONTINUOUS
 62
    7
 10
-4.0001074795928844
 20
6.8583996651592685
 40
0.3469691415393068
 50
93.690468061901555
 51
180.00475247008825
  0
ARC
  8
_0-0_
  6
CONTINUOUS
 62
    7
 10
-3.9453624667418694
 20
6.7685916008179987
 40
0.4116243199972742
 50
167.40196526053836
 51
249.8189540713899
  0
ARC
  8
_0-0_
  6
CONTINUOUS
 62
    7
 10
-4.2014822819856192
 20
6.8888669966976863
 40
0.5193216767856573
 50
282.69361944138331
 51
307.99873244251046
  0
ARC
  8
_0-0_
  6
CONTINUOUS
 62
    7
 10
-1.4553683554348424
 20
4.073586390614409
 40
0.9456357161545583
 50
82.697813710875337
 51
145.35519944648334
  0
ARC
  8
_0-0_
  6
CONTINUOUS
 62
    7
 10
-1.4585374213816635
 20
4.2713824822667021
 40
0.846029686346833
 50
156.32026712234159
 51
229.66896646149269
  0
ARC
  8
_0-0_
  6
CONTINUOUS
 62
    7
 10
-1.744751663581809
 20
4.4247958193034265
 40
0.8400425987358767
 50
251.87437507963716
 51
299.18070522367594
  0
ARC
  8
_0-0_
  6
CONTINUOUS
 62
    7
 10
-1.2413919921194179
 20
3.671527251597297
 40
0.0958591185891426
 50
94.316027519885949
 51
168.05582281153374
  0
ARC
  8
_0-0_
  6
CONTINUOUS
 62
    7
 10
-1.5292666316763643
 20
4.3514881479301266
 40
0.3469691415393068
 50
93.690468061901555
 51
180.00475247008825
  0
ARC
  8
_0-0_
  6
CONTINUOUS
 62
    7
 10
-1.4745216188253494
 20
4.2616800835888569
 40
0.4116243199972742
 50
167.40196526053836
 51
249.8189540713899
  0
ARC
  8
_0-0_
  6
CONTINUOUS
 62
    7
 10
-1.7306414340690992
 20
4.3819554794685445
 40
0.5193216767856573
 50
282.69361944138331
 51
307.99873244251046
  0
ARC
  8
_0-0_
  6
CONTINUOUS
 62
    7
 10
-2.9162304625971558
 20
4.1457277292397094
 40
0.9456357161545583
 50
82.697813710875337
 51
145.35519944648334
  0
ARC
  8
_0-0_
  6
CONTINUOUS
 62
    7
 10
-2.9193995285439769
 20
4.3435238208920026
 40
0.846029686346833
 50
156.32026712234159
 51
229.66896646149269
  0
ARC
  8
_0-0_
  6
CONTINUOUS
 62
    7
 10
-3.2056137707441223
 20
4.4969371579287269
 40
0.8400425987358767
 50
251.87437507963716
 51
299.18070522367594
  0
ARC
  8
_0-0_
  6
CONTINUOUS
 62
    7
 10
-2.7022540992817312
 20
3.7436685902225975
 40
0.0958591185891426
 50
94.316027519885949
 51
168.05582281153374
  0
ARC
  8
_0-0_
  6
CONTINUOUS
 62
    7
 10
-2.9901287388386777
 20
4.4236294865554271
 40
0.3469691415393068
 50
93.690468061901555
 51
180.00475247008825
  0
ARC
  8
_0-0_
  6
CONTINUOUS
 62
    7
 10
-2.9353837259876627
 20
4.3338214222141573
 40
0.4116243199972742
 50
167.40196526053836
 51
249.8189540713899
  0
ARC
  8
_0-0_
  6
CONTINUOUS
 62
    7
 10
-3.1915035412314126
 20
4.4540968180938449
 40
0.5193216767856573
 50
282.69361944138331
 51
307.99873244251046
  0
ARC
  8
_0-0_
  6
CONTINUOUS
 62
    7
 10
-4.5935165856353706
 20
3.9653743826764583
 40
0.9456357161545583
 50
82.697813710875337
 51
145.35519944648334
  0
ARC
  8
_0-0_
  6
CONTINUOUS
 62
    7
 10
-4.5966856515821917
 20
4.1631704743287514
 40
0.846029686346833
 50
156.32026712234159
 51
229.66896646149269
  0
ARC
  8
_0-0_
  6
CONTINUOUS
 62
    7
 10
-4.8828998937823371
 20
4.3165838113654758
 40
0.8400425987358767
 50
251.87437507963716
 51
299.18070522367594
  0
ARC
  8
_0-0_
  6
CONTINUOUS
 62
    7
 10
-4.379540222319946
 20
3.5633152436593463
 40
0.0958591185891426
 50
94.316027519885949
 51
168.05582281153374
  0
ARC
  8
_0-0_
  6
CONTINUOUS
 62
    7
 10
-4.6674148618768925
 20
4.2432761399921759
 40
0.3469691415393068
 50
93.690468061901555
 51
180.00475247008825
  0
ARC
  8
_0-0_
  6
CONTINUOUS
 62
    7
 10
-4.6126698490258775
 20
4.1534680756509061
 40
0.4116243199972742
 50
167.40196526053836
 51
249.8189540713899
  0
ARC
  8
_0-0_
  6
CONTINUOUS
 62
    7
 10
-4.8687896642696273
 20
4.2737434715305938
 40
0.5193216767856573
 50
282.69361944138331
 51
307.99873244251046
  0
ARC
  8
_0-0_
  6
CONTINUOUS
 62
    7
 10
-5.1345766253251099
 20
1.4404275307909842
 40
0.9456357161545583
 50
82.697813710875337
 51
145.35519944648334
  0
ARC
  8
_0-0_
  6
CONTINUOUS
 62
    7
 10
-5.137745691271931
 20
1.6382236224432773
 40
0.846029686346833
 50
156.32026712234159
 51
229.66896646149269
  0
ARC
  8
_0-0_
  6
CONTINUOUS
 62
    7
 10
-5.4239599334720765
 20
1.7916369594800017
 40
0.8400425987358767
 50
251.87437507963716
 51
299.18070522367594
  0
ARC
  8
_0-0_
  6
CONTINUOUS
 62
    7
 10
-4.9206002620096854
 20
1.0383683917738722
 40
0.0958591185891426
 50
94.316027519885949
 51
168.05582281153374
  0
ARC
  8
_0-0_
  6
CONTINUOUS
 62
    7
 10
-5.2084749015666318
 20
1.7183292881067018
 40
0.3469691415393068
 50
93.690468061901555
 51
180.00475247008825
  0
ARC
  8
_0-0_
  6
CONTINUOUS
 62
    7
 10
-5.1537298887156169
 20
1.6285212237654321
 40
0.4116243199972742
 50
167.40196526053836
 51
249.8189540713899
  0
ARC
  8
_0-0_
  6
CONTINUOUS
 62
    7
 10
-5.4098497039593667
 20
1.7487966196451197
 40
0.5193216767856573
 50
282.69361944138331
 51
307.99873244251046
  0
ARC
  8
_0-0_
  6
CONTINUOUS
 62
    7
 10
-2.122675737718879
 20
1.4584628654473164
 40
0.9456357161545583
 50
82.697813710875337
 51
145.35519944648334
  0
ARC
  8
_0-0_
  6
CONTINUOUS
 62
    7
 10
-2.1258448036657001
 20
1.6562589570996096
 40
0.846029686346833
 50
156.32026712234159
 51
229.66896646149269
  0
ARC
  8
_0-0_
  6
CONTINUOUS
 62
    7
 10
-2.4120590458658455
 20
1.8096722941363339
 40
0.8400425987358767
 50
251.87437507963716
 51
299.18070522367594
  0
ARC
  8
_0-0_
  6
CONTINUOUS
 62
    7
 10
-1.9086993744034544
 20
1.0564037264302044
 40
0.0958591185891426
 50
94.316027519885949
 51
168.05582281153374
  0
ARC
  8
_0-0_
  6
CONTINUOUS
 62
    7
 10
-2.1965740139604009
 20
1.736364622763034
 40
0.3469691415393068
 50
93.690468061901555
 51
180.00475247008825
  0
ARC
  8
_0-0_
  6
CONTINUOUS
 62
    7
 10
-2.1418290011093859
 20
1.6465565584217643
 40
0.4116243199972742
 50
167.40196526053836
 51
249.8189540713899
  0
ARC
  8
_0-0_
  6
CONTINUOUS
 62
    7
 10
-2.3979488163531357
 20
1.7668319543014519
 40
0.5193216767856573
 50
282.69361944138331
 51
307.99873244251046
  0
ARC
  8
_0-0_
  6
CONTINUOUS
 62
    7
 10
-2.6457004427522861
 20
-1.3911200102519956
 40
0.9456357161545583
 50
82.697813710875337
 51
145.35519944648334
  0
ARC
  8
_0-0_
  6
CONTINUOUS
 62
    7
 10
-2.6488695086991072
 20
-1.1933239185997024
 40
0.846029686346833
 50
156.32026712234159
 51
229.66896646149269
  0
ARC
  8
_0-0_
  6
CONTINUOUS
 62
    7
 10
-2.9350837508992527
 20
-1.0399105815629781
 40
0.8400425987358767
 50
251.87437507963716
 51
299.18070522367594
  0
ARC
  8
_0-0_
  6
CONTINUOUS
 62
    7
 10
-2.4317240794368615
 20
-1.7931791492691076
 40
0.0958591185891426
 50
94.316027519885949
 51
168.05582281153374
  0
ARC
  8
_0-0_
  6
CONTINUOUS
 62
    7
 10
-2.719598718993808
 20
-1.113218252936278
 40
0.3469691415393068
 50
93.690468061901555
 51
180.00475247008825
  0
ARC
  8
_0-0_
  6
CONTINUOUS
 62
    7
 10
-2.664853706142793
 20
-1.2030263172775477
 40
0.4116243199972742
 50
167.40196526053836
 51
249.8189540713899
  0
ARC
  8
_0-0_
  6
CONTINUOUS
 62
    7
 10
-2.9209735213865429
 20
-1.0827509213978601
 40
0.5193216767856573
 50
282.69361944138331
 51
307.99873244251046
  0
ARC
  8
_0-0_
  6
CONTINUOUS
 62
    7
 10
-5.8920606808907507
 20
-1.3189786716267093
 40
0.9456357161545583
 50
82.697813710875337
 51
145.35519944648334
  0
ARC
  8
_0-0_
  6
CONTINUOUS
 62
    7
 10
-5.8952297468375718
 20
-1.1211825799744162
 40
0.846029686346833
 50
156.32026712234159
 51
229.66896646149269
  0
ARC
  8
_0-0_
  6
CONTINUOUS
 62
    7
 10
-6.1814439890377173
 20
-0.9677692429376918
 40
0.8400425987358767
 50
251.87437507963716
 51
299.18070522367594
  0
ARC
  8
_0-0_
  6
CONTINUOUS
 62
    7
 10
-5.6780843175753262
 20
-1.7210378106438213
 40
0.0958591185891426
 50
94.316027519885949
 51
168.05582281153374
  0
ARC
  8
_0-0_
  6
CONTINUOUS
 62
    7
 10
-5.9659589571322726
 20
-1.0410769143109917
 40
0.3469691415393068
 50
93.690468061901555
 51
180.00475247008825
  0
ARC
  8
_0-0_
  6
CONTINUOUS
 62
    7
 10
-5.9112139442812577
 20
-1.1308849786522615
 40
0.4116243199972742
 50
167.40196526053836
 51
249.8189540713899
  0
ARC
  8
_0-0_
  6
CONTINUOUS
 62
    7
 10
-6.1673337595250075
 20
-1.0106095827725738
 40
0.5193216767856573
 50
282.69361944138331
 51
307.99873244251046
  0
ARC
  8
_0-0_
  6
CONTINUOUS
 62
    7
 10
-6.4872267245494584
 20
-3.9521375314501199
 40
0.9456357161545583
 50
82.697813710875337
 51
145.35519944648334
  0
ARC
  8
_0-0_
  6
CONTINUOUS
 62
    7
 10
-6.4903957904962795
 20
-3.7543414397978268
 40
0.846029686346833
 50
156.32026712234159
 51
229.66896646149269
  0
ARC
  8
_0-0_
  6
CONTINUOUS
 62
    7
 10
-6.7766100326964249
 20
-3.6009281027611024
 40
0.8400425987358767
 50
251.87437507963716
 51
299.18070522367594
  0
ARC
  8
_0-0_
  6
CONTINUOUS
 62
    7
 10
-6.2732503612340338
 20
-4.3541966704672319
 40
0.0958591185891426
 50
94.316027519885949
 51
168.05582281153374
  0
ARC
  8
_0-0_
  6
CONTINUOUS
 62
    7
 10
-6.5611250007909803
 20
-3.6742357741344023
 40
0.3469691415393068
 50
93.690468061901555
 51
180.00475247008825
  0
ARC
  8
_0-0_
  6
CONTINUOUS
 62
    7
 10
-6.5063799879399653
 20
-3.764043838475672
 40
0.4116243199972742
 50
167.40196526053836
 51
249.8189540713899
  0
ARC
  8
_0-0_
  6
CONTINUOUS
 62
    7
 10
-6.7624998031837151
 20
-3.6437684425959844
 40
0.5193216767856573
 50
282.69361944138331
 51
307.99873244251046
  0
ARC
  8
_0-0_
  6
CONTINUOUS
 62
    7
 10
-4.6656579242606711
 20
-4.0242788700754204
 40
0.9456357161545583
 50
82.697813710875337
 51
145.35519944648334
  0
ARC
  8
_0-0_
  6
CONTINUOUS
 62
    7
 10
-4.6688269902074921
 20
-3.8264827784231272
 40
0.846029686346833
 50
156.32026712234159
 51
229.66896646149269
  0
ARC
  8
_0-0_
  6
CONTINUOUS
 62
    7
 10
-4.9550412324076376
 20
-3.6730694413864029
 40
0.8400425987358767
 50
251.87437507963716
 51
299.18070522367594
  0
ARC
  8
_0-0_
  6
CONTINUOUS
 62
    7
 10
-4.4516815609452465
 20
-4.4263380090925324
 40
0.0958591185891426
 50
94.316027519885949
 51
168.05582281153374
  0
ARC
  8
_0-0_
  6
CONTINUOUS
 62
    7
 10
-4.739556200502193
 20
-3.7463771127597028
 40
0.3469691415393068
 50
93.690468061901555
 51
180.00475247008825
  0
ARC
  8
_0-0_
  6
CONTINUOUS
 62
    7
 10
-4.684811187651178
 20
-3.8361851771009725
 40
0.4116243199972742
 50
167.40196526053836
 51
249.8189540713899
  0
ARC
  8
_0-0_
  6
CONTINUOUS
 62
    7
 10
-4.9409310028949278
 20
-3.7159097812212849
 40
0.5193216767856573
 50
282.69361944138331
 51
307.99873244251046
  0
ARC
  8
_0-0_
  6
CONTINUOUS
 62
    7
 10
-3.1867604824420255
 20
-3.8799961928248194
 40
0.9456357161545583
 50
82.697813710875337
 51
145.35519944648334
  0
ARC
  8
_0-0_
  6
CONTINUOUS
 62
    7
 10
-3.1899295483888466
 20
-3.6822001011725263
 40
0.846029686346833
 50
156.32026712234159
 51
229.66896646149269
  0
ARC
  8
_0-0_
  6
CONTINUOUS
 62
    7
 10
-3.476143790588992
 20
-3.5287867641358019
 40
0.8400425987358767
 50
251.87437507963716
 51
299.18070522367594
  0
ARC
  8
_0-0_
  6
CONTINUOUS
 62
    7
 10
-2.9727841191266009
 20
-4.2820553318419314
 40
0.0958591185891426
 50
94.316027519885949
 51
168.05582281153374
  0
ARC
  8
_0-0_
  6
CONTINUOUS
 62
    7
 10
-3.2606587586835474
 20
-3.6020944355091018
 40
0.3469691415393068
 50
93.690468061901555
 51
180.00475247008825
  0
ARC
  8
_0-0_
  6
CONTINUOUS
 62
    7
 10
-3.2059137458325324
 20
-3.6919024998503716
 40
0.4116243199972742
 50
167.40196526053836
 51
249.8189540713899
  0
ARC
  8
_0-0_
  6
CONTINUOUS
 62
    7
 10
-3.4620335610762822
 20
-3.5716271039706839
 40
0.5193216767856573
 50
282.69361944138331
 51
307.99873244251046
  0
ARC
  8
_0-0_
  6
CONTINUOUS
 62
    7
 10
-3.7638911914444293
 20
-6.6213670605861807
 40
0.9456357161545583
 50
82.697813710875337
 51
145.35519944648334
  0
ARC
  8
_0-0_
  6
CONTINUOUS
 62
    7
 10
-3.7670602573912504
 20
-6.4235709689338876
 40
0.846029686346833
 50
156.32026712234159
 51
229.66896646149269
  0
ARC
  8
_0-0_
  6
CONTINUOUS
 62
    7
 10
-4.0532744995913959
 20
-6.2701576318971632
 40
0.8400425987358767
 50
251.87437507963716
 51
299.18070522367594
  0
ARC
  8
_0-0_
  6
CONTINUOUS
 62
    7
 10
-3.5499148281290047
 20
-7.0234261996032927
 40
0.0958591185891426
 50
94.316027519885949
 51
168.05582281153374
  0
ARC
  8
_0-0_
  6
CONTINUOUS
 62
    7
 10
-3.8377894676859512
 20
-6.3434653032704631
 40
0.3469691415393068
 50
93.690468061901555
 51
180.00475247008825
  0
ARC
  8
_0-0_
  6
CONTINUOUS
 62
    7
 10
-3.7830444548349362
 20
-6.4332733676117329
 40
0.4116243199972742
 50
167.40196526053836
 51
249.8189540713899
  0
ARC
  8
_0-0_
  6
CONTINUOUS
 62
    7
 10
-4.0391642700786861
 20
-6.3129979717320452
 40
0.5193216767856573
 50
282.69361944138331
 51
307.99873244251046
  0
ARC
  8
_0-0_
  6
CONTINUOUS
 62
    7
 10
-5.2968946372320431
 20
-6.4410137140229438
 40
0.9456357161545583
 50
82.697813710875337
 51
145.35519944648334
  0
ARC
  8
_0-0_
  6
CONTINUOUS
 62
    7
 10
-5.3000637031788642
 20
-6.2432176223706506
 40
0.846029686346833
 50
156.32026712234159
 51
229.66896646149269
  0
ARC
  8
_0-0_
  6
CONTINUOUS
 62
    7
 10
-5.5862779453790097
 20
-6.0898042853339263
 40
0.8400425987358767
 50
251.87437507963716
 51
299.18070522367594
  0
ARC
  8
_0-0_
  6
CONTINUOUS
 62
    7
 10
-5.0829182739166185
 20
-6.8430728530400557
 40
0.0958591185891426
 50
94.316027519885949
 51
168.05582281153374
  0
ARC
  8
_0-0_
  6
CONTINUOUS
 62
    7
 10
-5.370792913473565
 20
-6.1631119567072261
 40
0.3469691415393068
 50
93.690468061901555
 51
180.00475247008825
  0
ARC
  8
_0-0_
  6
CONTINUOUS
 62
    7
 10
-5.3160479006225501
 20
-6.2529200210484959
 40
0.4116243199972742
 50
167.40196526053836
 51
249.8189540713899
  0
ARC
  8
_0-0_
  6
CONTINUOUS
 62
    7
 10
-5.5721677158662999
 20
-6.1326446251688083
 40
0.5193216767856573
 50
282.69361944138331
 51
307.99873244251046
  0
ARC
  8
_0-0_
  6
CONTINUOUS
 62
    7
 10
-6.9741807602702295
 20
-6.639402395242513
 40
0.9456357161545583
 50
82.697813710875337
 51
145.35519944648334
  0
ARC
  8
_0-0_
  6
CONTINUOUS
 62
    7
 10
-6.9773498262170506
 20
-6.4416063035902198
 40
0.846029686346833
 50
156.32026712234159
 51
229.66896646149269
  0
ARC
  8
_0-0_
  6
CONTINUOUS
 62
    7
 10
-7.263564068417196
 20
-6.2881929665534955
 40
0.8400425987358767
 50
251.87437507963716
 51
299.18070522367594
  0
ARC
  8
_0-0_
  6
CONTINUOUS
 62
    7
 10
-6.7602043969548049
 20
-7.041461534259625
 40
0.0958591185891426
 50
94.316027519885949
 51
168.05582281153374
  0
ARC
  8
_0-0_
  6
CONTINUOUS
 62
    7
 10
-7.0480790365117514
 20
-6.3615006379267953
 40
0.3469691415393068
 50
93.690468061901555
 51
180.00475247008825
  0
ARC
  8
_0-0_
  6
CONTINUOUS
 62
    7
 10
-6.9933340236607364
 20
-6.4513087022680651
 40
0.4116243199972742
 50
167.40196526053836
 51
249.8189540713899
  0
ARC
  8
_0-0_
  6
CONTINUOUS
 62
    7
 10
-7.2494538389044862
 20
-6.3310333063883775
 40
0.5193216767856573
 50
282.69361944138331
 51
307.99873244251046
  0
ARC
  8
_0-0_
  6
CONTINUOUS
 62
    7
 10
-7.4791701306473328
 20
-9.3086319243785738
 40
0.9456357161545583
 50
82.697813710875337
 51
145.35519944648334
  0
ARC
  8
_0-0_
  6
CONTINUOUS
 62
    7
 10
-7.4823391965941539
 20
-9.1108358327262806
 40
0.846029686346833
 50
156.32026712234159
 51
229.66896646149269
  0
ARC
  8
_0-0_
  6
CONTINUOUS
 62
    7
 10
-7.7685534387942994
 20
-8.9574224956895563
 40
0.8400425987358767
 50
251.87437507963716
 51
299.18070522367594
  0
ARC
  8
_0-0_
  6
CONTINUOUS
 62
    7
 10
-7.2651937673319082
 20
-9.7106910633956858
 40
0.0958591185891426
 50
94.316027519885949
 51
168.05582281153374
  0
ARC
  8
_0-0_
  6
CONTINUOUS
 62
    7
 10
-7.5530684068888547
 20
-9.0307301670628561
 40
0.3469691415393068
 50
93.690468061901555
 51
180.00475247008825
  0
ARC
  8
_0-0_
  6
CONTINUOUS
 62
    7
 10
-7.4983233940378398
 20
-9.1205382314041259
 40
0.4116243199972742
 50
167.40196526053836
 51
249.8189540713899
  0
ARC
  8
_0-0_
  6
CONTINUOUS
 62
    7
 10
-7.7544432092815896
 20
-9.0002628355244383
 40
0.5193216767856573
 50
282.69361944138331
 51
307.99873244251046
  0
ARC
  8
_0-0_
  6
CONTINUOUS
 62
    7
 10
-6.2166967047045887
 20
-10.516999346352335
 40
0.9456357161545583
 50
82.697813710875337
 51
145.35519944648334
  0
ARC
  8
_0-0_
  6
CONTINUOUS
 62
    7
 10
-6.2198657706514098
 20
-10.319203254700042
 40
0.846029686346833
 50
156.32026712234159
 51
229.66896646149269
  0
ARC
  8
_0-0_
  6
CONTINUOUS
 62
    7
 10
-6.5060800128515552
 20
-10.165789917663318
 40
0.8400425987358767
 50
251.87437507963716
 51
299.18070522367594
  0
ARC
  8
_0-0_
  6
CONTINUOUS
 62
    7
 10
-6.0027203413891641
 20
-10.919058485369447
 40
0.0958591185891426
 50
94.316027519885949
 51
168.05582281153374
  0
ARC
  8
_0-0_
  6
CONTINUOUS
 62
    7
 10
-6.2905949809461106
 20
-10.239097589036618
 40
0.3469691415393068
 50
93.690468061901555
 51
180.00475247008825
  0
ARC
  8
_0-0_
  6
CONTINUOUS
 62
    7
 10
-6.2358499680950956
 20
-10.328905653377888
 40
0.4116243199972742
 50
167.40196526053836
 51
249.8189540713899
  0
ARC
  8
_0-0_
  6
CONTINUOUS
 62
    7
 10
-6.4919697833388454
 20
-10.2086302574982
 40
0.5193216767856573
 50
282.69361944138331
 51
307.99873244251046
  0
ARC
  8
_0-0_
  6
CONTINUOUS
 62
    7
 10
-4.3410219004468047
 20
-9.3807732630038743
 40
0.9456357161545583
 50
82.697813710875337
 51
145.35519944648334
  0
ARC
  8
_0-0_
  6
CONTINUOUS
 62
    7
 10
-4.3441909663936258
 20
-9.1829771713515811
 40
0.846029686346833
 50
156.32026712234159
 51
229.66896646149269
  0
ARC
  8
_0-0_
  6
CONTINUOUS
 62
    7
 10
-4.6304052085937712
 20
-9.0295638343148568
 40
0.8400425987358767
 50
251.87437507963716
 51
299.18070522367594
  0
ARC
  8
_0-0_
  6
CONTINUOUS
 62
    7
 10
-4.1270455371313801
 20
-9.7828324020209863
 40
0.0958591185891426
 50
94.316027519885949
 51
168.05582281153374
  0
ARC
  8
_0-0_
  6
CONTINUOUS
 62
    7
 10
-4.4149201766883266
 20
-9.1028715056881566
 40
0.3469691415393068
 50
93.690468061901555
 51
180.00475247008825
  0
ARC
  8
_0-0_
  6
CONTINUOUS
 62
    7
 10
-4.3601751638373116
 20
-9.1926795700294264
 40
0.4116243199972742
 50
167.40196526053836
 51
249.8189540713899
  0
ARC
  8
_0-0_
  6
CONTINUOUS
 62
    7
 10
-4.6162949790810615
 20
-9.0724041741497388
 40
0.5193216767856573
 50
282.69361944138331
 51
307.99873244251046
  0
ARC
  8
_0-0_
  6
CONTINUOUS
 62
    7
 10
-4.9001172747928763
 20
-12.320532811984819
 40
0.9456357161545583
 50
82.697813710875337
 51
145.35519944648334
  0
ARC
  8
_0-0_
  6
CONTINUOUS
 62
    7
 10
-4.9032863407396974
 20
-12.122736720332526
 40
0.846029686346833
 50
156.32026712234159
 51
229.66896646149269
  0
ARC
  8
_0-0_
  6
CONTINUOUS
 62
    7
 10
-5.1895005829398428
 20
-11.969323383295801
 40
0.8400425987358767
 50
251.87437507963716
 51
299.18070522367594
  0
ARC
  8
_0-0_
  6
CONTINUOUS
 62
    7
 10
-4.6861409114774517
 20
-12.722591951001931
 40
0.0958591185891426
 50
94.316027519885949
 51
168.05582281153374
  0
ARC
  8
_0-0_
  6
CONTINUOUS
 62
    7
 10
-4.9740155510343982
 20
-12.042631054669101
 40
0.3469691415393068
 50
93.690468061901555
 51
180.00475247008825
  0
ARC
  8
_0-0_
  6
CONTINUOUS
 62
    7
 10
-4.9192705381833832
 20
-12.132439119010371
 40
0.4116243199972742
 50
167.40196526053836
 51
249.8189540713899
  0
ARC
  8
_0-0_
  6
CONTINUOUS
 62
    7
 10
-5.175390353427133
 20
-12.012163723130683
 40
0.5193216767856573
 50
282.69361944138331
 51
307.99873244251046
  0
ARC
  8
_0-0_
  6
CONTINUOUS
 62
    7
 10
-6.7938274137069925
 20
-13.348546887395329
 40
0.9456357161545583
 50
82.697813710875337
 51
145.35519944648334
  0
ARC
  8
_0-0_
  6
CONTINUOUS
 62
    7
 10
-6.7969964796538136
 20
-13.150750795743036
 40
0.846029686346833
 50
156.32026712234159
 51
229.66896646149269
  0
ARC
  8
_0-0_
  6
CONTINUOUS
 62
    7
 10
-7.0832107218539591
 20
-12.997337458706312
 40
0.8400425987358767
 50
251.87437507963716
 51
299.18070522367594
  0
ARC
  8
_0-0_
  6
CONTINUOUS
 62
    7
 10
-6.5798510503915679
 20
-13.750606026412441
 40
0.0958591185891426
 50
94.316027519885949
 51
168.05582281153374
  0
ARC
  8
_0-0_
  6
CONTINUOUS
 62
    7
 10
-6.8677256899485144
 20
-13.070645130079612
 40
0.3469691415393068
 50
93.690468061901555
 51
180.00475247008825
  0
ARC
  8
_0-0_
  6
CONTINUOUS
 62
    7
 10
-6.8129806770974994
 20
-13.160453194420882
 40
0.4116243199972742
 50
167.40196526053836
 51
249.8189540713899
  0
ARC
  8
_0-0_
  6
CONTINUOUS
 62
    7
 10
-7.0691004923412493
 20
-13.040177798541194
 40
0.5193216767856573
 50
282.69361944138331
 51
307.99873244251046
  0
ARC
  8
_0-0_
  6
CONTINUOUS
 62
    7
 10
-8.00219483568074
 20
-12.284462142672169
 40
0.9456357161545583
 50
82.697813710875337
 51
145.35519944648334
  0
ARC
  8
_0-0_
  6
CONTINUOUS
 62
    7
 10
-8.0053639016275611
 20
-12.086666051019876
 40
0.846029686346833
 50
156.32026712234159
 51
229.66896646149269
  0
ARC
  8
_0-0_
  6
CONTINUOUS
 62
    7
 10
-8.2915781438277065
 20
-11.933252713983151
 40
0.8400425987358767
 50
251.87437507963716
 51
299.18070522367594
  0
ARC
  8
_0-0_
  6
CONTINUOUS
 62
    7
 10
-7.7882184723653154
 20
-12.686521281689281
 40
0.0958591185891426
 50
94.316027519885949
 51
168.05582281153374
  0
ARC
  8
_0-0_
  6
CONTINUOUS
 62
    7
 10
-8.0760931119222619
 20
-12.006560385356451
 40
0.3469691415393068
 50
93.690468061901555
 51
180.00475247008825
  0
ARC
  8
_0-0_
  6
CONTINUOUS
 62
    7
 10
-8.0213480990712469
 20
-12.096368449697721
 40
0.4116243199972742
 50
167.40196526053836
 51
249.8189540713899
  0
ARC
  8
_0-0_
  6
CONTINUOUS
 62
    7
 10
-8.2774679143149967
 20
-11.976093053818033
 40
0.5193216767856573
 50
282.69361944138331
 51
307.99873244251046
  0
ARC
  8
_0-0_
  6
CONTINUOUS
 62
    7
 10
-13.070123874107992
 20
-11.977861453514649
 40
0.9456357161545583
 50
82.697813710875337
 51
145.35519944648334
  0
ARC
  8
_0-0_
  6
CONTINUOUS
 62
    7
 10
-13.073292940054813
 20
-11.780065361862356
 40
0.846029686346833
 50
156.32026712234159
 51
229.66896646149269
  0
ARC
  8
_0-0_
  6
CONTINUOUS
 62
    7
 10
-13.359507182254958
 20
-11.626652024825631
 40
0.8400425987358767
 50
251.87437507963716
 51
299.18070522367594
  0
ARC
  8
_0-0_
  6
CONTINUOUS
 62
    7
 10
-12.856147510792567
 20
-12.379920592531761
 40
0.0958591185891426
 50
94.316027519885949
 51
168.05582281153374
  0
ARC
  8
_0-0_
  6
CONTINUOUS
 62
    7
 10
-13.144022150349514
 20
-11.699959696198931
 40
0.3469691415393068
 50
93.690468061901555
 51
180.00475247008825
  0
ARC
  8
_0-0_
  6
CONTINUOUS
 62
    7
 10
-13.089277137498499
 20
-11.789767760540201
 40
0.4116243199972742
 50
167.40196526053836
 51
249.8189540713899
  0
ARC
  8
_0-0_
  6
CONTINUOUS
 62
    7
 10
-13.345396952742249
 20
-11.669492364660513
 40
0.5193216767856573
 50
282.69361944138331
 51
307.99873244251046
  0
ARC
  8
_0-0_
  6
CONTINUOUS
 62
    7
 10
-14.675268658520906
 20
-12.933734190299859
 40
0.9456357161545583
 50
82.697813710875337
 51
145.35519944648334
  0
ARC
  8
_0-0_
  6
CONTINUOUS
 62
    7
 10
-14.678437724467727
 20
-12.735938098647566
 40
0.846029686346833
 50
156.32026712234159
 51
229.66896646149269
  0
ARC
  8
_0-0_
  6
CONTINUOUS
 62
    7
 10
-14.964651966667873
 20
-12.582524761610841
 40
0.8400425987358767
 50
251.87437507963716
 51
299.18070522367594
  0
ARC
  8
_0-0_
  6
CONTINUOUS
 62
    7
 10
-14.461292295205482
 20
-13.335793329316971
 40
0.0958591185891426
 50
94.316027519885949
 51
168.05582281153374
  0
ARC
  8
_0-0_
  6
CONTINUOUS
 62
    7
 10
-14.749166934762428
 20
-12.655832432984141
 40
0.3469691415393068
 50
93.690468061901555
 51
180.00475247008825
  0
ARC
  8
_0-0_
  6
CONTINUOUS
 62
    7
 10
-14.694421921911413
 20
-12.745640497325411
 40
0.4116243199972742
 50
167.40196526053836
 51
249.8189540713899
  0
ARC
  8
_0-0_
  6
CONTINUOUS
 62
    7
 10
-14.950541737155163
 20
-12.625365101445723
 40
0.5193216767856573
 50
282.69361944138331
 51
307.99873244251046
  0
ARC
  8
_0-0_
  6
CONTINUOUS
 62
    7
 10
-15.847565411182018
 20
-11.851614110920366
 40
0.9456357161545583
 50
82.697813710875337
 51
145.35519944648334
  0
ARC
  8
_0-0_
  6
CONTINUOUS
 62
    7
 10
-15.850734477128839
 20
-11.653818019268073
 40
0.846029686346833
 50
156.32026712234159
 51
229.66896646149269
  0
ARC
  8
_0-0_
  6
CONTINUOUS
 62
    7
 10
-16.136948719328984
 20
-11.500404682231348
 40
0.8400425987358767
 50
251.87437507963716
 51
299.18070522367594
  0
ARC
  8
_0-0_
  6
CONTINUOUS
 62
    7
 10
-15.633589047866593
 20
-12.253673249937478
 40
0.0958591185891426
 50
94.316027519885949
 51
168.05582281153374
  0
ARC
  8
_0-0_
  6
CONTINUOUS
 62
    7
 10
-15.92146368742354
 20
-11.573712353604648
 40
0.3469691415393068
 50
93.690468061901555
 51
180.00475247008825
  0
ARC
  8
_0-0_
  6
CONTINUOUS
 62
    7
 10
-15.866718674572525
 20
-11.663520417945918
 40
0.4116243199972742
 50
167.40196526053836
 51
249.8189540713899
  0
ARC
  8
_0-0_
  6
CONTINUOUS
 62
    7
 10
-16.122838489816274
 20
-11.54324502206623
 40
0.5193216767856573
 50
282.69361944138331
 51
307.99873244251046
  0
ARC
  8
_0-0_
  6
CONTINUOUS
 62
    7
 10
-13.989925941580566
 20
-10.318610665132766
 40
0.9456357161545583
 50
82.697813710875337
 51
145.35519944648334
  0
ARC
  8
_0-0_
  6
CONTINUOUS
 62
    7
 10
-13.993095007527387
 20
-10.120814573480473
 40
0.846029686346833
 50
156.32026712234159
 51
229.66896646149269
  0
ARC
  8
_0-0_
  6
CONTINUOUS
 62
    7
 10
-14.279309249727532
 20
-9.9674012364437488
 40
0.8400425987358767
 50
251.87437507963716
 51
299.18070522367594
  0
ARC
  8
_0-0_
  6
CONTINUOUS
 62
    7
 10
-13.775949578265141
 20
-10.720669804149878
 40
0.0958591185891426
 50
94.316027519885949
 51
168.05582281153374
  0
ARC
  8
_0-0_
  6
CONTINUOUS
 62
    7
 10
-14.063824217822088
 20
-10.040708907817049
 40
0.3469691415393068
 50
93.690468061901555
 51
180.00475247008825
  0
ARC
  8
_0-0_
  6
CONTINUOUS
 62
    7
 10
-14.009079204971073
 20
-10.130516972158318
 40
0.4116243199972742
 50
167.40196526053836
 51
249.8189540713899
  0
ARC
  8
_0-0_
  6
CONTINUOUS
 62
    7
 10
-14.265199020214823
 20
-10.010241576278631
 40
0.5193216767856573
 50
282.69361944138331
 51
307.99873244251046
  0
ARC
  8
_0-0_
  6
CONTINUOUS
 62
    7
 10
-15.126152024929013
 20
-9.1643492471279728
 40
0.9456357161545583
 50
82.697813710875337
 51
145.35519944648334
  0
ARC
  8
_0-0_
  6
CONTINUOUS
 62
    7
 10
-15.129321090875834
 20
-8.9665531554756797
 40
0.846029686346833
 50
156.32026712234159
 51
229.66896646149269
  0
ARC
  8
_0-0_
  6
CONTINUOUS
 62
    7
 10
-15.415535333075979
 20
-8.8131398184389553
 40
0.8400425987358767
 50
251.87437507963716
 51
299.18070522367594
  0
ARC
  8
_0-0_
  6
CONTINUOUS
 62
    7
 10
-14.912175661613588
 20
-9.5664083861450848
 40
0.0958591185891426
 50
94.316027519885949
 51
168.05582281153374
  0
ARC
  8
_0-0_
  6
CONTINUOUS
 62
    7
 10
-15.200050301170535
 20
-8.8864474898122552
 40
0.3469691415393068
 50
93.690468061901555
 51
180.00475247008825
  0
ARC
  8
_0-0_
  6
CONTINUOUS
 62
    7
 10
-15.14530528831952
 20
-8.9762555541535249
 40
0.4116243199972742
 50
167.40196526053836
 51
249.8189540713899
  0
ARC
  8
_0-0_
  6
CONTINUOUS
 62
    7
 10
-15.40142510356327
 20
-8.8559801582738373
 40
0.5193216767856573
 50
282.69361944138331
 51
307.99873244251046
  0
ARC
  8
_0-0_
  6
CONTINUOUS
 62
    7
 10
-12.51102849976192
 20
-9.2725612550659235
 40
0.9456357161545583
 50
82.697813710875337
 51
145.35519944648334
  0
ARC
  8
_0-0_
  6
CONTINUOUS
 62
    7
 10
-12.514197565708741
 20
-9.0747651634136304
 40
0.846029686346833
 50
156.32026712234159
 51
229.66896646149269
  0
ARC
  8
_0-0_
  6
CONTINUOUS
 62
    7
 10
-12.800411807908887
 20
-8.921351826376906
 40
0.8400425987358767
 50
251.87437507963716
 51
299.18070522367594
  0
ARC
  8
_0-0_
  6
CONTINUOUS
 62
    7
 10
-12.297052136446496
 20
-9.6746203940830355
 40
0.0958591185891426
 50
94.316027519885949
 51
168.05582281153374
  0
ARC
  8
_0-0_
  6
CONTINUOUS
 62
    7
 10
-12.584926776003442
 20
-8.9946594977502059
 40
0.3469691415393068
 50
93.690468061901555
 51
180.00475247008825
  0
ARC
  8
_0-0_
  6
CONTINUOUS
 62
    7
 10
-12.530181763152427
 20
-9.0844675620914757
 40
0.4116243199972742
 50
167.40196526053836
 51
249.8189540713899
  0
ARC
  8
_0-0_
  6
CONTINUOUS
 62
    7
 10
-12.786301578396177
 20
-8.964192166211788
 40
0.5193216767856573
 50
282.69361944138331
 51
307.99873244251046
  0
ARC
  8
_0-0_
  6
CONTINUOUS
 62
    7
 10
-12.060145133353814
 20
-6.8738617457747324
 40
0.9456357161545583
 50
82.697813710875337
 51
145.35519944648334
  0
ARC
  8
_0-0_
  6
CONTINUOUS
 62
    7
 10
-12.063314199300635
 20
-6.6760656541224392
 40
0.846029686346833
 50
156.32026712234159
 51
229.66896646149269
  0
ARC
  8
_0-0_
  6
CONTINUOUS
 62
    7
 10
-12.34952844150078
 20
-6.5226523170857149
 40
0.8400425987358767
 50
251.87437507963716
 51
299.18070522367594
  0
ARC
  8
_0-0_
  6
CONTINUOUS
 62
    7
 10
-11.846168770038389
 20
-7.2759208847918444
 40
0.0958591185891426
 50
94.316027519885949
 51
168.05582281153374
  0
ARC
  8
_0-0_
  6
CONTINUOUS
 62
    7
 10
-12.134043409595336
 20
-6.5959599884590148
 40
0.3469691415393068
 50
93.690468061901555
 51
180.00475247008825
  0
ARC
  8
_0-0_
  6
CONTINUOUS
 62
    7
 10
-12.079298396744321
 20
-6.6857680528002845
 40
0.4116243199972742
 50
167.40196526053836
 51
249.8189540713899
  0
ARC
  8
_0-0_
  6
CONTINUOUS
 62
    7
 10
-12.33541821198807
 20
-6.5654926569205969
 40
0.5193216767856573
 50
282.69361944138331
 51
307.99873244251046
  0
ARC
  8
_0-0_
  6
CONTINUOUS
 62
    7
 10
-13.214406551358593
 20
-6.639402395242513
 40
0.9456357161545583
 50
82.697813710875337
 51
145.35519944648334
  0
ARC
  8
_0-0_
  6
CONTINUOUS
 62
    7
 10
-13.217575617305414
 20
-6.4416063035902198
 40
0.846029686346833
 50
156.32026712234159
 51
229.66896646149269
  0
ARC
  8
_0-0_
  6
CONTINUOUS
 62
    7
 10
-13.503789859505559
 20
-6.2881929665534955
 40
0.8400425987358767
 50
251.87437507963716
 51
299.18070522367594
  0
ARC
  8
_0-0_
  6
CONTINUOUS
 62
    7
 10
-13.000430188043168
 20
-7.041461534259625
 40
0.0958591185891426
 50
94.316027519885949
 51
168.05582281153374
  0
ARC
  8
_0-0_
  6
CONTINUOUS
 62
    7
 10
-13.288304827600115
 20
-6.3615006379267953
 40
0.3469691415393068
 50
93.690468061901555
 51
180.00475247008825
  0
ARC
  8
_0-0_
  6
CONTINUOUS
 62
    7
 10
-13.2335598147491
 20
-6.4513087022680651
 40
0.4116243199972742
 50
167.40196526053836
 51
249.8189540713899
  0
ARC
  8
_0-0_
  6
CONTINUOUS
 62
    7
 10
-13.48967962999285
 20
-6.3310333063883775
 40
0.5193216767856573
 50
282.69361944138331
 51
307.99873244251046
  0
ARC
  8
_0-0_
  6
CONTINUOUS
 62
    7
 10
-14.549021315926637
 20
-6.7295790685241315
 40
0.9456357161545583
 50
82.697813710875337
 51
145.35519944648334
  0
ARC
  8
_0-0_
  6
CONTINUOUS
 62
    7
 10
-14.552190381873459
 20
-6.5317829768718383
 40
0.846029686346833
 50
156.32026712234159
 51
229.66896646149269
  0
ARC
  8
_0-0_
  6
CONTINUOUS
 62
    7
 10
-14.838404624073604
 20
-6.378369639835114
 40
0.8400425987358767
 50
251.87437507963716
 51
299.18070522367594
  0
ARC
  8
_0-0_
  6
CONTINUOUS
 62
    7
 10
-14.335044952611213
 20
-7.1316382075412434
 40
0.0958591185891426
 50
94.316027519885949
 51
168.05582281153374
  0
ARC
  8
_0-0_
  6
CONTINUOUS
 62
    7
 10
-14.622919592168159
 20
-6.4516773112084138
 40
0.3469691415393068
 50
93.690468061901555
 51
180.00475247008825
  0
ARC
  8
_0-0_
  6
CONTINUOUS
 62
    7
 10
-14.568174579317144
 20
-6.5414853755496836
 40
0.4116243199972742
 50
167.40196526053836
 51
249.8189540713899
  0
ARC
  8
_0-0_
  6
CONTINUOUS
 62
    7
 10
-14.824294394560894
 20
-6.421209979669996
 40
0.5193216767856573
 50
282.69361944138331
 51
307.99873244251046
  0
ARC
  8
_0-0_
  6
CONTINUOUS
 62
    7
 10
-14.332597300050736
 20
-4.3128442245766081
 40
0.9456357161545583
 50
82.697813710875337
 51
145.35519944648334
  0
ARC
  8
_0-0_
  6
CONTINUOUS
 62
    7
 10
-14.335766365997557
 20
-4.1150481329243149
 40
0.846029686346833
 50
156.32026712234159
 51
229.66896646149269
  0
ARC
  8
_0-0_
  6
CONTINUOUS
 62
    7
 10
-14.621980608197703
 20
-3.9616347958875906
 40
0.8400425987358767
 50
251.87437507963716
 51
299.18070522367594
  0
ARC
  8
_0-0_
  6
CONTINUOUS
 62
    7
 10
-14.118620936735311
 20
-4.7149033635937201
 40
0.0958591185891426
 50
94.316027519885949
 51
168.05582281153374
  0
ARC
  8
_0-0_
  6
CONTINUOUS
 62
    7
 10
-14.406495576292258
 20
-4.0349424672608905
 40
0.3469691415393068
 50
93.690468061901555
 51
180.00475247008825
  0
ARC
  8
_0-0_
  6
CONTINUOUS
 62
    7
 10
-14.351750563441243
 20
-4.1247505316021602
 40
0.4116243199972742
 50
167.40196526053836
 51
249.8189540713899
  0
ARC
  8
_0-0_
  6
CONTINUOUS
 62
    7
 10
-14.607870378684993
 20
-4.0044751357224726
 40
0.5193216767856573
 50
282.69361944138331
 51
307.99873244251046
  0
ARC
  8
_0-0_
  6
CONTINUOUS
 62
    7
 10
-12.85369985823209
 20
-4.2587382206076398
 40
0.9456357161545583
 50
82.697813710875337
 51
145.35519944648334
  0
ARC
  8
_0-0_
  6
CONTINUOUS
 62
    7
 10
-12.856868924178912
 20
-4.0609421289553467
 40
0.846029686346833
 50
156.32026712234159
 51
229.66896646149269
  0
ARC
  8
_0-0_
  6
CONTINUOUS
 62
    7
 10
-13.143083166379057
 20
-3.9075287919186223
 40
0.8400425987358767
 50
251.87437507963716
 51
299.18070522367594
  0
ARC
  8
_0-0_
  6
CONTINUOUS
 62
    7
 10
-12.639723494916666
 20
-4.6607973596247518
 40
0.0958591185891426
 50
94.316027519885949
 51
168.05582281153374
  0
ARC
  8
_0-0_
  6
CONTINUOUS
 62
    7
 10
-12.927598134473612
 20
-3.9808364632919222
 40
0.3469691415393068
 50
93.690468061901555
 51
180.00475247008825
  0
ARC
  8
_0-0_
  6
CONTINUOUS
 62
    7
 10
-12.872853121622597
 20
-4.070644527633192
 40
0.4116243199972742
 50
167.40196526053836
 51
249.8189540713899
  0
ARC
  8
_0-0_
  6
CONTINUOUS
 62
    7
 10
-13.128972936866347
 20
-3.9503691317535043
 40
0.5193216767856573
 50
282.69361944138331
 51
307.99873244251046
  0
ARC
  8
_0-0_
  6
CONTINUOUS
 62
    7
 10
-11.338731747100809
 20
-4.1324908780133711
 40
0.9456357161545583
 50
82.697813710875337
 51
145.35519944648334
  0
ARC
  8
_0-0_
  6
CONTINUOUS
 62
    7
 10
-11.34190081304763
 20
-3.9346947863610779
 40
0.846029686346833
 50
156.32026712234159
 51
229.66896646149269
  0
ARC
  8
_0-0_
  6
CONTINUOUS
 62
    7
 10
-11.628115055247775
 20
-3.7812814493243536
 40
0.8400425987358767
 50
251.87437507963716
 51
299.18070522367594
  0
ARC
  8
_0-0_
  6
CONTINUOUS
 62
    7
 10
-11.124755383785384
 20
-4.5345500170304831
 40
0.0958591185891426
 50
94.316027519885949
 51
168.05582281153374
  0
ARC
  8
_0-0_
  6
CONTINUOUS
 62
    7
 10
-11.412630023342331
 20
-3.8545891206976535
 40
0.3469691415393068
 50
93.690468061901555
 51
180.00475247008825
  0
ARC
  8
_0-0_
  6
CONTINUOUS
 62
    7
 10
-11.357885010491316
 20
-3.9443971850389232
 40
0.4116243199972742
 50
167.40196526053836
 51
249.8189540713899
  0
ARC
  8
_0-0_
  6
CONTINUOUS
 62
    7
 10
-11.614004825735066
 20
-3.8241217891592356
 40
0.5193216767856573
 50
282.69361944138331
 51
307.99873244251046
  0
ARC
  8
_0-0_
  6
CONTINUOUS
 62
    7
 10
-10.671424364816801
 20
-1.6255793607842151
 40
0.9456357161545583
 50
82.697813710875337
 51
145.35519944648334
  0
ARC
  8
_0-0_
  6
CONTINUOUS
 62
    7
 10
-10.674593430763622
 20
-1.4277832691319219
 40
0.846029686346833
 50
156.32026712234159
 51
229.66896646149269
  0
ARC
  8
_0-0_
  6
CONTINUOUS
 62
    7
 10
-10.960807672963767
 20
-1.2743699320951976
 40
0.8400425987358767
 50
251.87437507963716
 51
299.18070522367594
  0
ARC
  8
_0-0_
  6
CONTINUOUS
 62
    7
 10
-10.457448001501376
 20
-2.027638499801327
 40
0.0958591185891426
 50
94.316027519885949
 51
168.05582281153374
  0
ARC
  8
_0-0_
  6
CONTINUOUS
 62
    7
 10
-10.745322641058323
 20
-1.3476776034684974
 40
0.3469691415393068
 50
93.690468061901555
 51
180.00475247008825
  0
ARC
  8
_0-0_
  6
CONTINUOUS
 62
    7
 10
-10.690577628207308
 20
-1.4374856678097672
 40
0.4116243199972742
 50
167.40196526053836
 51
249.8189540713899
  0
ARC
  8
_0-0_
  6
CONTINUOUS
 62
    7
 10
-10.946697443451058
 20
-1.3172102719300796
 40
0.5193216767856573
 50
282.69361944138331
 51
307.99873244251046
  0
ARC
  8
_0-0_
  6
CONTINUOUS
 62
    7
 10
-13.665289917766728
 20
-1.4812966835336283
 40
0.9456357161545583
 50
82.697813710875337
 51
145.35519944648334
  0
ARC
  8
_0-0_
  6
CONTINUOUS
 62
    7
 10
-13.668458983713549
 20
-1.2835005918813351
 40
0.846029686346833
 50
156.32026712234159
 51
229.66896646149269
  0
ARC
  8
_0-0_
  6
CONTINUOUS
 62
    7
 10
-13.954673225913695
 20
-1.1300872548446108
 40
0.8400425987358767
 50
251.87437507963716
 51
299.18070522367594
  0
ARC
  8
_0-0_
  6
CONTINUOUS
 62
    7
 10
-13.451313554451303
 20
-1.8833558225507403
 40
0.0958591185891426
 50
94.316027519885949
 51
168.05582281153374
  0
ARC
  8
_0-0_
  6
CONTINUOUS
 62
    7
 10
-13.73918819400825
 20
-1.2033949262179107
 40
0.3469691415393068
 50
93.690468061901555
 51
180.00475247008825
  0
ARC
  8
_0-0_
  6
CONTINUOUS
 62
    7
 10
-13.684443181157235
 20
-1.2932029905591804
 40
0.4116243199972742
 50
167.40196526053836
 51
249.8189540713899
  0
ARC
  8
_0-0_
  6
CONTINUOUS
 62
    7
 10
-13.940562996400985
 20
-1.1729275946794928
 40
0.5193216767856573
 50
282.69361944138331
 51
307.99873244251046
  0
ARC
  8
_0-0_
  6
CONTINUOUS
 62
    7
 10
-13.142265212733292
 20
1.061685503008178
 40
0.9456357161545583
 50
82.697813710875337
 51
145.35519944648334
  0
ARC
  8
_0-0_
  6
CONTINUOUS
 62
    7
 10
-13.145434278680113
 20
1.2594815946604712
 40
0.846029686346833
 50
156.32026712234159
 51
229.66896646149269
  0
ARC
  8
_0-0_
  6
CONTINUOUS
 62
    7
 10
-13.431648520880259
 20
1.4128949316971955
 40
0.8400425987358767
 50
251.87437507963716
 51
299.18070522367594
  0
ARC
  8
_0-0_
  6
CONTINUOUS
 62
    7
 10
-12.928288849417868
 20
0.659626363991066
 40
0.0958591185891426
 50
94.316027519885949
 51
168.05582281153374
  0
ARC
  8
_0-0_
  6
CONTINUOUS
 62
    7
 10
-13.216163488974814
 20
1.3395872603238956
 40
0.3469691415393068
 50
93.690468061901555
 51
180.00475247008825
  0
ARC
  8
_0-0_
  6
CONTINUOUS
 62
    7
 10
-13.161418476123799
 20
1.2497791959826259
 40
0.4116243199972742
 50
167.40196526053836
 51
249.8189540713899
  0
ARC
  8
_0-0_
  6
CONTINUOUS
 62
    7
 10
-13.417538291367549
 20
1.3700545918623135
 40
0.5193216767856573
 50
282.69361944138331
 51
307.99873244251046
  0
ARC
  8
_0-0_
  6
CONTINUOUS
 62
    7
 10
-10.364823675659295
 20
1.0075794990391955
 40
0.9456357161545583
 50
82.697813710875337
 51
145.35519944648334
  0
ARC
  8
_0-0_
  6
CONTINUOUS
 62
    7
 10
-10.367992741606116
 20
1.2053755906914887
 40
0.846029686346833
 50
156.32026712234159
 51
229.66896646149269
  0
ARC
  8
_0-0_
  6
CONTINUOUS
 62
    7
 10
-10.654206983806262
 20
1.358788927728213
 40
0.8400425987358767
 50
251.87437507963716
 51
299.18070522367594
  0
ARC
  8
_0-0_
  6
CONTINUOUS
 62
    7
 10
-10.15084731234387
 20
0.6055203600220835
 40
0.0958591185891426
 50
94.316027519885949
 51
168.05582281153374
  0
ARC
  8
_0-0_
  6
CONTINUOUS
 62
    7
 10
-10.438721951900817
 20
1.2854812563549132
 40
0.3469691415393068
 50
93.690468061901555
 51
180.00475247008825
  0
ARC
  8
_0-0_
  6
CONTINUOUS
 62
    7
 10
-10.383976939049802
 20
1.1956731920136434
 40
0.4116243199972742
 50
167.40196526053836
 51
249.8189540713899
  0
ARC
  8
_0-0_
  6
CONTINUOUS
 62
    7
 10
-10.640096754293552
 20
1.315948587893331
 40
0.5193216767856573
 50
282.69361944138331
 51
307.99873244251046
  0
ARC
  8
_0-0_
  6
CONTINUOUS
 62
    7
 10
-9.6614456240626225
 20
3.4603850122993691
 40
0.9456357161545583
 50
82.697813710875337
 51
145.35519944648334
  0
ARC
  8
_0-0_
  6
CONTINUOUS
 62
    7
 10
-9.6646146900094436
 20
3.6581811039516623
 40
0.846029686346833
 50
156.32026712234159
 51
229.66896646149269
  0
ARC
  8
_0-0_
  6
CONTINUOUS
 62
    7
 10
-9.9508289322095891
 20
3.8115944409883866
 40
0.8400425987358767
 50
251.87437507963716
 51
299.18070522367594
  0
ARC
  8
_0-0_
  6
CONTINUOUS
 62
    7
 10
-9.4474692607471979
 20
3.0583258732822571
 40
0.0958591185891426
 50
94.316027519885949
 51
168.05582281153374
  0
ARC
  8
_0-0_
  6
CONTINUOUS
 62
    7
 10
-9.7353439003041444
 20
3.7382867696150868
 40
0.3469691415393068
 50
93.690468061901555
 51
180.00475247008825
  0
ARC
  8
_0-0_
  6
CONTINUOUS
 62
    7
 10
-9.6805988874531295
 20
3.648478705273817
 40
0.4116243199972742
 50
167.40196526053836
 51
249.8189540713899
  0
ARC
  8
_0-0_
  6
CONTINUOUS
 62
    7
 10
-9.9367187026968793
 20
3.7687541011535046
 40
0.5193216767856573
 50
282.69361944138331
 51
307.99873244251046
  0
ARC
  8
_0-0_
  6
CONTINUOUS
 62
    7
 10
-12.384781157167652
 20
3.4423496776430369
 40
0.9456357161545583
 50
82.697813710875337
 51
145.35519944648334
  0
ARC
  8
_0-0_
  6
CONTINUOUS
 62
    7
 10
-12.387950223114473
 20
3.6401457692953301
 40
0.846029686346833
 50
156.32026712234159
 51
229.66896646149269
  0
ARC
  8
_0-0_
  6
CONTINUOUS
 62
    7
 10
-12.674164465314618
 20
3.7935591063320544
 40
0.8400425987358767
 50
251.87437507963716
 51
299.18070522367594
  0
ARC
  8
_0-0_
  6
CONTINUOUS
 62
    7
 10
-12.170804793852227
 20
3.0402905386259249
 40
0.0958591185891426
 50
94.316027519885949
 51
168.05582281153374
  0
ARC
  8
_0-0_
  6
CONTINUOUS
 62
    7
 10
-12.458679433409173
 20
3.7202514349587545
 40
0.3469691415393068
 50
93.690468061901555
 51
180.00475247008825
  0
ARC
  8
_0-0_
  6
CONTINUOUS
 62
    7
 10
-12.403934420558159
 20
3.6304433706174848
 40
0.4116243199972742
 50
167.40196526053836
 51
249.8189540713899
  0
ARC
  8
_0-0_
  6
CONTINUOUS
 62
    7
 10
-12.660054235801908
 20
3.7507187664971724
 40
0.5193216767856573
 50
282.69361944138331
 51
307.99873244251046
  0
ARC
  8
_0-0_
  6
CONTINUOUS
 62
    7
 10
-11.933897790759545
 20
5.4803424938077399
 40
0.9456357161545583
 50
82.697813710875337
 51
145.35519944648334
  0
ARC
  8
_0-0_
  6
CONTINUOUS
 62
    7
 10
-11.937066856706366
 20
5.678138585460033
 40
0.846029686346833
 50
156.32026712234159
 51
229.66896646149269
  0
ARC
  8
_0-0_
  6
CONTINUOUS
 62
    7
 10
-12.223281098906511
 20
5.8315519224967574
 40
0.8400425987358767
 50
251.87437507963716
 51
299.18070522367594
  0
ARC
  8
_0-0_
  6
CONTINUOUS
 62
    7
 10
-11.71992142744412
 20
5.0782833547906279
 40
0.0958591185891426
 50
94.316027519885949
 51
168.05582281153374
  0
ARC
  8
_0-0_
  6
CONTINUOUS
 62
    7
 10
-12.007796067001067
 20
5.7582442511234575
 40
0.3469691415393068
 50
93.690468061901555
 51
180.00475247008825
  0
ARC
  8
_0-0_
  6
CONTINUOUS
 62
    7
 10
-11.953051054150052
 20
5.6684361867821877
 40
0.4116243199972742
 50
167.40196526053836
 51
249.8189540713899
  0
ARC
  8
_0-0_
  6
CONTINUOUS
 62
    7
 10
-12.209170869393802
 20
5.7887115826618754
 40
0.5193216767856573
 50
282.69361944138331
 51
307.99873244251046
  0
ARC
  8
_0-0_
  6
CONTINUOUS
 62
    7
 10
-9.0843149150602187
 20
6.0755085374664617
 40
0.9456357161545583
 50
82.697813710875337
 51
145.35519944648334
  0
ARC
  8
_0-0_
  6
CONTINUOUS
 62
    7
 10
-9.0874839810070398
 20
6.2733046291187549
 40
0.846029686346833
 50
156.32026712234159
 51
229.66896646149269
  0
ARC
  8
_0-0_
  6
CONTINUOUS
 62
    7
 10
-9.3736982232071853
 20
6.4267179661554792
 40
0.8400425987358767
 50
251.87437507963716
 51
299.18070522367594
  0
ARC
  8
_0-0_
  6
CONTINUOUS
 62
    7
 10
-8.8703385517447941
 20
5.6734493984493497
 40
0.0958591185891426
 50
94.316027519885949
 51
168.05582281153374
  0
ARC
  8
_0-0_
  6
CONTINUOUS
 62
    7
 10
-9.1582131913017406
 20
6.3534102947821793
 40
0.3469691415393068
 50
93.690468061901555
 51
180.00475247008825
  0
ARC
  8
_0-0_
  6
CONTINUOUS
 62
    7
 10
-9.1034681784507256
 20
6.2636022304409096
 40
0.4116243199972742
 50
167.40196526053836
 51
249.8189540713899
  0
ARC
  8
_0-0_
  6
CONTINUOUS
 62
    7
 10
-9.3595879936944755
 20
6.3838776263205972
 40
0.5193216767856573
 50
282.69361944138331
 51
307.99873244251046
  0
ARC
  8
_0-0_
  6
CONTINUOUS
 62
    7
 10
-11.014095723286971
 20
3.3702083390177364
 40
0.9456357161545583
 50
82.697813710875337
 51
145.35519944648334
  0
ARC
  8
_0-0_
  6
CONTINUOUS
 62
    7
 10
-11.017264789233792
 20
3.5680044306700296
 40
0.846029686346833
 50
156.32026712234159
 51
229.66896646149269
  0
ARC
  8
_0-0_
  6
CONTINUOUS
 62
    7
 10
-11.303479031433938
 20
3.7214177677067539
 40
0.8400425987358767
 50
251.87437507963716
 51
299.18070522367594
  0
ARC
  8
_0-0_
  6
CONTINUOUS
 62
    7
 10
-10.800119359971546
 20
2.9681492000006244
 40
0.0958591185891426
 50
94.316027519885949
 51
168.05582281153374
  0
ARC
  8
_0-0_
  6
CONTINUOUS
 62
    7
 10
-11.087993999528493
 20
3.6481100963334541
 40
0.3469691415393068
 50
93.690468061901555
 51
180.00475247008825
  0
ARC
  8
_0-0_
  6
CONTINUOUS
 62
    7
 10
-11.033248986677478
 20
3.5583020319921843
 40
0.4116243199972742
 50
167.40196526053836
 51
249.8189540713899
  0
ARC
  8
_0-0_
  6
CONTINUOUS
 62
    7
 10
-11.289368801921228
 20
3.6785774278718719
 40
0.5193216767856573
 50
282.69361944138331
 51
307.99873244251046
  0
ARC
  8
_0-0_
  6
CONTINUOUS
 62
    7
 10
-10.635353695504165
 20
5.5885545017456906
 40
0.9456357161545583
 50
82.697813710875337
 51
145.35519944648334
  0
ARC
  8
_0-0_
  6
CONTINUOUS
 62
    7
 10
-10.638522761450986
 20
5.7863505933979837
 40
0.846029686346833
 50
156.32026712234159
 51
229.66896646149269
  0
ARC
  8
_0-0_
  6
CONTINUOUS
 62
    7
 10
-10.924737003651131
 20
5.9397639304347081
 40
0.8400425987358767
 50
251.87437507963716
 51
299.18070522367594
  0
ARC
  8
_0-0_
  6
CONTINUOUS
 62
    7
 10
-10.42137733218874
 20
5.1864953627285786
 40
0.0958591185891426
 50
94.316027519885949
 51
168.05582281153374
  0
ARC
  8
_0-0_
  6
CONTINUOUS
 62
    7
 10
-10.709251971745687
 20
5.8664562590614082
 40
0.3469691415393068
 50
93.690468061901555
 51
180.00475247008825
  0
ARC
  8
_0-0_
  6
CONTINUOUS
 62
    7
 10
-10.654506958894672
 20
5.7766481947201385
 40
0.4116243199972742
 50
167.40196526053836
 51
249.8189540713899
  0
ARC
  8
_0-0_
  6
CONTINUOUS
 62
    7
 10
-10.910626774138422
 20
5.8969235905998261
 40
0.5193216767856573
 50
282.69361944138331
 51
307.99873244251046
  0
ARC
  8
_0-0_
  6
CONTINUOUS
 62
    7
 10
-11.627297101602011
 20
8.0413600150058642
 40
0.9456357161545583
 50
82.697813710875337
 51
145.35519944648334
  0
ARC
  8
_0-0_
  6
CONTINUOUS
 62
    7
 10
-11.630466167548832
 20
8.2391561066581573
 40
0.846029686346833
 50
156.32026712234159
 51
229.66896646149269
  0
ARC
  8
_0-0_
  6
CONTINUOUS
 62
    7
 10
-11.916680409748977
 20
8.3925694436948817
 40
0.8400425987358767
 50
251.87437507963716
 51
299.18070522367594
  0
ARC
  8
_0-0_
  6
CONTINUOUS
 62
    7
 10
-11.413320738286586
 20
7.6393008759887522
 40
0.0958591185891426
 50
94.316027519885949
 51
168.05582281153374
  0
ARC
  8
_0-0_
  6
CONTINUOUS
 62
    7
 10
-11.701195377843533
 20
8.3192617723215818
 40
0.3469691415393068
 50
93.690468061901555
 51
180.00475247008825
  0
ARC
  8
_0-0_
  6
CONTINUOUS
 62
    7
 10
-11.646450364992518
 20
8.2294537079803121
 40
0.4116243199972742
 50
167.40196526053836
 51
249.8189540713899
  0
ARC
  8
_0-0_
  6
CONTINUOUS
 62
    7
 10
-11.902570180236268
 20
8.3497291038599997
 40
0.5193216767856573
 50
282.69361944138331
 51
307.99873244251046
  0
ARC
  8
_0-0_
  6
CONTINUOUS
 62
    7
 10
-8.5793255446831438
 20
8.4561727121013206
 40
0.9456357161545583
 50
82.697813710875337
 51
145.35519944648334
  0
ARC
  8
_0-0_
  6
CONTINUOUS
 62
    7
 10
-8.5824946106299649
 20
8.6539688037536138
 40
0.846029686346833
 50
156.32026712234159
 51
229.66896646149269
  0
ARC
  8
_0-0_
  6
CONTINUOUS
 62
    7
 10
-8.8687088528301103
 20
8.8073821407903381
 40
0.8400425987358767
 50
251.87437507963716
 51
299.18070522367594
  0
ARC
  8
_0-0_
  6
CONTINUOUS
 62
    7
 10
-8.3653491813677192
 20
8.0541135730842086
 40
0.0958591185891426
 50
94.316027519885949
 51
168.05582281153374
  0
ARC
  8
_0-0_
  6
CONTINUOUS
 62
    7
 10
-8.6532238209246657
 20
8.7340744694170382
 40
0.3469691415393068
 50
93.690468061901555
 51
180.00475247008825
  0
ARC
  8
_0-0_
  6
CONTINUOUS
 62
    7
 10
-8.5984788080736507
 20
8.6442664050757685
 40
0.4116243199972742
 50
167.40196526053836
 51
249.8189540713899
  0
ARC
  8
_0-0_
  6
CONTINUOUS
 62
    7
 10
-8.8545986233174006
 20
8.7645418009554561
 40
0.5193216767856573
 50
282.69361944138331
 51
307.99873244251046
  0
ARC
  8
_0-0_
  6
CONTINUOUS
 62
    7
 10
-9.6794809587189548
 20
9.3399041102612443
 40
0.9456357161545583
 50
82.697813710875337
 51
145.35519944648334
  0
ARC
  8
_0-0_
  6
CONTINUOUS
 62
    7
 10
-9.6826500246657758
 20
9.5377002019135375
 40
0.846029686346833
 50
156.32026712234159
 51
229.66896646149269
  0
ARC
  8
_0-0_
  6
CONTINUOUS
 62
    7
 10
-9.9688642668659213
 20
9.6911135389502618
 40
0.8400425987358767
 50
251.87437507963716
 51
299.18070522367594
  0
ARC
  8
_0-0_
  6
CONTINUOUS
 62
    7
 10
-9.4655045954035302
 20
8.9378449712441324
 40
0.0958591185891426
 50
94.316027519885949
 51
168.05582281153374
  0
ARC
  8
_0-0_
  6
CONTINUOUS
 62
    7
 10
-9.7533792349604767
 20
9.617805867576962
 40
0.3469691415393068
 50
93.690468061901555
 51
180.00475247008825
  0
ARC
  8
_0-0_
  6
CONTINUOUS
 62
    7
 10
-9.6986342221094617
 20
9.5279978032356922
 40
0.4116243199972742
 50
167.40196526053836
 51
249.8189540713899
  0
ARC
  8
_0-0_
  6
CONTINUOUS
 62
    7
 10
-9.9547540373532115
 20
9.6482731991153798
 40
0.5193216767856573
 50
282.69361944138331
 51
307.99873244251046
  0
ARC
  8
_0-0_
  6
CONTINUOUS
 62
    7
 10
-10.94195438466167
 20
10.602377536203974
 40
0.9456357161545583
 50
82.697813710875337
 51
145.35519944648334
  0
ARC
  8
_0-0_
  6
CONTINUOUS
 62
    7
 10
-10.945123450608492
 20
10.800173627856267
 40
0.846029686346833
 50
156.32026712234159
 51
229.66896646149269
  0
ARC
  8
_0-0_
  6
CONTINUOUS
 62
    7
 10
-11.231337692808637
 20
10.953586964892992
 40
0.8400425987358767
 50
251.87437507963716
 51
299.18070522367594
  0
ARC
  8
_0-0_
  6
CONTINUOUS
 62
    7
 10
-10.727978021346246
 20
10.200318397186862
 40
0.0958591185891426
 50
94.316027519885949
 51
168.05582281153374
  0
ARC
  8
_0-0_
  6
CONTINUOUS
 62
    7
 10
-11.015852660903192
 20
10.880279293519692
 40
0.3469691415393068
 50
93.690468061901555
 51
180.00475247008825
  0
ARC
  8
_0-0_
  6
CONTINUOUS
 62
    7
 10
-10.961107648052177
 20
10.790471229178422
 40
0.4116243199972742
 50
167.40196526053836
 51
249.8189540713899
  0
ARC
  8
_0-0_
  6
CONTINUOUS
 62
    7
 10
-11.217227463295927
 20
10.91074662505811
 40
0.5193216767856573
 50
282.69361944138331
 51
307.99873244251046
  0
ARC
  8
_0-0_
  6
CONTINUOUS
 62
    7
 10
-9.4630569428430533
 20
12.081274978022606
 40
0.9456357161545583
 50
82.697813710875337
 51
145.35519944648334
  0
ARC
  8
_0-0_
  6
CONTINUOUS
 62
    7
 10
-9.4662260087898744
 20
12.279071069674899
 40
0.846029686346833
 50
156.32026712234159
 51
229.66896646149269
  0
ARC
  8
_0-0_
  6
CONTINUOUS
 62
    7
 10
-9.7524402509900199
 20
12.432484406711623
 40
0.8400425987358767
 50
251.87437507963716
 51
299.18070522367594
  0
ARC
  8
_0-0_
  6
CONTINUOUS
 62
    7
 10
-9.2490805795276287
 20
11.679215839005494
 40
0.0958591185891426
 50
94.316027519885949
 51
168.05582281153374
  0
ARC
  8
_0-0_
  6
CONTINUOUS
 62
    7
 10
-9.5369552190845752
 20
12.359176735338323
 40
0.3469691415393068
 50
93.690468061901555
 51
180.00475247008825
  0
ARC
  8
_0-0_
  6
CONTINUOUS
 62
    7
 10
-9.4822102062335603
 20
12.269368670997054
 40
0.4116243199972742
 50
167.40196526053836
 51
249.8189540713899
  0
ARC
  8
_0-0_
  6
CONTINUOUS
 62
    7
 10
-9.7383300214773101
 20
12.389644066876741
 40
0.5193216767856573
 50
282.69361944138331
 51
307.99873244251046
  0
ARC
  8
_0-0_
  6
CONTINUOUS
 62
    7
 10
-8.1284421782750087
 20
11.107366906581063
 40
0.9456357161545583
 50
82.697813710875337
 51
145.35519944648334
  0
ARC
  8
_0-0_
  6
CONTINUOUS
 62
    7
 10
-8.1316112442218298
 20
11.305162998233357
 40
0.846029686346833
 50
156.32026712234159
 51
229.66896646149269
  0
ARC
  8
_0-0_
  6
CONTINUOUS
 62
    7
 10
-8.4178254864219753
 20
11.458576335270081
 40
0.8400425987358767
 50
251.87437507963716
 51
299.18070522367594
  0
ARC
  8
_0-0_
  6
CONTINUOUS
 62
    7
 10
-7.9144658149595841
 20
10.705307767563951
 40
0.0958591185891426
 50
94.316027519885949
 51
168.05582281153374
  0
ARC
  8
_0-0_
  6
CONTINUOUS
 62
    7
 10
-8.2023404545165306
 20
11.385268663896781
 40
0.3469691415393068
 50
93.690468061901555
 51
180.00475247008825
  0
ARC
  8
_0-0_
  6
CONTINUOUS
 62
    7
 10
-8.1475954416655156
 20
11.295460599555511
 40
0.4116243199972742
 50
167.40196526053836
 51
249.8189540713899
  0
ARC
  8
_0-0_
  6
CONTINUOUS
 62
    7
 10
-8.4037152569092655
 20
11.415735995435199
 40
0.5193216767856573
 50
282.69361944138331
 51
307.99873244251046
  0
ARC
  8
_0-0_
  6
CONTINUOUS
 62
    7
 10
-16.633725292571711
 20
10.85877286103306
 40
0.7880297634621318
 50
82.697813710875337
 51
145.35519944648334
  0
ARC
  8
_0-0_
  6
CONTINUOUS
 62
    7
 10
-16.636366180860733
 20
11.023602937409976
 40
0.7050247386223608
 50
156.32026712234159
 51
229.66896646149269
  0
ARC
  8
_0-0_
  6
CONTINUOUS
 62
    7
 10
-16.874878049360859
 20
11.151447384940582
 40
0.7000354989465638
 50
251.87437507963716
 51
299.18070522367594
  0
ARC
  8
_0-0_
  6
CONTINUOUS
 62
    7
 10
-16.455411656475547
 20
10.523723578518798
 40
0.0798825988242855
 50
94.316027519885949
 51
168.05582281153374
  0
ARC
  8
_0-0_
  6
CONTINUOUS
 62
    7
 10
-16.69530718943966
 20
11.090357658796165
 40
0.2891409512827556
 50
93.690468061901555
 51
180.00475247008825
  0
ARC
  8
_0-0_
  6
CONTINUOUS
 62
    7
 10
-16.649686345397157
 20
11.015517605178431
 40
0.3430202666643951
 50
167.40196526053836
 51
249.8189540713899
  0
ARC
  8
_0-0_
  6
CONTINUOUS
 62
    7
 10
-16.863119524766944
 20
11.11574710174483
 40
0.4327680639880477
 50
282.69361944138331
 51
307.99873244251046
  0
ARC
  8
_0-0_
  6
CONTINUOUS
 62
    7
 10
-15.407322535941603
 20
9.7586174469972491
 40
0.7880297634621318
 50
82.697813710875337
 51
145.35519944648334
  0
ARC
  8
_0-0_
  6
CONTINUOUS
 62
    7
 10
-15.409963424230625
 20
9.9234475233741648
 40
0.7050247386223608
 50
156.32026712234159
 51
229.66896646149269
  0
ARC
  8
_0-0_
  6
CONTINUOUS
 62
    7
 10
-15.648475292730751
 20
10.051291970904771
 40
0.7000354989465638
 50
251.87437507963716
 51
299.18070522367594
  0
ARC
  8
_0-0_
  6
CONTINUOUS
 62
    7
 10
-15.229008899845439
 20
9.4235681644829867
 40
0.0798825988242855
 50
94.316027519885949
 51
168.05582281153374
  0
ARC
  8
_0-0_
  6
CONTINUOUS
 62
    7
 10
-15.468904432809552
 20
9.9902022447603542
 40
0.2891409512827556
 50
93.690468061901555
 51
180.00475247008825
  0
ARC
  8
_0-0_
  6
CONTINUOUS
 62
    7
 10
-15.423283588767049
 20
9.91536219114262
 40
0.3430202666643951
 50
167.40196526053836
 51
249.8189540713899
  0
ARC
  8
_0-0_
  6
CONTINUOUS
 62
    7
 10
-15.636716768136836
 20
10.015591687709019
 40
0.4327680639880477
 50
282.69361944138331
 51
307.99873244251046
  0
ARC
  8
_0-0_
  6
CONTINUOUS
 62
    7
 10
-18.094587399733996
 20
9.6864761083719486
 40
0.7880297634621318
 50
82.697813710875337
 51
145.35519944648334
  0
ARC
  8
_0-0_
  6
CONTINUOUS
 62
    7
 10
-18.097228288023018
 20
9.8513061847488643
 40
0.7050247386223608
 50
156.32026712234159
 51
229.66896646149269
  0
ARC
  8
_0-0_
  6
CONTINUOUS
 62
    7
 10
-18.335740156523144
 20
9.9791506322794703
 40
0.7000354989465638
 50
251.87437507963716
 51
299.18070522367594
  0
ARC
  8
_0-0_
  6
CONTINUOUS
 62
    7
 10
-17.916273763637832
 20
9.3514268258576863
 40
0.0798825988242855
 50
94.316027519885949
 51
168.05582281153374
  0
ARC
  8
_0-0_
  6
CONTINUOUS
 62
    7
 10
-18.156169296601945
 20
9.9180609061350538
 40
0.2891409512827556
 50
93.690468061901555
 51
180.00475247008825
  0
ARC
  8
_0-0_
  6
CONTINUOUS
 62
    7
 10
-18.110548452559442
 20
9.8432208525173195
 40
0.3430202666643951
 50
167.40196526053836
 51
249.8189540713899
  0
ARC
  8
_0-0_
  6
CONTINUOUS
 62
    7
 10
-18.323981631929229
 20
9.9434503490837187
 40
0.4327680639880477
 50
282.69361944138331
 51
307.99873244251046
  0
ARC
  8
_0-0_
  6
CONTINUOUS
 62
    7
 10
-17.210856001574086
 20
8.4240026824292187
 40
0.7880297634621318
 50
82.697813710875337
 51
145.35519944648334
  0
ARC
  8
_0-0_
  6
CONTINUOUS
 62
    7
 10
-17.213496889863109
 20
8.5888327588061344
 40
0.7050247386223608
 50
156.32026712234159
 51
229.66896646149269
  0
ARC
  8
_0-0_
  6
CONTINUOUS
 62
    7
 10
-17.452008758363235
 20
8.7166772063367404
 40
0.7000354989465638
 50
251.87437507963716
 51
299.18070522367594
  0
ARC
  8
_0-0_
  6
CONTINUOUS
 62
    7
 10
-17.032542365477923
 20
8.0889533999149563
 40
0.0798825988242855
 50
94.316027519885949
 51
168.05582281153374
  0
ARC
  8
_0-0_
  6
CONTINUOUS
 62
    7
 10
-17.272437898442035
 20
8.6555874801923238
 40
0.2891409512827556
 50
93.690468061901555
 51
180.00475247008825
  0
ARC
  8
_0-0_
  6
CONTINUOUS
 62
    7
 10
-17.226817054399532
 20
8.5807474265745896
 40
0.3430202666643951
 50
167.40196526053836
 51
249.8189540713899
  0
ARC
  8
_0-0_
  6
CONTINUOUS
 62
    7
 10
-17.440250233769319
 20
8.6809769231409888
 40
0.4327680639880477
 50
282.69361944138331
 51
307.99873244251046
  0
ARC
  8
_0-0_
  6
CONTINUOUS
 62
    7
 10
-18.509400096829467
 20
7.3238472683934077
 40
0.7880297634621318
 50
82.697813710875337
 51
145.35519944648334
  0
ARC
  8
_0-0_
  6
CONTINUOUS
 62
    7
 10
-18.512040985118489
 20
7.4886773447703234
 40
0.7050247386223608
 50
156.32026712234159
 51
229.66896646149269
  0
ARC
  8
_0-0_
  6
CONTINUOUS
 62
    7
 10
-18.750552853618615
 20
7.6165217923009294
 40
0.7000354989465638
 50
251.87437507963716
 51
299.18070522367594
  0
ARC
  8
_0-0_
  6
CONTINUOUS
 62
    7
 10
-18.331086460733303
 20
6.9887979858791454
 40
0.0798825988242855
 50
94.316027519885949
 51
168.05582281153374
  0
ARC
  8
_0-0_
  6
CONTINUOUS
 62
    7
 10
-18.570981993697416
 20
7.5554320661565129
 40
0.2891409512827556
 50
93.690468061901555
 51
180.00475247008825
  0
ARC
  8
_0-0_
  6
CONTINUOUS
 62
    7
 10
-18.525361149654913
 20
7.4805920125387786
 40
0.3430202666643951
 50
167.40196526053836
 51
249.8189540713899
  0
ARC
  8
_0-0_
  6
CONTINUOUS
 62
    7
 10
-18.738794329024699
 20
7.5808215091051778
 40
0.4327680639880477
 50
282.69361944138331
 51
307.99873244251046
  0
ARC
  8
_0-0_
  6
CONTINUOUS
 62
    7
 10
-16.14677125685094
 20
7.5763419535819452
 40
0.7880297634621318
 50
82.697813710875337
 51
145.35519944648334
  0
ARC
  8
_0-0_
  6
CONTINUOUS
 62
    7
 10
-16.149412145139962
 20
7.7411720299588609
 40
0.7050247386223608
 50
156.32026712234159
 51
229.66896646149269
  0
ARC
  8
_0-0_
  6
CONTINUOUS
 62
    7
 10
-16.387924013640088
 20
7.8690164774894669
 40
0.7000354989465638
 50
251.87437507963716
 51
299.18070522367594
  0
ARC
  8
_0-0_
  6
CONTINUOUS
 62
    7
 10
-15.968457620754776
 20
7.2412926710676828
 40
0.0798825988242855
 50
94.316027519885949
 51
168.05582281153374
  0
ARC
  8
_0-0_
  6
CONTINUOUS
 62
    7
 10
-16.208353153718889
 20
7.8079267513450503
 40
0.2891409512827556
 50
93.690468061901555
 51
180.00475247008825
  0
ARC
  8
_0-0_
  6
CONTINUOUS
 62
    7
 10
-16.162732309676386
 20
7.7330866977273161
 40
0.3430202666643951
 50
167.40196526053836
 51
249.8189540713899
  0
ARC
  8
_0-0_
  6
CONTINUOUS
 62
    7
 10
-16.376165489046173
 20
7.8333161942937153
 40
0.4327680639880477
 50
282.69361944138331
 51
307.99873244251046
  0
ARC
  8
_0-0_
  6
CONTINUOUS
 62
    7
 10
-19.140636809800839
 20
4.8169357511642659
 40
0.7880297634621318
 50
82.697813710875337
 51
145.35519944648334
  0
ARC
  8
_0-0_
  6
CONTINUOUS
 62
    7
 10
-19.143277698089861
 20
4.9817658275411816
 40
0.7050247386223608
 50
156.32026712234159
 51
229.66896646149269
  0
ARC
  8
_0-0_
  6
CONTINUOUS
 62
    7
 10
-19.381789566589987
 20
5.1096102750717876
 40
0.7000354989465638
 50
251.87437507963716
 51
299.18070522367594
  0
ARC
  8
_0-0_
  6
CONTINUOUS
 62
    7
 10
-18.962323173704675
 20
4.4818864686500035
 40
0.0798825988242855
 50
94.316027519885949
 51
168.05582281153374
  0
ARC
  8
_0-0_
  6
CONTINUOUS
 62
    7
 10
-19.202218706668788
 20
5.048520548927371
 40
0.2891409512827556
 50
93.690468061901555
 51
180.00475247008825
  0
ARC
  8
_0-0_
  6
CONTINUOUS
 62
    7
 10
-19.156597862626285
 20
4.9736804953096367
 40
0.3430202666643951
 50
167.40196526053836
 51
249.8189540713899
  0
ARC
  8
_0-0_
  6
CONTINUOUS
 62
    7
 10
-19.370031041996072
 20
5.073909991876036
 40
0.4327680639880477
 50
282.69361944138331
 51
307.99873244251046
  0
ARC
  8
_0-0_
  6
CONTINUOUS
 62
    7
 10
-17.769951375920158
 20
4.8169357511642659
 40
0.7880297634621318
 50
82.697813710875337
 51
145.35519944648334
  0
ARC
  8
_0-0_
  6
CONTINUOUS
 62
    7
 10
-17.77259226420918
 20
4.9817658275411816
 40
0.7050247386223608
 50
156.32026712234159
 51
229.66896646149269
  0
ARC
  8
_0-0_
  6
CONTINUOUS
 62
    7
 10
-18.011104132709306
 20
5.1096102750717876
 40
0.7000354989465638
 50
251.87437507963716
 51
299.18070522367594
  0
ARC
  8
_0-0_
  6
CONTINUOUS
 62
    7
 10
-17.591637739823994
 20
4.4818864686500035
 40
0.0798825988242855
 50
94.316027519885949
 51
168.05582281153374
  0
ARC
  8
_0-0_
  6
CONTINUOUS
 62
    7
 10
-17.831533272788107
 20
5.048520548927371
 40
0.2891409512827556
 50
93.690468061901555
 51
180.00475247008825
  0
ARC
  8
_0-0_
  6
CONTINUOUS
 62
    7
 10
-17.785912428745604
 20
4.9736804953096367
 40
0.3430202666643951
 50
167.40196526053836
 51
249.8189540713899
  0
ARC
  8
_0-0_
  6
CONTINUOUS
 62
    7
 10
-17.999345608115391
 20
5.073909991876036
 40
0.4327680639880477
 50
282.69361944138331
 51
307.99873244251046
  0
ARC
  8
_0-0_
  6
CONTINUOUS
 62
    7
 10
-16.56158395394641
 20
5.2317484482597365
 40
0.7880297634621318
 50
82.697813710875337
 51
145.35519944648334
  0
ARC
  8
_0-0_
  6
CONTINUOUS
 62
    7
 10
-16.564224842235433
 20
5.3965785246366522
 40
0.7050247386223608
 50
156.32026712234159
 51
229.66896646149269
  0
ARC
  8
_0-0_
  6
CONTINUOUS
 62
    7
 10
-16.802736710735559
 20
5.5244229721672582
 40
0.7000354989465638
 50
251.87437507963716
 51
299.18070522367594
  0
ARC
  8
_0-0_
  6
CONTINUOUS
 62
    7
 10
-16.383270317850247
 20
4.8966991657454741
 40
0.0798825988242855
 50
94.316027519885949
 51
168.05582281153374
  0
ARC
  8
_0-0_
  6
CONTINUOUS
 62
    7
 10
-16.62316585081436
 20
5.4633332460228416
 40
0.2891409512827556
 50
93.690468061901555
 51
180.00475247008825
  0
ARC
  8
_0-0_
  6
CONTINUOUS
 62
    7
 10
-16.577545006771857
 20
5.3884931924051074
 40
0.3430202666643951
 50
167.40196526053836
 51
249.8189540713899
  0
ARC
  8
_0-0_
  6
CONTINUOUS
 62
    7
 10
-16.790978186141643
 20
5.4887226889715066
 40
0.4327680639880477
 50
282.69361944138331
 51
307.99873244251046
  0
ARC
  8
_0-0_
  6
CONTINUOUS
 62
    7
 10
-16.994431985698185
 20
2.7969782696558951
 40
0.7880297634621318
 50
82.697813710875337
 51
145.35519944648334
  0
ARC
  8
_0-0_
  6
CONTINUOUS
 62
    7
 10
-16.997072873987207
 20
2.9618083460328108
 40
0.7050247386223608
 50
156.32026712234159
 51
229.66896646149269
  0
ARC
  8
_0-0_
  6
CONTINUOUS
 62
    7
 10
-17.235584742487333
 20
3.0896527935634168
 40
0.7000354989465638
 50
251.87437507963716
 51
299.18070522367594
  0
ARC
  8
_0-0_
  6
CONTINUOUS
 62
    7
 10
-16.816118349602021
 20
2.4619289871416328
 40
0.0798825988242855
 50
94.316027519885949
 51
168.05582281153374
  0
ARC
  8
_0-0_
  6
CONTINUOUS
 62
    7
 10
-17.056013882566134
 20
3.0285630674190003
 40
0.2891409512827556
 50
93.690468061901555
 51
180.00475247008825
  0
ARC
  8
_0-0_
  6
CONTINUOUS
 62
    7
 10
-17.010393038523631
 20
2.953723013801266
 40
0.3430202666643951
 50
167.40196526053836
 51
249.8189540713899
  0
ARC
  8
_0-0_
  6
CONTINUOUS
 62
    7
 10
-17.223826217893418
 20
3.0539525103676652
 40
0.4327680639880477
 50
282.69361944138331
 51
307.99873244251046
  0
ARC
  8
_0-0_
  6
CONTINUOUS
 62
    7
 10
-18.365117419578894
 20
2.8330489389685312
 40
0.7880297634621318
 50
82.697813710875337
 51
145.35519944648334
  0
ARC
  8
_0-0_
  6
CONTINUOUS
 62
    7
 10
-18.367758307867916
 20
2.9978790153454469
 40
0.7050247386223608
 50
156.32026712234159
 51
229.66896646149269
  0
ARC
  8
_0-0_
  6
CONTINUOUS
 62
    7
 10
-18.606270176368042
 20
3.1257234628760528
 40
0.7000354989465638
 50
251.87437507963716
 51
299.18070522367594
  0
ARC
  8
_0-0_
  6
CONTINUOUS
 62
    7
 10
-18.186803783482731
 20
2.4979996564542688
 40
0.0798825988242855
 50
94.316027519885949
 51
168.05582281153374
  0
ARC
  8
_0-0_
  6
CONTINUOUS
 62
    7
 10
-18.426699316446843
 20
3.0646337367316363
 40
0.2891409512827556
 50
93.690468061901555
 51
180.00475247008825
  0
ARC
  8
_0-0_
  6
CONTINUOUS
 62
    7
 10
-18.38107847240434
 20
2.989793683113902
 40
0.3430202666643951
 50
167.40196526053836
 51
249.8189540713899
  0
ARC
  8
_0-0_
  6
CONTINUOUS
 62
    7
 10
-18.594511651774127
 20
3.0900231796803013
 40
0.4327680639880477
 50
282.69361944138331
 51
307.99873244251046
  0
ARC
  8
_0-0_
  6
CONTINUOUS
 62
    7
 10
-19.393131494989404
 20
2.8150136043122131
 40
0.7880297634621318
 50
82.697813710875337
 51
145.35519944648334
  0
ARC
  8
_0-0_
  6
CONTINUOUS
 62
    7
 10
-19.395772383278427
 20
2.9798436806891289
 40
0.7050247386223608
 50
156.32026712234159
 51
229.66896646149269
  0
ARC
  8
_0-0_
  6
CONTINUOUS
 62
    7
 10
-19.634284251778553
 20
3.1076881282197348
 40
0.7000354989465638
 50
251.87437507963716
 51
299.18070522367594
  0
ARC
  8
_0-0_
  6
CONTINUOUS
 62
    7
 10
-19.214817858893241
 20
2.4799643217979508
 40
0.0798825988242855
 50
94.316027519885949
 51
168.05582281153374
  0
ARC
  8
_0-0_
  6
CONTINUOUS
 62
    7
 10
-19.454713391857354
 20
3.0465984020753183
 40
0.2891409512827556
 50
93.690468061901555
 51
180.00475247008825
  0
ARC
  8
_0-0_
  6
CONTINUOUS
 62
    7
 10
-19.409092547814851
 20
2.971758348457584
 40
0.3430202666643951
 50
167.40196526053836
 51
249.8189540713899
  0
ARC
  8
_0-0_
  6
CONTINUOUS
 62
    7
 10
-19.622525727184637
 20
3.0719878450239833
 40
0.4327680639880477
 50
282.69361944138331
 51
307.99873244251046
  0
ARC
  8
_0-0_
  6
CONTINUOUS
 62
    7
 10
-19.916156200022812
 20
0.416314095021022
 40
0.7880297634621318
 50
82.697813710875337
 51
145.35519944648334
  0
ARC
  8
_0-0_
  6
CONTINUOUS
 62
    7
 10
-19.918797088311834
 20
0.5811441713979377
 40
0.7050247386223608
 50
156.32026712234159
 51
229.66896646149269
  0
ARC
  8
_0-0_
  6
CONTINUOUS
 62
    7
 10
-20.15730895681196
 20
0.7089886189285437
 40
0.7000354989465638
 50
251.87437507963716
 51
299.18070522367594
  0
ARC
  8
_0-0_
  6
CONTINUOUS
 62
    7
 10
-19.737842563926648
 20
0.0812648125067596
 40
0.0798825988242855
 50
94.316027519885949
 51
168.05582281153374
  0
ARC
  8
_0-0_
  6
CONTINUOUS
 62
    7
 10
-19.977738096890761
 20
0.6478988927841271
 40
0.2891409512827556
 50
93.690468061901555
 51
180.00475247008825
  0
ARC
  8
_0-0_
  6
CONTINUOUS
 62
    7
 10
-19.932117252848258
 20
0.5730588391663928
 40
0.3430202666643951
 50
167.40196526053836
 51
249.8189540713899
  0
ARC
  8
_0-0_
  6
CONTINUOUS
 62
    7
 10
-20.145550432218045
 20
0.6732883357327921
 40
0.4327680639880477
 50
282.69361944138331
 51
307.99873244251046
  0
ARC
  8
_0-0_
  6
CONTINUOUS
 62
    7
 10
-17.679774702638554
 20
0.5064907683026405
 40
0.7880297634621318
 50
82.697813710875337
 51
145.35519944648334
  0
ARC
  8
_0-0_
  6
CONTINUOUS
 62
    7
 10
-17.682415590927576
 20
0.6713208446795562
 40
0.7050247386223608
 50
156.32026712234159
 51
229.66896646149269
  0
ARC
  8
_0-0_
  6
CONTINUOUS
 62
    7
 10
-17.920927459427702
 20
0.7991652922101621
 40
0.7000354989465638
 50
251.87437507963716
 51
299.18070522367594
  0
ARC
  8
_0-0_
  6
CONTINUOUS
 62
    7
 10
-17.50146106654239
 20
0.1714414857883781
 40
0.0798825988242855
 50
94.316027519885949
 51
168.05582281153374
  0
ARC
  8
_0-0_
  6
CONTINUOUS
 62
    7
 10
-17.741356599506503
 20
0.7380755660657456
 40
0.2891409512827556
 50
93.690468061901555
 51
180.00475247008825
  0
ARC
  8
_0-0_
  6
CONTINUOUS
 62
    7
 10
-17.695735755464
 20
0.6632355124480113
 40
0.3430202666643951
 50
167.40196526053836
 51
249.8189540713899
  0
ARC
  8
_0-0_
  6
CONTINUOUS
 62
    7
 10
-17.909168934833787
 20
0.7634650090144106
 40
0.4327680639880477
 50
282.69361944138331
 51
307.99873244251046
  0
ARC
  8
_0-0_
  6
CONTINUOUS
 62
    7
 10
-18.202799407671961
 20
-1.8381027370195824
 40
0.7880297634621318
 50
82.697813710875337
 51
145.35519944648334
  0
ARC
  8
_0-0_
  6
CONTINUOUS
 62
    7
 10
-18.205440295960983
 20
-1.6732726606426667
 40
0.7050247386223608
 50
156.32026712234159
 51
229.66896646149269
  0
ARC
  8
_0-0_
  6
CONTINUOUS
 62
    7
 10
-18.443952164461109
 20
-1.5454282131120607
 40
0.7000354989465638
 50
251.87437507963716
 51
299.18070522367594
  0
ARC
  8
_0-0_
  6
CONTINUOUS
 62
    7
 10
-18.024485771575797
 20
-2.1731520195338447
 40
0.0798825988242855
 50
94.316027519885949
 51
168.05582281153374
  0
ARC
  8
_0-0_
  6
CONTINUOUS
 62
    7
 10
-18.26438130453991
 20
-1.6065179392564772
 40
0.2891409512827556
 50
93.690468061901555
 51
180.00475247008825
  0
ARC
  8
_0-0_
  6
CONTINUOUS
 62
    7
 10
-18.218760460497407
 20
-1.6813579928742115
 40
0.3430202666643951
 50
167.40196526053836
 51
249.8189540713899
  0
ARC
  8
_0-0_
  6
CONTINUOUS
 62
    7
 10
-18.432193639867194
 20
-1.5811284963078123
 40
0.4327680639880477
 50
282.69361944138331
 51
307.99873244251046
  0
ARC
  8
_0-0_
  6
CONTINUOUS
 62
    7
 10
-20.403110235743583
 20
-2.0184560835828336
 40
0.7880297634621318
 50
82.697813710875337
 51
145.35519944648334
  0
ARC
  8
_0-0_
  6
CONTINUOUS
 62
    7
 10
-20.405751124032605
 20
-1.8536260072059179
 40
0.7050247386223608
 50
156.32026712234159
 51
229.66896646149269
  0
ARC
  8
_0-0_
  6
CONTINUOUS
 62
    7
 10
-20.644262992532731
 20
-1.7257815596753119
 40
0.7000354989465638
 50
251.87437507963716
 51
299.18070522367594
  0
ARC
  8
_0-0_
  6
CONTINUOUS
 62
    7
 10
-20.224796599647419
 20
-2.3535053660970959
 40
0.0798825988242855
 50
94.316027519885949
 51
168.05582281153374
  0
ARC
  8
_0-0_
  6
CONTINUOUS
 62
    7
 10
-20.464692132611532
 20
-1.7868712858197284
 40
0.2891409512827556
 50
93.690468061901555
 51
180.00475247008825
  0
ARC
  8
_0-0_
  6
CONTINUOUS
 62
    7
 10
-20.419071288569029
 20
-1.8617113394374627
 40
0.3430202666643951
 50
167.40196526053836
 51
249.8189540713899
  0
ARC
  8
_0-0_
  6
CONTINUOUS
 62
    7
 10
-20.632504467938816
 20
-1.7614818428710635
 40
0.4327680639880477
 50
282.69361944138331
 51
307.99873244251046
  0
ARC
  8
_0-0_
  6
CONTINUOUS
 62
    7
 10
-21.377018307185125
 20
-4.5975089394372759
 40
0.7880297634621318
 50
82.697813710875337
 51
145.35519944648334
  0
ARC
  8
_0-0_
  6
CONTINUOUS
 62
    7
 10
-21.379659195474147
 20
-4.4326788630603602
 40
0.7050247386223608
 50
156.32026712234159
 51
229.66896646149269
  0
ARC
  8
_0-0_
  6
CONTINUOUS
 62
    7
 10
-21.618171063974273
 20
-4.3048344155297542
 40
0.7000354989465638
 50
251.87437507963716
 51
299.18070522367594
  0
ARC
  8
_0-0_
  6
CONTINUOUS
 62
    7
 10
-21.198704671088962
 20
-4.9325582219515383
 40
0.0798825988242855
 50
94.316027519885949
 51
168.05582281153374
  0
ARC
  8
_0-0_
  6
CONTINUOUS
 62
    7
 10
-21.438600204053074
 20
-4.3659241416741708
 40
0.2891409512827556
 50
93.690468061901555
 51
180.00475247008825
  0
ARC
  8
_0-0_
  6
CONTINUOUS
 62
    7
 10
-21.392979360010571
 20
-4.440764195291905
 40
0.3430202666643951
 50
167.40196526053836
 51
249.8189540713899
  0
ARC
  8
_0-0_
  6
CONTINUOUS
 62
    7
 10
-21.606412539380358
 20
-4.3405346987255058
 40
0.4327680639880477
 50
282.69361944138331
 51
307.99873244251046
  0
ARC
  8
_0-0_
  6
CONTINUOUS
 62
    7
 10
-19.898120865366479
 20
-4.3450142542487242
 40
0.7880297634621318
 50
82.697813710875337
 51
145.35519944648334
  0
ARC
  8
_0-0_
  6
CONTINUOUS
 62
    7
 10
-19.900761753655502
 20
-4.1801841778718085
 40
0.7050247386223608
 50
156.32026712234159
 51
229.66896646149269
  0
ARC
  8
_0-0_
  6
CONTINUOUS
 62
    7
 10
-20.139273622155628
 20
-4.0523397303412025
 40
0.7000354989465638
 50
251.87437507963716
 51
299.18070522367594
  0
ARC
  8
_0-0_
  6
CONTINUOUS
 62
    7
 10
-19.719807229270316
 20
-4.6800635367629866
 40
0.0798825988242855
 50
94.316027519885949
 51
168.05582281153374
  0
ARC
  8
_0-0_
  6
CONTINUOUS
 62
    7
 10
-19.959702762234429
 20
-4.1134294564856191
 40
0.2891409512827556
 50
93.690468061901555
 51
180.00475247008825
  0
ARC
  8
_0-0_
  6
CONTINUOUS
 62
    7
 10
-19.914081918191926
 20
-4.1882695101033534
 40
0.3430202666643951
 50
167.40196526053836
 51
249.8189540713899
  0
ARC
  8
_0-0_
  6
CONTINUOUS
 62
    7
 10
-20.127515097561712
 20
-4.0880400135369541
 40
0.4327680639880477
 50
282.69361944138331
 51
307.99873244251046
  0
ARC
  8
_0-0_
  6
CONTINUOUS
 62
    7
 10
-18.545470766142131
 20
-4.1285902383728228
 40
0.7880297634621318
 50
82.697813710875337
 51
145.35519944648334
  0
ARC
  8
_0-0_
  6
CONTINUOUS
 62
    7
 10
-18.548111654431153
 20
-3.9637601619959071
 40
0.7050247386223608
 50
156.32026712234159
 51
229.66896646149269
  0
ARC
  8
_0-0_
  6
CONTINUOUS
 62
    7
 10
-18.786623522931279
 20
-3.8359157144653011
 40
0.7000354989465638
 50
251.87437507963716
 51
299.18070522367594
  0
ARC
  8
_0-0_
  6
CONTINUOUS
 62
    7
 10
-18.367157130045968
 20
-4.4636395208870852
 40
0.0798825988242855
 50
94.316027519885949
 51
168.05582281153374
  0
ARC
  8
_0-0_
  6
CONTINUOUS
 62
    7
 10
-18.60705266301008
 20
-3.8970054406097177
 40
0.2891409512827556
 50
93.690468061901555
 51
180.00475247008825
  0
ARC
  8
_0-0_
  6
CONTINUOUS
 62
    7
 10
-18.561431818967577
 20
-3.9718454942274519
 40
0.3430202666643951
 50
167.40196526053836
 51
249.8189540713899
  0
ARC
  8
_0-0_
  6
CONTINUOUS
 62
    7
 10
-18.774864998337364
 20
-3.8716159976610527
 40
0.4327680639880477
 50
282.69361944138331
 51
307.99873244251046
  0
ARC
  8
_0-0_
  6
CONTINUOUS
 62
    7
 10
-19.194742813769835
 20
-6.7797844328525656
 40
0.7880297634621318
 50
82.697813710875337
 51
145.35519944648334
  0
ARC
  8
_0-0_
  6
CONTINUOUS
 62
    7
 10
-19.197383702058858
 20
-6.6149543564756499
 40
0.7050247386223608
 50
156.32026712234159
 51
229.66896646149269
  0
ARC
  8
_0-0_
  6
CONTINUOUS
 62
    7
 10
-19.435895570558984
 20
-6.4871099089450439
 40
0.7000354989465638
 50
251.87437507963716
 51
299.18070522367594
  0
ARC
  8
_0-0_
  6
CONTINUOUS
 62
    7
 10
-19.016429177673672
 20
-7.114833715366828
 40
0.0798825988242855
 50
94.316027519885949
 51
168.05582281153374
  0
ARC
  8
_0-0_
  6
CONTINUOUS
 62
    7
 10
-19.256324710637784
 20
-6.5481996350894605
 40
0.2891409512827556
 50
93.690468061901555
 51
180.00475247008825
  0
ARC
  8
_0-0_
  6
CONTINUOUS
 62
    7
 10
-19.210703866595281
 20
-6.6230396887071947
 40
0.3430202666643951
 50
167.40196526053836
 51
249.8189540713899
  0
ARC
  8
_0-0_
  6
CONTINUOUS
 62
    7
 10
-19.424137045965068
 20
-6.5228101921407955
 40
0.4327680639880477
 50
282.69361944138331
 51
307.99873244251046
  0
ARC
  8
_0-0_
  6
CONTINUOUS
 62
    7
 10
-20.475251574368883
 20
-6.6535370902582969
 40
0.7880297634621318
 50
82.697813710875337
 51
145.35519944648334
  0
ARC
  8
_0-0_
  6
CONTINUOUS
 62
    7
 10
-20.477892462657906
 20
-6.4887070138813812
 40
0.7050247386223608
 50
156.32026712234159
 51
229.66896646149269
  0
ARC
  8
_0-0_
  6
CONTINUOUS
 62
    7
 10
-20.716404331158031
 20
-6.3608625663507752
 40
0.7000354989465638
 50
251.87437507963716
 51
299.18070522367594
  0
ARC
  8
_0-0_
  6
CONTINUOUS
 62
    7
 10
-20.29693793827272
 20
-6.9885863727725592
 40
0.0798825988242855
 50
94.316027519885949
 51
168.05582281153374
  0
ARC
  8
_0-0_
  6
CONTINUOUS
 62
    7
 10
-20.536833471236832
 20
-6.4219522924951917
 40
0.2891409512827556
 50
93.690468061901555
 51
180.00475247008825
  0
ARC
  8
_0-0_
  6
CONTINUOUS
 62
    7
 10
-20.491212627194329
 20
-6.496792346112926
 40
0.3430202666643951
 50
167.40196526053836
 51
249.8189540713899
  0
ARC
  8
_0-0_
  6
CONTINUOUS
 62
    7
 10
-20.704645806564116
 20
-6.3965628495465268
 40
0.4327680639880477
 50
282.69361944138331
 51
307.99873244251046
  0
ARC
  8
_0-0_
  6
CONTINUOUS
 62
    7
 10
-21.665583661686327
 20
-6.7978197675088978
 40
0.7880297634621318
 50
82.697813710875337
 51
145.35519944648334
  0
ARC
  8
_0-0_
  6
CONTINUOUS
 62
    7
 10
-21.668224549975349
 20
-6.6329896911319821
 40
0.7050247386223608
 50
156.32026712234159
 51
229.66896646149269
  0
ARC
  8
_0-0_
  6
CONTINUOUS
 62
    7
 10
-21.906736418475475
 20
-6.5051452436013761
 40
0.7000354989465638
 50
251.87437507963716
 51
299.18070522367594
  0
ARC
  8
_0-0_
  6
CONTINUOUS
 62
    7
 10
-21.487270025590163
 20
-7.1328690500231602
 40
0.0798825988242855
 50
94.316027519885949
 51
168.05582281153374
  0
ARC
  8
_0-0_
  6
CONTINUOUS
 62
    7
 10
-21.727165558554276
 20
-6.5662349697457927
 40
0.2891409512827556
 50
93.690468061901555
 51
180.00475247008825
  0
ARC
  8
_0-0_
  6
CONTINUOUS
 62
    7
 10
-21.681544714511773
 20
-6.641075023363527
 40
0.3430202666643951
 50
167.40196526053836
 51
249.8189540713899
  0
ARC
  8
_0-0_
  6
CONTINUOUS
 62
    7
 10
-21.89497789388156
 20
-6.5408455267971277
 40
0.4327680639880477
 50
282.69361944138331
 51
307.99873244251046
  0
ARC
  8
_0-0_
  6
CONTINUOUS
 62
    7
 10
-22.170573032063402
 20
-8.9981305955805198
 40
0.7880297634621318
 50
82.697813710875337
 51
145.35519944648334
  0
ARC
  8
_0-0_
  6
CONTINUOUS
 62
    7
 10
-22.173213920352424
 20
-8.833300519203604
 40
0.7050247386223608
 50
156.32026712234159
 51
229.66896646149269
  0
ARC
  8
_0-0_
  6
CONTINUOUS
 62
    7
 10
-22.41172578885255
 20
-8.7054560716729981
 40
0.7000354989465638
 50
251.87437507963716
 51
299.18070522367594
  0
ARC
  8
_0-0_
  6
CONTINUOUS
 62
    7
 10
-21.992259395967238
 20
-9.3331798780947821
 40
0.0798825988242855
 50
94.316027519885949
 51
168.05582281153374
  0
ARC
  8
_0-0_
  6
CONTINUOUS
 62
    7
 10
-22.232154928931351
 20
-8.7665457978174146
 40
0.2891409512827556
 50
93.690468061901555
 51
180.00475247008825
  0
ARC
  8
_0-0_
  6
CONTINUOUS
 62
    7
 10
-22.186534084888848
 20
-8.8413858514351489
 40
0.3430202666643951
 50
167.40196526053836
 51
249.8189540713899
  0
ARC
  8
_0-0_
  6
CONTINUOUS
 62
    7
 10
-22.399967264258635
 20
-8.7411563548687496
 40
0.4327680639880477
 50
282.69361944138331
 51
307.99873244251046
  0
ARC
  8
_0-0_
  6
CONTINUOUS
 62
    7
 10
-21.413088976497761
 20
-10.2966746908359
 40
0.7880297634621318
 50
82.697813710875337
 51
145.35519944648334
  0
ARC
  8
_0-0_
  6
CONTINUOUS
 62
    7
 10
-21.415729864786783
 20
-10.131844614458984
 40
0.7050247386223608
 50
156.32026712234159
 51
229.66896646149269
  0
ARC
  8
_0-0_
  6
CONTINUOUS
 62
    7
 10
-21.654241733286909
 20
-10.004000166928378
 40
0.7000354989465638
 50
251.87437507963716
 51
299.18070522367594
  0
ARC
  8
_0-0_
  6
CONTINUOUS
 62
    7
 10
-21.234775340401598
 20
-10.631723973350162
 40
0.0798825988242855
 50
94.316027519885949
 51
168.05582281153374
  0
ARC
  8
_0-0_
  6
CONTINUOUS
 62
    7
 10
-21.47467087336571
 20
-10.065089893072795
 40
0.2891409512827556
 50
93.690468061901555
 51
180.00475247008825
  0
ARC
  8
_0-0_
  6
CONTINUOUS
 62
    7
 10
-21.429050029323207
 20
-10.139929946690529
 40
0.3430202666643951
 50
167.40196526053836
 51
249.8189540713899
  0
ARC
  8
_0-0_
  6
CONTINUOUS
 62
    7
 10
-21.642483208692994
 20
-10.03970045012413
 40
0.4327680639880477
 50
282.69361944138331
 51
307.99873244251046
  0
ARC
  8
_0-0_
  6
CONTINUOUS
 62
    7
 10
-19.862050196053843
 20
-9.214554611456407
 40
0.7880297634621318
 50
82.697813710875337
 51
145.35519944648334
  0
ARC
  8
_0-0_
  6
CONTINUOUS
 62
    7
 10
-19.864691084342866
 20
-9.0497245350794913
 40
0.7050247386223608
 50
156.32026712234159
 51
229.66896646149269
  0
ARC
  8
_0-0_
  6
CONTINUOUS
 62
    7
 10
-20.103202952842992
 20
-8.9218800875488853
 40
0.7000354989465638
 50
251.87437507963716
 51
299.18070522367594
  0
ARC
  8
_0-0_
  6
CONTINUOUS
 62
    7
 10
-19.68373655995768
 20
-9.5496038939706693
 40
0.0798825988242855
 50
94.316027519885949
 51
168.05582281153374
  0
ARC
  8
_0-0_
  6
CONTINUOUS
 62
    7
 10
-19.923632092921792
 20
-8.9829698136933018
 40
0.2891409512827556
 50
93.690468061901555
 51
180.00475247008825
  0
ARC
  8
_0-0_
  6
CONTINUOUS
 62
    7
 10
-19.878011248879289
 20
-9.0578098673110361
 40
0.3430202666643951
 50
167.40196526053836
 51
249.8189540713899
  0
ARC
  8
_0-0_
  6
CONTINUOUS
 62
    7
 10
-20.091444428249076
 20
-8.9575803707446369
 40
0.4327680639880477
 50
282.69361944138331
 51
307.99873244251046
  0
ARC
  8
_0-0_
  6
CONTINUOUS
 62
    7
 10
-20.547392912994184
 20
-11.685395459372913
 40
0.7880297634621318
 50
82.697813710875337
 51
145.35519944648334
  0
ARC
  8
_0-0_
  6
CONTINUOUS
 62
    7
 10
-20.550033801283206
 20
-11.520565382995997
 40
0.7050247386223608
 50
156.32026712234159
 51
229.66896646149269
  0
ARC
  8
_0-0_
  6
CONTINUOUS
 62
    7
 10
-20.788545669783332
 20
-11.392720935465391
 40
0.7000354989465638
 50
251.87437507963716
 51
299.18070522367594
  0
ARC
  8
_0-0_
  6
CONTINUOUS
 62
    7
 10
-20.36907927689802
 20
-12.020444741887175
 40
0.0798825988242855
 50
94.316027519885949
 51
168.05582281153374
  0
ARC
  8
_0-0_
  6
CONTINUOUS
 62
    7
 10
-20.608974809862133
 20
-11.453810661609808
 40
0.2891409512827556
 50
93.690468061901555
 51
180.00475247008825
  0
ARC
  8
_0-0_
  6
CONTINUOUS
 62
    7
 10
-20.56335396581963
 20
-11.528650715227542
 40
0.3430202666643951
 50
167.40196526053836
 51
249.8189540713899
  0
ARC
  8
_0-0_
  6
CONTINUOUS
 62
    7
 10
-20.776787145189417
 20
-11.428421218661143
 40
0.4327680639880477
 50
282.69361944138331
 51
307.99873244251046
  0
ARC
  8
_0-0_
  6
CONTINUOUS
 62
    7
 10
-21.683618996342631
 20
-12.569126857532822
 40
0.7880297634621318
 50
82.697813710875337
 51
145.35519944648334
  0
ARC
  8
_0-0_
  6
CONTINUOUS
 62
    7
 10
-21.686259884631653
 20
-12.404296781155907
 40
0.7050247386223608
 50
156.32026712234159
 51
229.66896646149269
  0
ARC
  8
_0-0_
  6
CONTINUOUS
 62
    7
 10
-21.924771753131779
 20
-12.276452333625301
 40
0.7000354989465638
 50
251.87437507963716
 51
299.18070522367594
  0
ARC
  8
_0-0_
  6
CONTINUOUS
 62
    7
 10
-21.505305360246467
 20
-12.904176140047085
 40
0.0798825988242855
 50
94.316027519885949
 51
168.05582281153374
  0
ARC
  8
_0-0_
  6
CONTINUOUS
 62
    7
 10
-21.74520089321058
 20
-12.337542059769717
 40
0.2891409512827556
 50
93.690468061901555
 51
180.00475247008825
  0
ARC
  8
_0-0_
  6
CONTINUOUS
 62
    7
 10
-21.699580049168077
 20
-12.412382113387451
 40
0.3430202666643951
 50
167.40196526053836
 51
249.8189540713899
  0
ARC
  8
_0-0_
  6
CONTINUOUS
 62
    7
 10
-21.913013228537864
 20
-12.312152616821052
 40
0.4327680639880477
 50
282.69361944138331
 51
307.99873244251046
  0
ARC
  8
_0-0_
  6
CONTINUOUS
 62
    7
 10
-22.855915749003742
 20
-11.721466128685563
 40
0.7880297634621318
 50
82.697813710875337
 51
145.35519944648334
  0
ARC
  8
_0-0_
  6
CONTINUOUS
 62
    7
 10
-22.858556637292764
 20
-11.556636052308647
 40
0.7050247386223608
 50
156.32026712234159
 51
229.66896646149269
  0
ARC
  8
_0-0_
  6
CONTINUOUS
 62
    7
 10
-23.09706850579289
 20
-11.428791604778041
 40
0.7000354989465638
 50
251.87437507963716
 51
299.18070522367594
  0
ARC
  8
_0-0_
  6
CONTINUOUS
 62
    7
 10
-22.677602112907579
 20
-12.056515411199825
 40
0.0798825988242855
 50
94.316027519885949
 51
168.05582281153374
  0
ARC
  8
_0-0_
  6
CONTINUOUS
 62
    7
 10
-22.917497645871691
 20
-11.489881330922458
 40
0.2891409512827556
 50
93.690468061901555
 51
180.00475247008825
  0
ARC
  8
_0-0_
  6
CONTINUOUS
 62
    7
 10
-22.871876801829188
 20
-11.564721384540192
 40
0.3430202666643951
 50
167.40196526053836
 51
249.8189540713899
  0
ARC
  8
_0-0_
  6
CONTINUOUS
 62
    7
 10
-23.085309981198975
 20
-11.464491887973793
 40
0.4327680639880477
 50
282.69361944138331
 51
307.99873244251046
  0
ARC
  8
_0-0_
  6
CONTINUOUS
 62
    7
 10
28.201647792294295
 20
1.2586675087871697
 40
0.7324633154305879
 50
16.875640951844492
 51
97.313873202178087
  0
ARC
  8
_0-0_
  6
CONTINUOUS
 62
    7
 10
28.413959719103161
 20
1.0697677417565217
 40
0.6241407826513362
 50
192.55751471347952
 51
301.39150126946475
  0
ARC
  8
_0-0_
  6
CONTINUOUS
 62
    7
 10
27.476469926093785
 20
-3.3175717581934805
 40
0.6427257543307956
 50
10.515380131308268
 51
108.97174554163583
  0
ARC
  8
_0-0_
  6
CONTINUOUS
 62
    7
 10
27.580983153927605
 20
-3.7495880618546238
 40
0.5471766194699956
 50
178.73471587232936
 51
318.62945957674555
  0
ARC
  8
_0-0_
  6
CONTINUOUS
 62
    7
 10
-15.740731910466366
 20
-29.09235390372605
 40
1.4825472865884144
 50
196.54145790674283
 51
262.60638461305905
  0
ENDBLK
  0
ENDSEC
  0
SECTION
  2
ENTITIES
  0
INSERT
  2
-004-5
  8
_0-0_
 10
139.91326530612244
 20
115.60714285714286
 41
1
 42
1
 50
0
  0
ENDSEC
  0
EOF
