  0
SECTION
  2
HEADER
  9
$ACADVER
  1
AC1009
  9
$INSBASE
 10
0
 20
0
 30
0
  9
$EXTMIN
 10
0
 20
0
  9
$EXTMAX
 10
297
 20
210
  9
$LIMMIN
 10
0
 20
0
  9
$LIMMAX
 10
297
 20
210
  9
$LTSCALE
 40
1
  0
ENDSEC
  0
SECTION
  2
TABLES
  0
TABLE
  2
LTYPE
 70
     9
  0
LTYPE
  2
CONTINUOUS
 70
    64
  3
実線
 72
    65
 73
     0
 40
0.0
  0
LTYPE
  2
DASHED1
 70
    64
  3
--  --  --  --  --  --  --  --  
 72
    65
 73
     2
 40
2.5
 49
1.25
 49
-1.25
  0
LTYPE
  2
DASHED2
 70
    64
  3
----    ----    ----    ----    
 72
    65
 73
     2
 40
5.0
 49
2.5
 49
-2.5
  0
LTYPE
  2
DASHED3
 70
    64
  3
------  ------  ------  ------  
 72
    65
 73
     2
 40
5.0
 49
3.75
 49
-1.25
  0
LTYPE
  2
CENTER1
 70
    64
  3
----- - ----- - ----- - ----- - 
 72
    65
 73
     4
 40
10.0
 49
6.25
 49
-1.25
 49
1.25
 49
-1.25
  0
LTYPE
  2
CENTER2
 70
    64
  3
----------  --  ----------  --  
 72
    65
 73
     4
 40
20.0
 49
12.5
 49
-2.5
 49
2.5
 49
-2.5
  0
LTYPE
  2
PHANTOM1
 70
    64
  3
--- - - --- - - --- - - --- - - 
 72
    65
 73
     6
 40
10.0
 49
3.25
 49
-1.25
 49
1.25
 49
-1.25
 49
1.25
 49
-1.25
  0
LTYPE
  2
PHANTOM2
 70
    64
  3
--------  -  -  --------  -  -  
 72
    65
 73
     6
 40
20.0
 49
10.0
 49
-2.5
 49
1.25
 49
-2.5
 49
1.25
 49
-2.5
  0
LTYPE
  2
DOT
 70
    64
  3
-   -   -   -   -   -   -   -   
 72
    65
 73
     2
 40
2.5
 49
0.625
 49
-1.875
  0
LTYPE
  2
DUMMY
 70
    64
  3
ダミー
 72
    65
 73
     0
 40
0.0
  0
LTYPE
  2
RAND1
 70
    64
  3
ランダム線1
 72
    65
 73
     4
 40
10.0
 49
1.0
 49
-2.0
 49
3.0
 49
-4.0
  0
LTYPE
  2
RAND2
 70
    64
  3
ランダム線2
 72
    65
 73
     4
 40
14.0
 49
2.0
 49
-3.0
 49
4.0
 49
-5.0
  0
LTYPE
  2
RAND3
 70
    64
  3
ランダム線3
 72
    65
 73
     4
 40
18.0
 49
3.0
 49
-4.0
 49
5.0
 49
-6.0
  0
LTYPE
  2
RAND4
 70
    64
  3
ランダム線4
 72
    65
 73
     4
 40
22.0
 49
4.0
 49
-5.0
 49
6.0
 49
-7.0
  0
LTYPE
  2
RAND5
 70
    64
  3
ランダム線5
 72
    65
 73
     4
 40
26.0
 49
5.0
 49
-6.0
 49
7.0
 49
-8.0
  0
LTYPE
  2
LONG1
 70
    64
  3
----------  --  ----------  --  
 72
    65
 73
     4
 40
40.0
 49
32.5
 49
-2.5
 49
2.5
 49
-2.5
  0
LTYPE
  2
LONG2
 70
    64
  3
--------  -  -  --------  -  -  
 72
    65
 73
     6
 40
40.0
 49
30.0
 49
-2.5
 49
1.25
 49
-2.5
 49
1.25
 49
-2.5
  0
LTYPE
  2
LONG3
 70
    64
  3
+++++++++++++++..+++++++++++++++
 72
    65
 73
     2
 40
40.0
 49
37.5
 49
-2.5
  0
LTYPE
  2
LONG4
 70
    64
  3
+++++++++++++++..+++++++++++++++
 72
    65
 73
     2
 40
80.0
 49
75.0
 49
-5.0
  0
LTYPE
  2
LONG5
 70
    64
  3
----------  --  ----------  --  
 72
    65
 73
     4
 40
60.0
 49
37.5
 49
-7.5
 49
7.5
 49
-7.5
  0
LTYPE
  2
dashed
 70
   64
  3
-------   -------------   ------
 72
   65
 73
    2
 40
7.5
 49
6
 49
-1.5
  0
LTYPE
  2
dashed_spaced
 70
   64
  3
----        --------        ----
 72
   65
 73
    2
 40
12
 49
6
 49
-6
  0
LTYPE
  2
long_dashed_dotted
 70
   64
  3
------------- --- --------------
 72
   65
 73
    4
 40
15.25
 49
12
 49
-1.5
 49
0.25
 49
-1.5
  0
LTYPE
  2
long_dashed_double-dotted
 70
   64
  3
----------- --- --- ------------
 72
   65
 73
    6
 40
17
 49
12
 49
-1.5
 49
0.25
 49
-1.5
 49
0.25
 49
-1.5
  0
LTYPE
  2
long_dashed_triplicate-dotted
 70
   64
  3
--------- --- --- --- ----------
 72
   65
 73
    8
 40
18.75
 49
12
 49
-1.5
 49
0.25
 49
-1.5
 49
0.25
 49
-1.5
 49
0.25
 49
-1.5
  0
LTYPE
  2
dotted
 70
   64
  3
   -       -       -       -    
 72
   65
 73
    2
 40
1.75
 49
0.25
 49
-1.5
  0
LTYPE
  2
chain
 70
   64
  3
-------------- -- --------------
 72
   65
 73
    4
 40
18.5
 49
12
 49
-1.5
 49
3.5
 49
-1.5
  0
LTYPE
  2
chain_double_dash
 70
   64
  3
------------ -- -- -------------
 72
   65
 73
    6
 40
23.5
 49
12
 49
-1.5
 49
3.5
 49
-1.5
 49
3.5
 49
-1.5
  0
LTYPE
  2
dashed_dotted
 70
   64
  3
-----------     -     ----------
 72
   65
 73
    4
 40
9.25
 49
6
 49
-1.5
 49
0.25
 49
-1.5
  0
LTYPE
  2
double-dashed_dotted
 70
   64
  3
------   -----------   -   -----
 72
   65
 73
    6
 40
16.75
 49
6
 49
-1.5
 49
6
 49
-1.5
 49
0.25
 49
-1.5
  0
LTYPE
  2
dashed_double-dotted
 70
   64
  3
---------    -    -    ---------
 72
   65
 73
    6
 40
11
 49
6
 49
-1.5
 49
0.25
 49
-1.5
 49
0.25
 49
-1.5
  0
LTYPE
  2
double-dashed_double-dotted
 70
   64
  3
-----   ---------   -   -   ----
 72
   65
 73
    8
 40
18.5
 49
6
 49
-1.5
 49
6
 49
-1.5
 49
0.25
 49
-1.5
 49
0.25
 49
-1.5
  0
LTYPE
  2
dashed_triplicate-dotted
 70
   64
  3
-------    -    -    -    ------
 72
   65
 73
    8
 40
12.75
 49
6
 49
-1.5
 49
0.25
 49
-1.5
 49
0.25
 49
-1.5
 49
0.25
 49
-1.5
  0
LTYPE
  2
double-dashed_triplicate-dotted
 70
   64
  3
-----  ---------  -  -  -  -----
 72
   65
 73
   10
 40
20.25
 49
6
 49
-1.5
 49
6
 49
-1.5
 49
0.25
 49
-1.5
 49
0.25
 49
-1.5
 49
0.25
 49
-1.5
  0
LTYPE
  2
undefined
 70
   64
  3
--------------------------------
 72
   65
 73
    0
 40
0
  0
LTYPE
  2
_
 70
   64
  3
                                
 72
   65
 73
    0
 40
0
  0
LTYPE
  2
__18
 70
   64
  3
                                
 72
   65
 73
    0
 40
0
  0
LTYPE
  2
__19
 70
   64
  3
                                
 72
   65
 73
    0
 40
0
  0
LTYPE
  2
__20
 70
   64
  3
                                
 72
   65
 73
    0
 40
0
  0
LTYPE
  2
__21
 70
   64
  3
                                
 72
   65
 73
    0
 40
0
  0
LTYPE
  2
__22
 70
   64
  3
                                
 72
   65
 73
    0
 40
0
  0
LTYPE
  2
__23
 70
   64
  3
                                
 72
   65
 73
    0
 40
0
  0
LTYPE
  2
__24
 70
   64
  3
                                
 72
   65
 73
    0
 40
0
  0
LTYPE
  2
__25
 70
   64
  3
                                
 72
   65
 73
    0
 40
0
  0
LTYPE
  2
__26
 70
   64
  3
                                
 72
   65
 73
    0
 40
0
  0
LTYPE
  2
__27
 70
   64
  3
                                
 72
   65
 73
    0
 40
0
  0
LTYPE
  2
__28
 70
   64
  3
                                
 72
   65
 73
    0
 40
0
  0
LTYPE
  2
__29
 70
   64
  3
                                
 72
   65
 73
    0
 40
0
  0
LTYPE
  2
__30
 70
   64
  3
                                
 72
   65
 73
    0
 40
0
  0
LTYPE
  2
__31
 70
   64
  3
                                
 72
   65
 73
    0
 40
0
  0
LTYPE
  2
__32
 70
   64
  3
                                
 72
   65
 73
    0
 40
0
  0
ENDTAB
  0
TABLE
  2
STYLE
  5
3
100
AcDbSymbolTable
 70
     1
  0
STYLE
  5
10
100
AcDbSymbolTableRecord
100
AcDbTextStyleTableRecord
  2
STANDARD
 70
     0
 40
0.0
 41
1.0
 50
0.0
 71
     0
 42
0.2
  3
txt
  4
bigfont.shx
  0
STYLE
  5
26
100
AcDbSymbolTableRecord
100
AcDbTextStyleTableRecord
  2
TATEGAKI
 70
    68
 40
0.0
 41
1.0
 50
0.0
 71
     0
 42
1.0
  3
txt
  4
bigfont.shx
  0
ENDTAB
  0
TABLE
  2
LAYER
 70
    2
  0
LAYER
  2
_0-0_
 70
   64
 62
    7
  6
CONTINUOUS
  0
LAYER
  2
ADD_LINE
 70
   64
 62
    7
  6
CONTINUOUS
  0
ENDTAB
  0
ENDSEC
  0
SECTION
  2
BLOCKS
  0
BLOCK
  2
-003-25
 70
   64
 10
0
 20
0
 30
0
  0
LINE
  8
_0-0_
  6
CONTINUOUS
 62
    7
 10
-22.299084029538335
 20
27.620043778412608
 11
19.786503097552185
 21
25.26420920488475
  0
LINE
  8
_0-0_
  6
CONTINUOUS
 62
    7
 10
19.786503097552185
 20
25.26420920488475
 11
21.104173282745734
 21
25.144421006230814
  0
LINE
  8
_0-0_
  6
CONTINUOUS
 62
    7
 10
21.104173282745734
 20
25.144421006230814
 11
23.180502059414323
 21
23.667033222831989
  0
LINE
  8
_0-0_
  6
CONTINUOUS
 62
    7
 10
23.300290258068287
 20
23.108021629113509
 11
22.781208063901147
 21
20.312963660521163
  0
LINE
  8
_0-0_
  6
CONTINUOUS
 62
    7
 10
21.463537878707598
 20
24.785056410268922
 11
20.864596885437805
 21
22.34936303763844
  0
LINE
  8
_0-0_
  6
CONTINUOUS
 62
    7
 10
20.864596885437805
 20
22.34936303763844
 11
22.741278664349835
 21
20.193175461867199
  0
LINE
  8
_0-0_
  6
CONTINUOUS
 62
    7
 10
22.741278664349835
 20
20.193175461867199
 11
24.777678041467112
 21
18.91543467622499
  0
LINE
  8
_0-0_
  6
CONTINUOUS
 62
    7
 10
24.777678041467112
 20
18.91543467622499
 11
21.064243883194422
 21
0.827416679477352
  0
LINE
  8
_0-0_
  6
CONTINUOUS
 62
    7
 10
-24.135836408899024
 20
24.824985809820234
 11
18.189327115499424
 21
22.149716039881852
  0
LINE
  8
_0-0_
  6
CONTINUOUS
 62
    7
 10
-24.055977609796386
 20
24.46562121385837
 11
18.708409309666564
 21
21.55077504661206
  0
LINE
  8
_0-0_
  6
CONTINUOUS
 62
    7
 10
18.340736685772583
 20
21.949729938944344
 11
18.708409309666564
 21
21.55077504661206
  0
LINE
  8
_0-0_
  6
CONTINUOUS
 62
    7
 10
18.340736685772583
 20
21.949729938944344
 11
18.340736685772583
 21
22.53858261258226
  0
LINE
  8
_0-0_
  6
CONTINUOUS
 62
    7
 10
20.22250501239813
 20
25.086010483320266
 11
20.670545090166115
 21
24.727578421105861
  0
LINE
  8
_0-0_
  6
CONTINUOUS
 62
    7
 10
20.670545090166115
 20
24.727578421105861
 11
21.463537878707598
 21
24.785056410268922
  0
LINE
  8
_0-0_
  6
CONTINUOUS
 62
    7
 10
21.195392038408613
 20
23.754691395095378
 11
19.992084400974591
 21
24.420350939207836
  0
LINE
  8
_0-0_
  6
CONTINUOUS
 62
    7
 10
22.270688225051799
 20
20.708018866273065
 11
21.374608069515801
 21
20.554405125324038
  0
LINE
  8
_0-0_
  6
CONTINUOUS
 62
    7
 10
21.374608069515801
 20
20.554405125324038
 11
21.259397763804031
 21
19.594319244392622
  0
LINE
  8
_0-0_
  6
CONTINUOUS
 62
    7
 10
19.492839742890254
 20
20.23437649834689
 11
20.619340509849764
 21
20.106365047556054
  0
LINE
  8
_0-0_
  6
CONTINUOUS
 62
    7
 10
20.619340509849764
 20
20.106365047556054
 11
20.734550815561533
 21
20.964041767854766
  0
LINE
  8
_0-0_
  6
CONTINUOUS
 62
    7
 10
20.619340509849764
 20
20.106365047556054
 11
20.54253363937525
 21
19.466307793601786
  0
LINE
  8
_0-0_
  6
CONTINUOUS
 62
    7
 10
20.54253363937525
 20
19.466307793601786
 11
21.566625245702085
 21
19.594319244392622
  0
LINE
  8
_0-0_
  6
CONTINUOUS
 62
    7
 10
21.566625245702085
 20
19.594319244392622
 11
21.80984700220472
 21
20.644013140877647
  0
LINE
  8
_0-0_
  6
CONTINUOUS
 62
    7
 10
19.736061499392889
 20
21.821718488153479
 11
20.65774394508702
 21
20.682416576114903
  0
LINE
  8
_0-0_
  6
CONTINUOUS
 62
    7
 10
19.736061499392889
 20
21.821718488153479
 11
20.081692416528199
 21
23.140236431299272
  0
LINE
  8
_0-0_
  6
CONTINUOUS
 62
    7
 10
20.081692416528199
 20
23.140236431299272
 11
20.632141654928859
 21
23.050628415745692
  0
LINE
  8
_0-0_
  6
CONTINUOUS
 62
    7
 10
17.841492027688247
 20
20.72082001135216
 11
19.646453483839281
 21
20.618410850719457
  0
LINE
  8
_0-0_
  6
CONTINUOUS
 62
    7
 10
19.620851193681119
 20
20.631211995798552
 11
19.390430582257579
 21
20.221575353267824
  0
LINE
  8
_0-0_
  6
CONTINUOUS
 62
    7
 10
19.428834017494836
 20
20.14476848279331
 11
19.416032872415741
 21
19.965552451686122
  0
LINE
  8
_0-0_
  6
CONTINUOUS
 62
    7
 10
19.416032872415741
 20
19.965552451686122
 11
18.212725234981718
 21
19.555915809155366
  0
LINE
  8
_0-0_
  6
CONTINUOUS
 62
    7
 10
19.684856919076537
 20
20.003955886923379
 11
20.260908447635387
 21
19.952751306607027
  0
LINE
  8
_0-0_
  6
CONTINUOUS
 62
    7
 10
20.260908447635387
 20
19.952751306607027
 11
20.286510737793549
 21
19.440705503443624
  0
LINE
  8
_0-0_
  6
CONTINUOUS
 62
    7
 10
19.684856919076537
 20
20.003955886923379
 11
19.416032872415741
 21
19.107875731387381
  0
LINE
  8
_0-0_
  6
CONTINUOUS
 62
    7
 10
19.416032872415741
 20
19.107875731387381
 11
21.34900577935764
 21
17.763755498083427
  0
LINE
  8
_0-0_
  6
CONTINUOUS
 62
    7
 10
21.34900577935764
 20
17.763755498083427
 11
21.310602344120383
 21
17.686948627608913
  0
LINE
  8
_0-0_
  6
CONTINUOUS
 62
    7
 10
21.310602344120383
 20
17.686948627608913
 11
19.031998520043174
 21
19.005466570754706
  0
LINE
  8
_0-0_
  6
CONTINUOUS
 62
    7
 10
19.031998520043174
 20
19.005466570754706
 11
18.161520654665395
 21
18.800648249489328
  0
LINE
  8
_0-0_
  6
CONTINUOUS
 62
    7
 10
18.161520654665395
 20
18.800648249489328
 11
17.547065690869289
 21
15.971595187011459
  0
LINE
  8
_0-0_
  6
CONTINUOUS
 62
    7
 10
18.020708058795435
 20
18.096585270139641
 11
20.900965701589655
 21
16.381231829542216
  0
LINE
  8
_0-0_
  6
CONTINUOUS
 62
    7
 10
17.700679431818287
 20
16.637254731123917
 11
20.708948525403372
 21
14.883497855289207
  0
LINE
  8
_0-0_
  6
CONTINUOUS
 62
    7
 10
17.547065690869289
 20
15.971595187011459
 11
18.430344701326163
 21
15.062713886396395
  0
LINE
  8
_0-0_
  6
CONTINUOUS
 62
    7
 10
18.430344701326163
 20
15.062713886396395
 11
18.084713784190853
 21
13.142542124533591
  0
LINE
  8
_0-0_
  6
CONTINUOUS
 62
    7
 10
18.084713784190853
 20
13.142542124533591
 11
17.124627903259437
 21
13.308957010561713
  0
LINE
  8
_0-0_
  6
CONTINUOUS
 62
    7
 10
17.124627903259437
 20
13.308957010561713
 11
16.535775229621521
 21
10.889540590614573
  0
LINE
  8
_0-0_
  6
CONTINUOUS
 62
    7
 10
16.868605001677736
 20
12.19525738868127
 11
19.851271805104631
 21
10.659119979191033
  0
LINE
  8
_0-0_
  6
CONTINUOUS
 62
    7
 10
18.084713784190853
 20
13.142542124533591
 11
20.171300432081779
 21
12.028842502653177
  0
LINE
  8
_0-0_
  6
CONTINUOUS
 62
    7
 10
18.391941266088907
 20
14.768287549577437
 11
20.42732333366348
 21
13.552178767064319
  0
LINE
  8
_0-0_
  6
CONTINUOUS
 62
    7
 10
16.535775229621521
 20
10.889540590614573
 11
19.55320352892133
 21
9.2281911314866676
  0
LINE
  8
_0-0_
  6
CONTINUOUS
 62
    7
 10
17.29933227813919
 20
10.466233086141628
 11
16.966013290347462
 21
8.9266168091989044
  0
LINE
  8
_0-0_
  6
CONTINUOUS
 62
    7
 10
16.077162656236197
 20
9.3075527952465933
 11
19.330990870393521
 21
7.8155535165598309
  0
LINE
  8
_0-0_
  6
CONTINUOUS
 62
    7
 10
15.727971335692473
 20
7.9425321785757177
 11
19.045288880857754
 21
6.4187882343849623
  0
LINE
  8
_0-0_
  6
CONTINUOUS
 62
    7
 10
18.553246565546146
 20
5.0855122832180513
 11
16.489843307787851
 21
6.0378522483372734
  0
LINE
  8
_0-0_
  6
CONTINUOUS
 62
    7
 10
16.489843307787851
 20
6.0378522483372734
 11
15.474014011660671
 21
7.2917665357442587
  0
LINE
  8
_0-0_
  6
CONTINUOUS
 62
    7
 10
15.474014011660671
 20
7.2917665357442587
 11
16.077162656236197
 21
9.3075527952465933
  0
LINE
  8
_0-0_
  6
CONTINUOUS
 62
    7
 10
16.489843307787851
 20
6.0378522483372734
 11
16.220013651004081
 21
4.4506189731385888
  0
LINE
  8
_0-0_
  6
CONTINUOUS
 62
    7
 10
16.220013651004081
 20
4.4506189731385888
 11
15.013716361853056
 21
4.4347466403865923
  0
LINE
  8
_0-0_
  6
CONTINUOUS
 62
    7
 10
15.013716361853056
 20
4.4347466403865923
 11
15.172439689372936
 21
3.56176833902731
  0
LINE
  8
_0-0_
  6
CONTINUOUS
 62
    7
 10
15.172439689372936
 20
3.56176833902731
 11
18.029459584730603
 21
2.0697690603405334
  0
LINE
  8
_0-0_
  6
CONTINUOUS
 62
    7
 10
18.346906239770334
 20
3.4824066752673843
 11
16.220013651004081
 21
4.4506189731385888
  0
LINE
  8
_0-0_
  6
CONTINUOUS
 62
    7
 10
17.775502260698801
 20
0.7206207764216401
 11
15.537503342668629
 21
1.6094714105329189
  0
LINE
  8
_0-0_
  6
CONTINUOUS
 62
    7
 10
15.664482004684544
 20
3.2443216839875788
 11
15.331163016892816
 21
-0.1841021904416066
  0
LINE
  8
_0-0_
  6
CONTINUOUS
 62
    7
 10
15.331163016892816
 20
-0.1841021904416066
 11
14.854993034333205
 21
-3.1681007478151599
  0
LINE
  8
_0-0_
  6
CONTINUOUS
 62
    7
 10
14.854993034333205
 20
-3.1681007478151599
 11
14.601035710301403
 21
-3.1681007478151599
  0
LINE
  8
_0-0_
  6
CONTINUOUS
 62
    7
 10
14.601035710301403
 20
-3.1681007478151599
 11
14.204227391501746
 21
-5.0886530108055865
  0
LINE
  8
_0-0_
  6
CONTINUOUS
 62
    7
 10
14.204227391501746
 20
-5.0886530108055865
 11
13.616951079678216
 21
-6.4854182929804409
  0
LINE
  8
_0-0_
  6
CONTINUOUS
 62
    7
 10
13.616951079678216
 20
-6.4854182929804409
 11
12.950313104094761
 21
-6.2314609689486531
  0
LINE
  8
_0-0_
  6
CONTINUOUS
 62
    7
 10
12.950313104094761
 20
-6.2314609689486531
 11
12.870951440334835
 21
-7.0726946048039565
  0
LINE
  8
_0-0_
  6
CONTINUOUS
 62
    7
 10
12.870951440334835
 20
-7.0726946048039565
 11
13.648695745182209
 21
-7.7552049131393943
  0
LINE
  8
_0-0_
  6
CONTINUOUS
 62
    7
 10
13.648695745182209
 20
-7.7552049131393943
 11
13.220142760878559
 21
-9.6598848433778244
  0
LINE
  8
_0-0_
  6
CONTINUOUS
 62
    7
 10
13.220142760878559
 20
-9.6598848433778244
 11
12.172568799247415
 21
-9.6916295088818032
  0
LINE
  8
_0-0_
  6
CONTINUOUS
 62
    7
 10
14.204227391501746
 20
-5.0886530108055865
 11
16.346992313019967
 21
-5.8505249829009642
  0
LINE
  8
_0-0_
  6
CONTINUOUS
 62
    7
 10
13.616951079678216
 20
-6.4854182929804409
 11
16.17239665274812
 21
-7.2949072633317797
  0
LINE
  8
_0-0_
  6
CONTINUOUS
 62
    7
 10
15.823205332204424
 20
-8.6916725455066342
 11
13.601078746926248
 21
-7.961545238915221
  0
LINE
  8
_0-0_
  6
CONTINUOUS
 62
    7
 10
15.553375675420654
 20
-10.294778153457315
 11
13.236015093630556
 21
-9.596395512369881
  0
LINE
  8
_0-0_
  6
CONTINUOUS
 62
    7
 10
15.235929020380894
 20
-11.659798770128191
 11
12.061462469983496
 21
-10.675714139505004
  0
LINE
  8
_0-0_
  6
CONTINUOUS
 62
    7
 10
14.886737699837198
 20
-13.008947054047084
 11
12.029717804479532
 21
-12.231202749199724
  0
LINE
  8
_0-0_
  6
CONTINUOUS
 62
    7
 10
14.664525041309361
 20
-14.516818665485843
 11
11.458313825407998
 21
-13.707329695134504
  0
LINE
  8
_0-0_
  6
CONTINUOUS
 62
    7
 10
12.172568799247415
 20
-9.6916295088818032
 11
12.061462469983496
 21
-10.675714139505004
  0
LINE
  8
_0-0_
  6
CONTINUOUS
 62
    7
 10
12.061462469983496
 20
-10.675714139505004
 11
12.029717804479532
 21
-12.231202749199724
  0
LINE
  8
_0-0_
  6
CONTINUOUS
 62
    7
 10
12.347164459519263
 20
-12.31056441295965
 11
12.220185797503376
 21
-13.802563691646426
  0
LINE
  8
_0-0_
  6
CONTINUOUS
 62
    7
 10
11.458313825407998
 20
-13.707329695134504
 11
11.156739503120264
 21
-15.167584308317316
  0
LINE
  8
_0-0_
  6
CONTINUOUS
 62
    7
 10
11.156739503120264
 20
-15.167584308317316
 11
10.934526844592455
 21
-16.167541271692485
  0
LINE
  8
_0-0_
  6
CONTINUOUS
 62
    7
 10
10.934526844592455
 20
-16.167541271692485
 11
11.791632813199755
 21
-16.86592391277992
  0
LINE
  8
_0-0_
  6
CONTINUOUS
 62
    7
 10
11.791632813199755
 20
-16.86592391277992
 11
11.44244149265603
 21
-18.786476175770346
  0
LINE
  8
_0-0_
  6
CONTINUOUS
 62
    7
 10
11.44244149265603
 20
-18.786476175770346
 11
10.331378200016928
 21
-18.754731510266367
  0
LINE
  8
_0-0_
  6
CONTINUOUS
 62
    7
 10
10.331378200016928
 20
-18.754731510266367
 11
10.140910206993084
 21
-20.151496792441222
  0
LINE
  8
_0-0_
  6
CONTINUOUS
 62
    7
 10
10.140910206993084
 20
-20.151496792441222
 11
10.109165541489119
 21
-21.341921748840235
  0
LINE
  8
_0-0_
  6
CONTINUOUS
 62
    7
 10
14.39469538452559
 20
-16.024690276924602
 11
11.109122504864303
 21
-15.183456641069299
  0
LINE
  8
_0-0_
  6
CONTINUOUS
 62
    7
 10
14.12486572774182
 20
-17.453200224603435
 11
11.791632813199755
 21
-16.86592391277992
  0
LINE
  8
_0-0_
  6
CONTINUOUS
 62
    7
 10
13.791546739950093
 20
-19.072178165306099
 11
11.44244149265603
 21
-18.596008182746502
  0
LINE
  8
_0-0_
  6
CONTINUOUS
 62
    7
 10
13.474100084910361
 20
-20.48481578023295
 11
10.172654872497077
 21
-19.722943808137572
  0
LINE
  8
_0-0_
  6
CONTINUOUS
 62
    7
 10
13.15665342987063
 20
-22.008559724423691
 11
10.109165541489119
 21
-21.341921748840235
  0
LINE
  8
_0-0_
  6
CONTINUOUS
 62
    7
 10
10.109165541489119
 20
-21.341921748840235
 11
9.7282295554414304
 21
-22.008559724423691
  0
LINE
  8
_0-0_
  6
CONTINUOUS
 62
    7
 10
9.7282295554414304
 20
-22.008559724423691
 11
10.490101527536808
 21
-22.881538025782973
  0
LINE
  8
_0-0_
  6
CONTINUOUS
 62
    7
 10
10.490101527536808
 20
-22.881538025782973
 11
12.870951440334835
 21
-23.405325006598545
  0
LINE
  8
_0-0_
  6
CONTINUOUS
 62
    7
 10
12.870951440334835
 20
-23.405325006598545
 11
10.696441853312621
 21
-23.230729346326683
  0
LINE
  8
_0-0_
  6
CONTINUOUS
 62
    7
 10
10.696441853312621
 20
-23.230729346326683
 11
10.759931184320578
 21
-23.548176001366429
  0
LINE
  8
_0-0_
  6
CONTINUOUS
 62
    7
 10
10.759931184320578
 20
-23.548176001366429
 11
10.521846193040773
 21
-24.183069311445905
  0
LINE
  8
_0-0_
  6
CONTINUOUS
 62
    7
 10
10.521846193040773
 20
-24.183069311445905
 11
11.07737783936031
 21
-24.611622295749555
  0
LINE
  8
_0-0_
  6
CONTINUOUS
 62
    7
 10
11.07737783936031
 20
-24.611622295749555
 11
11.394824494400069
 21
-24.087835314933983
  0
LINE
  8
_0-0_
  6
CONTINUOUS
 62
    7
 10
10.744058851568582
 20
-23.929111987414117
 11
11.950356140719606
 21
-24.071962982182001
  0
LINE
  8
_0-0_
  6
CONTINUOUS
 62
    7
 10
11.950356140719606
 20
-24.071962982182001
 11
11.7122711494398
 21
-24.548132964741598
  0
LINE
  8
_0-0_
  6
CONTINUOUS
 62
    7
 10
11.7122711494398
 20
-24.548132964741598
 11
12.505887787039143
 21
-24.944941283541283
  0
LINE
  8
_0-0_
  6
CONTINUOUS
 62
    7
 10
12.505887787039143
 20
-24.944941283541283
 11
12.315419794015298
 21
-25.357621935092936
  0
LINE
  8
_0-0_
  6
CONTINUOUS
 62
    7
 10
12.315419794015298
 20
-25.357621935092936
 11
12.394781457775224
 21
-26.516302225987985
  0
LINE
  8
_0-0_
  6
CONTINUOUS
 62
    7
 10
8.9822299160980492
 20
-23.357708008342584
 11
9.4583998986576603
 21
-23.484686670358471
  0
LINE
  8
_0-0_
  6
CONTINUOUS
 62
    7
 10
9.4583998986576603
 20
-23.484686670358471
 11
9.5853785606735471
 21
-23.056133686054835
  0
LINE
  8
_0-0_
  6
CONTINUOUS
 62
    7
 10
9.5853785606735471
 20
-23.056133686054835
 11
10.125037874241087
 21
-23.611665332374372
  0
LINE
  8
_0-0_
  6
CONTINUOUS
 62
    7
 10
10.125037874241087
 20
-23.611665332374372
 11
10.061548543233158
 21
-24.64336696125352
  0
LINE
  8
_0-0_
  6
CONTINUOUS
 62
    7
 10
10.061548543233158
 20
-24.64336696125352
 11
11.236101166880189
 21
-25.278260271332996
  0
LINE
  8
_0-0_
  6
CONTINUOUS
 62
    7
 10
11.236101166880189
 20
-25.278260271332996
 11
11.156739503120264
 21
-25.659196257380685
  0
LINE
  8
_0-0_
  6
CONTINUOUS
 62
    7
 10
11.156739503120264
 20
-25.659196257380685
 11
9.966314546721236
 21
-25.833791917652547
  0
LINE
  8
_0-0_
  6
CONTINUOUS
 62
    7
 10
9.966314546721236
 20
-25.833791917652547
 11
9.6329955589295082
 21
-27.373408194595285
  0
LINE
  8
_0-0_
  6
CONTINUOUS
 62
    7
 10
9.6329955589295082
 20
-27.373408194595285
 11
10.442484529280847
 21
-27.421025192851246
  0
LINE
  8
_0-0_
  6
CONTINUOUS
 62
    7
 10
12.966185436846757
 20
-26.436940562228045
 11
10.871037513584497
 21
-26.643280888003886
  0
LINE
  8
_0-0_
  6
CONTINUOUS
 62
    7
 10
10.871037513584497
 20
-26.643280888003886
 11
10.744058851568582
 21
-26.960727543043618
  0
LINE
  8
_0-0_
  6
CONTINUOUS
 62
    7
 10
12.966185436846757
 20
-26.436940562228045
 11
15.426397013404738
 21
-26.802004215523752
  0
LINE
  8
_0-0_
  6
CONTINUOUS
 62
    7
 10
12.966185436846757
 20
-26.436940562228045
 11
12.474143121535178
 21
-29.754258107393326
  0
LINE
  8
_0-0_
  6
CONTINUOUS
 62
    7
 10
12.474143121535178
 20
-29.754258107393326
 11
10.363122865520893
 21
-29.516173116113521
  0
LINE
  8
_0-0_
  6
CONTINUOUS
 62
    7
 10
10.363122865520893
 20
-29.516173116113521
 11
10.744058851568582
 21
-26.960727543043618
  0
LINE
  8
_0-0_
  6
CONTINUOUS
 62
    7
 10
10.363122865520893
 20
-29.516173116113521
 11
9.5695062279215506
 21
-29.309832790337694
  0
LINE
  8
_0-0_
  6
CONTINUOUS
 62
    7
 10
9.2361872401298228
 20
-28.119407833938666
 11
10.490101527536808
 21
-28.468599154482376
  0
LINE
  8
_0-0_
  6
CONTINUOUS
 62
    7
 10
9.3472935693937416
 20
-27.722599515138995
 11
8.6489109283063215
 21
-27.56387618761913
  0
LINE
  8
_0-0_
  6
CONTINUOUS
 62
    7
 10
8.5536769317943993
 20
-25.50047292986082
 11
9.6806125571854693
 21
-25.77030258664459
  0
LINE
  8
_0-0_
  6
CONTINUOUS
 62
    7
 10
9.5695062279215506
 20
-29.309832790337694
 11
9.6647402244334728
 21
-29.452683785105577
  0
LINE
  8
_0-0_
  6
CONTINUOUS
 62
    7
 10
9.6647402244334728
 20
-29.452683785105577
 11
-33.396898531707166
 21
-18.056348869178919
  0
LINE
  8
_0-0_
  6
CONTINUOUS
 62
    7
 10
-33.841323848762812
 20
-14.342223005213967
 11
8.1568686129947139
 21
-24.595749962997559
  0
LINE
  8
_0-0_
  6
CONTINUOUS
 62
    7
 10
8.4743152680344451
 20
-24.310047973461792
 11
-33.650855855738968
 21
-14.0565210156782
  0
LINE
  8
_0-0_
  6
CONTINUOUS
 62
    7
 10
11.140867170368267
 20
-25.516345262612802
 11
9.077463912609943
 21
-25.071919945557156
  0
ARC
  8
_0-0_
  6
CONTINUOUS
 62
    7
 10
8.4761334446638443
 20
-24.72124375441166
 40
0.4111998006288812
 50
34.099935760842541
 51
90.253342016620621
  0
ARC
  8
_0-0_
  6
CONTINUOUS
 62
    7
 10
8.8229923460072257
 20
-26.545403385337877
 40
2.0547037363813718
 50
90.177361124117141
 51
109.03304718590833
  0
ARC
  8
_0-0_
  6
CONTINUOUS
 62
    7
 10
13.295473356002873
 20
-25.959291023425635
 40
5.3183871627798922
 50
165.22559815139581
 51
190.19318176332729
  0
ARC
  8
_0-0_
  6
CONTINUOUS
 62
    7
 10
12.500367525091264
 20
-26.468231936589532
 40
4.4603326979572762
 50
185.56114022687217
 51
213.37946379206221
  0
ARC
  8
_0-0_
  6
CONTINUOUS
 62
    7
 10
9.286331679906823
 20
-28.654189185370669
 40
0.5766257019685702
 50
207.6994728080536
 51
275.07960786001422
  0
LINE
  8
_0-0_
  6
CONTINUOUS
 62
    7
 10
1.4341774600719361
 20
-23.878057668689564
 11
-33.670772094924558
 21
-15.178401758027249
  0
ARC
  8
_0-0_
  6
CONTINUOUS
 62
    7
 10
-33.29697283245217
 20
-14.461125181551665
 40
0.5571855673797279
 50
80.089137875750652
 51
167.67845307067972
  0
ARC
  8
_0-0_
  6
CONTINUOUS
 62
    7
 10
-29.29031154835441
 20
-23.929111987426296
 40
10.753207939575752
 50
107.74674432988417
 51
111.32656554637198
  0
ARC
  8
_0-0_
  6
CONTINUOUS
 62
    7
 10
-25.833738377113988
 20
-16.56467116979492
 40
8.3102768263163487
 50
164.48838544765621
 51
178.32677651465687
  0
ARC
  8
_0-0_
  6
CONTINUOUS
 62
    7
 10
-32.029865375807404
 20
-16.443685597874548
 40
2.1141103272874311
 50
176.70080363342248
 51
229.7125000190257
  0
LINE
  8
_0-0_
  6
CONTINUOUS
 62
    7
 10
20.64829145934516
 20
1.0854880298029883
 11
23.841885429599955
 21
-0.3825350049109062
  0
LINE
  8
_0-0_
  6
CONTINUOUS
 62
    7
 10
19.92715733702957
 20
0.4158634876527997
 11
18.536398672563763
 21
-6.6667037850896804
  0
LINE
  8
_0-0_
  6
CONTINUOUS
 62
    7
 10
18.871210943638886
 20
-7.9029337090592833
 11
23.816130639517269
 21
-9.7315238049309727
  0
LINE
  8
_0-0_
  6
CONTINUOUS
 62
    7
 10
19.257532794879381
 20
-8.0317076594727865
 11
15.703371763466777
 21
-26.188834667776234
  0
LINE
  8
_0-0_
  6
CONTINUOUS
 62
    7
 10
18.871210943638857
 20
-9.9890717057579792
 11
35.611824497393826
 21
-13.105401305764673
  0
LINE
  8
_0-0_
  6
CONTINUOUS
 62
    7
 10
35.611824497393826
 20
-13.105401305764673
 11
37.054092742025034
 21
-5.6107573916989963
  0
LINE
  8
_0-0_
  6
CONTINUOUS
 62
    7
 10
37.054092742025034
 20
-5.6107573916989963
 11
24.794812662659865
 21
-0.4340445850763075
  0
ARC
  8
_0-0_
  6
CONTINUOUS
 62
    7
 10
14.841749361563274
 20
-26.168772196911775
 40
0.8618559428344915
 50
312.71553464909016
 51
358.66613584803423
  0
ARC
  8
_0-0_
  6
CONTINUOUS
 62
    7
 10
19.602120969444996
 20
-7.0415247867105535
 40
1.1297144760185631
 50
160.62291715667328
 51
229.68521894395388
  0
ARC
  8
_0-0_
  6
CONTINUOUS
 62
    7
 10
23.973366218588154
 20
-9.1946469129804598
 40
0.5594281226718975
 50
253.67623168881278
 51
314.68602250984247
  0
ARC
  8
_0-0_
  6
CONTINUOUS
 62
    7
 10
20.633095333689738
 20
0.3787378281868711
 40
0.7069135518006192
 50
88.768249763075517
 51
176.98955744360106
  0
ARC
  8
_0-0_
  6
CONTINUOUS
 62
    7
 10
25.939685346788792
 20
-3.844460717432554
 40
3.5974534963916236
 50
108.55684149371618
 51
168.70515305084959
  0
ARC
  8
_0-0_
  6
CONTINUOUS
 62
    7
 10
27.344665416594836
 20
-5.4093809786773051
 40
5.429805558477792
 50
155.29334265431368
 51
191.80758793800143
  0
ARC
  8
_0-0_
  6
CONTINUOUS
 62
    7
 10
26.93045906332091
 20
-6.213953834843835
 40
4.9102816467643287
 50
183.57878810946369
 51
211.96385353635435
  0
ARC
  8
_0-0_
  6
CONTINUOUS
 62
    7
 10
24.105122170198797
 20
-6.8740125450462131
 40
2.3734133767203787
 50
194.68894736656907
 51
232.99116490336496
  0
ARC
  8
_0-0_
  6
CONTINUOUS
 62
    7
 10
31.297832342168391
 20
-5.5554939750770131
 40
9.6809279723162938
 50
169.47175068074549
 51
191.44131014745267
  0
ARC
  8
_0-0_
  6
CONTINUOUS
 62
    7
 10
26.927094068678599
 20
-4.6920207703115437
 40
5.2262394704657948
 50
135.86505269006082
 51
170.02335667458263
  0
ARC
  8
_0-0_
  6
CONTINUOUS
 62
    7
 10
24.922592313872514
 20
-2.409988793585029
 40
2.2117875831071343
 50
108.92924811803947
 51
142.14610746590816
  0
LINE
  8
_0-0_
  6
CONTINUOUS
 62
    7
 10
24.205087692454725
 20
-0.3178149406198826
 11
24.794812662659865
 21
-0.4340445850763075
  0
LINE
  8
_0-0_
  6
CONTINUOUS
 62
    7
 10
22.676474073131203
 20
-8.7692844705335204
 11
34.582022454400857
 21
-12.89948088428261
  0
ARC
  8
_0-0_
  6
CONTINUOUS
 62
    7
 10
22.736687402247611
 20
23.279589835295539
 40
0.5891382082853953
 50
343.06905355446168
 51
41.120460599561042
  0
ARC
  8
_0-0_
  6
CONTINUOUS
 62
    7
 10
20.137051582390626
 20
23.932035365652283
 40
1.157134763498576
 50
85.764899366844958
 51
145.45708028072303
  0
ARC
  8
_0-0_
  6
CONTINUOUS
 62
    7
 10
22.672196028041554
 20
21.954877312035094
 40
4.3706123039702449
 50
142.95106162986735
 51
172.32508558847434
  0
ARC
  8
_0-0_
  6
CONTINUOUS
 62
    7
 10
-21.299424454949502
 20
25.421226353941691
 40
2.4153917552281339
 50
114.44821132894809
 51
155.97720361096597
  0
ARC
  8
_0-0_
  6
CONTINUOUS
 62
    7
 10
-20.51367536311318
 20
24.295261568903399
 40
3.6606909748056102
 50
144.81665471317058
 51
171.67974069447951
  0
ARC
  8
_0-0_
  6
CONTINUOUS
 62
    7
 10
-22.726032563512604
 20
24.949720055358156
 40
1.4153111016579467
 50
185.05615343226555
 51
200.00146198603306
  0
LINE
  8
_0-0_
  6
CONTINUOUS
 62
    7
 10
-22.613755231863706
 20
24.117898163128402
 11
-15.962075472701002
 21
23.736812343593058
  0
LINE
  8
_0-0_
  6
CONTINUOUS
 62
    7
 10
-13.12125390889193
 20
23.459659020294609
 11
-5.742046676070828
 21
22.974640704522315
  0
LINE
  8
_0-0_
  6
CONTINUOUS
 62
    7
 10
-2.7280042852002282
 20
22.62819905039926
 11
5.2055095942177729
 21
22.143180734626995
  0
LINE
  8
_0-0_
  6
CONTINUOUS
 62
    7
 10
8.3927728121499001
 20
21.969959907565467
 11
16.915237503577089
 21
21.484941591793174
  0
LINE
  8
_0-0_
  6
CONTINUOUS
 62
    7
 10
-22.890908555162142
 20
22.247113230863917
 11
-16.551026284710218
 21
21.727450749679306
  0
LINE
  8
_0-0_
  6
CONTINUOUS
 62
    7
 10
-22.856264389749839
 20
23.563591516531531
 11
-16.447093788473296
 21
23.113217366171554
  0
LINE
  8
_0-0_
  6
CONTINUOUS
 62
    7
 10
-13.225186405128852
 20
22.697487381223866
 11
-6.3309974880800155
 21
22.385689892513128
  0
LINE
  8
_0-0_
  6
CONTINUOUS
 62
    7
 10
-13.39840723219038
 20
21.554229922617779
 11
-6.6081508113784651
 21
20.999923276020908
  0
LINE
  8
_0-0_
  6
CONTINUOUS
 62
    7
 10
-3.074445939323283
 20
22.039248238390073
 11
4.3394054589101358
 21
21.727450749679306
  0
LINE
  8
_0-0_
  6
CONTINUOUS
 62
    7
 10
-3.1783784355602052
 20
20.757414118134747
 11
4.0622521356116863
 21
20.203107471537876
  0
LINE
  8
_0-0_
  6
CONTINUOUS
 62
    7
 10
8.3234844813252664
 20
21.346364930143963
 11
16.187710029918662
 21
20.792058283547064
  0
LINE
  8
_0-0_
  6
CONTINUOUS
 62
    7
 10
7.9423986617899232
 20
19.89130998282711
 11
15.598759217909475
 21
19.267715005405606
  0
LINE
  8
_0-0_
  6
CONTINUOUS
 62
    7
 10
17.746697473472437
 20
20.133819140713243
 11
8.9124352933344824
 21
-22.305283489361202
  0
LINE
  8
_0-0_
  6
CONTINUOUS
 62
    7
 10
7.9077544963776063
 20
-21.820265173588922
 11
16.8805933381648
 21
19.925954148239427
  0
LINE
  8
_0-0_
  6
CONTINUOUS
 62
    7
 10
15.737335879558685
 20
18.955917516694868
 11
7.4573803460176293
 21
-20.954161038281271
  0
LINE
  8
_0-0_
  6
CONTINUOUS
 62
    7
 10
7.0070061956576524
 20
-21.127381865342812
 11
-0.1989802101019222
 21
-19.499106090964432
  0
LINE
  8
_0-0_
  6
CONTINUOUS
 62
    7
 10
6.7298528723592312
 20
-22.790301805133481
 11
-0.9611518491726371
 21
-21.058093534518193
  0
LINE
  8
_0-0_
  6
CONTINUOUS
 62
    7
 10
-1.2729493378834036
 20
-21.577756015702775
 11
7.2148711881314966
 21
-23.587117609616513
  0
LINE
  8
_0-0_
  6
CONTINUOUS
 62
    7
 10
0.3553264364949768
 20
-19.325885263902904
 11
8.7045703008606381
 21
19.47557999787945
  0
LINE
  8
_0-0_
  6
CONTINUOUS
 62
    7
 10
7.9423986617899232
 20
19.89130998282711
 11
-0.3722010371634496
 21
-19.395173594727524
  0
LINE
  8
_0-0_
  6
CONTINUOUS
 62
    7
 10
-1.7926118190679858
 20
-19.810903579675184
 11
6.6259203761223091
 21
20.480260794836326
  0
LINE
  8
_0-0_
  6
CONTINUOUS
 62
    7
 10
5.8637487370515657
 20
21.138499937670119
 11
-2.7972926160248335
 21
-19.706971083438276
  0
LINE
  8
_0-0_
  6
CONTINUOUS
 62
    7
 10
-4.5987892174647413
 20
-20.850228542044363
 11
-12.151217277347371
 21
-19.118020271429074
  0
LINE
  8
_0-0_
  6
CONTINUOUS
 62
    7
 10
-11.215824811215128
 20
-17.004726181278428
 11
-4.3562800595786086
 21
-18.459781128595267
  0
LINE
  8
_0-0_
  6
CONTINUOUS
 62
    7
 10
-5.1184516986493236
 20
-19.949480241324409
 11
-11.839419788636633
 21
-18.459781128595267
  0
LINE
  8
_0-0_
  6
CONTINUOUS
 62
    7
 10
-3.5941084205078653
 20
-19.118020271429074
 11
5.0669329325685339
 21
20.861346614371669
  0
LINE
  8
_0-0_
  6
CONTINUOUS
 62
    7
 10
4.0622521356116863
 20
20.203107471537876
 11
-4.1137709016924759
 21
-17.836186151173777
  0
LINE
  8
_0-0_
  6
CONTINUOUS
 62
    7
 10
-10.696162330030546
 20
-16.970082015866126
 11
-2.4508509619017786
 21
20.514904960248614
  0
LINE
  8
_0-0_
  6
CONTINUOUS
 62
    7
 10
-3.1783784355602052
 20
20.757414118134747
 11
-11.319757307452051
 21
-16.866149519629218
  0
LINE
  8
_0-0_
  6
CONTINUOUS
 62
    7
 10
-12.740168089356587
 20
-17.247235339164575
 11
-4.0791267362801591
 21
21.623518253442413
  0
LINE
  8
_0-0_
  6
CONTINUOUS
 62
    7
 10
-13.814137217138068
 20
-17.039370346690745
 11
-4.7720100445262688
 21
21.415653260968568
  0
LINE
  8
_0-0_
  6
CONTINUOUS
 62
    7
 10
-5.6381141798339058
 20
21.727450749679306
 11
-14.680241352445705
 21
-16.658284527155374
  0
LINE
  8
_0-0_
  6
CONTINUOUS
 62
    7
 10
-15.30383632986721
 20
-15.688247895610814
 11
-6.6081508113784651
 21
20.999923276020908
  0
LINE
  8
_0-0_
  6
CONTINUOUS
 62
    7
 10
-12.774812254768875
 20
21.450297426380885
 11
-21.435853607845303
 21
-14.44105794076782
  0
LINE
  8
_0-0_
  6
CONTINUOUS
 62
    7
 10
-21.747651096556055
 20
-14.579634602417045
 11
-15.407768826104103
 21
-15.896112888084659
  0
LINE
  8
_0-0_
  6
CONTINUOUS
 62
    7
 10
-15.684922149402553
 20
-17.316523669989181
 11
-22.509822735626784
 21
-15.826824557260039
  0
LINE
  8
_0-0_
  6
CONTINUOUS
 62
    7
 10
-22.717687728100614
 20
-16.450419534681544
 11
-15.30383632986721
 21
-18.147983639884529
  0
LINE
  8
_0-0_
  6
CONTINUOUS
 62
    7
 10
-21.990160254442202
 20
-14.3717696099432
 11
-13.363763066778091
 21
21.623518253442413
  0
LINE
  8
_0-0_
  6
CONTINUOUS
 62
    7
 10
-14.507020525384178
 20
22.48962238875005
 11
-23.237350209285211
 21
-14.544990437004728
  0
LINE
  8
_0-0_
  6
CONTINUOUS
 62
    7
 10
-23.860945186706701
 20
-14.683567098653953
 11
-14.888106344919521
 21
22.454978223337733
  0
LINE
  8
_0-0_
  6
CONTINUOUS
 62
    7
 10
-15.754210480227158
 20
22.558910719574655
 11
-24.588472660365127
 21
-14.198548782881673
  0
LINE
  8
_0-0_
  6
CONTINUOUS
 62
    7
 10
-24.761693487426655
 20
-13.159223820512508
 11
-16.377805457648691
 21
21.588874088030096
  0
LINE
  8
_0-0_
  6
CONTINUOUS
 62
    7
 10
-22.198025246916032
 20
22.039248238390073
 11
-30.720489938343235
 21
-12.258475519792555
  0
LINE
  8
_0-0_
  6
CONTINUOUS
 62
    7
 10
-31.517305742826267
 20
-12.362408016029477
 11
-25.419932630260462
 21
-13.574953805460169
  0
LINE
  8
_0-0_
  6
CONTINUOUS
 62
    7
 10
-25.419932630260462
 20
-14.822143760303177
 11
-32.140900720247771
 21
-13.401732978398641
  0
LINE
  8
_0-0_
  6
CONTINUOUS
 62
    7
 10
-32.002324058598546
 20
-14.025327955820146
 11
-25.246711803198934
 21
-15.688247895610814
  0
LINE
  8
_0-0_
  6
CONTINUOUS
 62
    7
 10
-31.378729081177042
 20
-12.11989885814333
 11
-22.960196885986761
 21
22.247113230863917
  0
LINE
  8
_0-0_
  6
CONTINUOUS
 62
    7
 10
-23.791656855882096
 20
23.04392903534692
 11
-32.418054043546206
 21
-12.293119685204857
  0
ARC
  8
_0-0_
  6
CONTINUOUS
 62
    7
 10
-22.257089324045864
 20
22.543785583943489
 40
1.6140139348059142
 50
102.76663996793265
 51
161.9482694439379
  0
ARC
  8
_0-0_
  6
CONTINUOUS
 62
    7
 10
-16.311182062625022
 20
22.572901632529593
 40
0.5571472778755161
 50
358.56105455499886
 51
104.11932893682307
  0
ARC
  8
_0-0_
  6
CONTINUOUS
 62
    7
 10
-16.315856992377661
 20
22.349577753990005
 40
1.4316358371652669
 50
4.2220729159664199
 51
75.693024945691732
  0
ARC
  8
_0-0_
  6
CONTINUOUS
 62
    7
 10
-12.231445870933669
 20
20.713653067087463
 40
2.8865735811623026
 50
107.9542524029337
 51
142.0297879941829
  0
ARC
  8
_0-0_
  6
CONTINUOUS
 62
    7
 10
-6.3618392450934209
 20
21.659429888321014
 40
0.7269145807210203
 50
5.369294456766446
 51
87.568306972003043
  0
ARC
  8
_0-0_
  6
CONTINUOUS
 62
    7
 10
-5.9794424502747745
 20
21.745644882315773
 40
1.2517138189742152
 50
344.71432745486595
 51
79.067256148826559
  0
ARC
  8
_0-0_
  6
CONTINUOUS
 62
    7
 10
-2.7166919046574094
 20
21.2021320782233
 40
1.4261118396131081
 50
90.454493427989476
 51
162.81373432394497
  0
ARC
  8
_0-0_
  6
CONTINUOUS
 62
    7
 10
3.9693865255482592
 20
20.678021239064989
 40
1.1127516833482978
 50
9.4826875229785017
 51
70.577831020800218
  0
ARC
  8
_0-0_
  6
CONTINUOUS
 62
    7
 10
4.6821727318530861
 20
21.082334396774414
 40
1.1829101504530817
 50
2.7214736618636906
 51
63.741948474094727
  0
ARC
  8
_0-0_
  6
CONTINUOUS
 62
    7
 10
8.3612403981219359
 20
20.214724676706069
 40
1.7555184444443932
 50
88.97080465937286
 51
171.30016646510589
  0
ARC
  8
_0-0_
  6
CONTINUOUS
 62
    7
 10
15.857015723710219
 20
19.817297447628007
 40
1.0293286216754618
 50
6.0594746804046622
 51
71.26014182777827
  0
ARC
  8
_0-0_
  6
CONTINUOUS
 62
    7
 10
16.389522728434912
 20
20.230029744659433
 40
1.360580673418301
 50
355.94506519687741
 51
67.269939295621754
  0
ARC
  8
_0-0_
  6
CONTINUOUS
 62
    7
 10
16.011024786315915
 20
19.264250588864385
 40
0.4122801245214781
 50
179.51853419416307
 51
228.40644375499295
  0
ARC
  8
_0-0_
  6
CONTINUOUS
 62
    7
 10
6.9476161978079745
 20
-20.300871061934942
 40
0.8286418285330027
 50
274.1099979612755
 51
307.96502408956991
  0
ARC
  8
_0-0_
  6
CONTINUOUS
 62
    7
 10
-0.2855906236327712
 20
-19.706971083438319
 40
1.5106008232703312
 50
183.94518622903581
 51
243.43494882292441
  0
ARC
  8
_0-0_
  6
CONTINUOUS
 62
    7
 10
1.2227362564285329
 20
-19.510683161315882
 40
3.2405611814930042
 50
185.93126847842038
 51
219.63354298254225
  0
ARC
  8
_0-0_
  6
CONTINUOUS
 62
    7
 10
6.5895337526863216
 20
-21.410275050366408
 40
1.3805063673297635
 50
271.51034538395254
 51
342.72337598258866
  0
ARC
  8
_0-0_
  6
CONTINUOUS
 62
    7
 10
7.481001367889661
 20
-22.174580501669297
 40
1.4373887274867554
 50
259.33021719550356
 51
354.78283918331493
  0
ARC
  8
_0-0_
  6
CONTINUOUS
 62
    7
 10
-4.1714569247716042
 20
-19.532610951608135
 40
1.3851819385933868
 50
252.03098388594839
 51
352.76869646188953
  0
ARC
  8
_0-0_
  6
CONTINUOUS
 62
    7
 10
-4.7825794509232367
 20
-18.752201372244897
 40
1.2434978315770813
 50
254.32961578251005
 51
342.89130354942017
  0
ARC
  8
_0-0_
  6
CONTINUOUS
 62
    7
 10
-4.5041839965311397
 20
-17.905474481998382
 40
0.3375249292083907
 50
247.48453052619206
 51
17.934249388530667
  0
ARC
  8
_0-0_
  6
CONTINUOUS
 62
    7
 10
-10.838608818667268
 20
-16.775485001635246
 40
1.959202909579187
 50
193.9329867455703
 51
239.28116287964571
  0
ARC
  8
_0-0_
  6
CONTINUOUS
 62
    7
 10
-10.861177960020768
 20
-17.645643241406091
 40
1.9575738961244369
 50
174.41419936349027
 51
228.77642153444569
  0
ARC
  8
_0-0_
  6
CONTINUOUS
 62
    7
 10
-15.34796338727196
 20
-16.533489668535111
 40
1.6150968951486471
 50
271.56560811584416
 51
341.74660871608967
  0
ARC
  8
_0-0_
  6
CONTINUOUS
 62
    7
 10
-15.850291960561293
 20
-15.968267462810317
 40
1.3583600313020929
 50
276.99266365311365
 51
329.47075848284635
  0
ARC
  8
_0-0_
  6
CONTINUOUS
 62
    7
 10
-21.742885632754778
 20
-14.544158371896557
 40
1.4944648081626493
 50
180.03190026368028
 51
239.12377709884237
  0
ARC
  8
_0-0_
  6
CONTINUOUS
 62
    7
 10
-21.041357143634201
 20
-14.969660851736208
 40
2.2366784537647613
 50
169.05500386171076
 51
221.45523354440519
  0
ARC
  8
_0-0_
  6
CONTINUOUS
 62
    7
 10
-24.986880562606643
 20
-14.588594300368484
 40
1.1299337604997546
 50
256.70571707232364
 51
355.17850667044075
  0
ARC
  8
_0-0_
  6
CONTINUOUS
 62
    7
 10
-25.367966382142015
 20
-14.025327955820146
 40
0.7985085580114071
 50
266.26860300084036
 51
347.47119229084871
  0
ARC
  8
_0-0_
  6
CONTINUOUS
 62
    7
 10
-25.781823709499761
 20
-12.272988616113992
 40
1.3513247231891461
 50
285.533673929283
 51
319.01761469987105
  0
ARC
  8
_0-0_
  6
CONTINUOUS
 62
    7
 10
-31.650108376906772
 20
-12.125672885712049
 40
0.2714407146047278
 50
299.29136217098375
 51
1.2188752351316825
  0
ARC
  8
_0-0_
  6
CONTINUOUS
 62
    7
 10
-31.586594073650886
 20
-12.674205504740229
 40
0.9146322120881545
 50
155.37643521383544
 51
232.69605172201662
  0
ARC
  8
_0-0_
  6
CONTINUOUS
 62
    7
 10
-30.55461787364203
 20
-12.598093323152668
 40
2.0329416850089062
 50
190.00712281145329
 51
224.59202161121149
  0
ARC
  8
_0-0_
  6
CONTINUOUS
 62
    7
 10
-19.604627618367715
 20
20.204652115855609
 40
0.6500441756443992
 50
92.037330696820788
 51
187.48995268463241
  0
ARC
  8
_0-0_
  6
CONTINUOUS
 62
    7
 10
-19.910186348860066
 20
19.845941572580173
 40
0.4358238554184938
 50
141.05023582289684
 51
277.44741685019653
  0
ARC
  8
_0-0_
  6
CONTINUOUS
 62
    7
 10
-20.162442745027136
 20
20.491484195667269
 40
1.1210441189456783
 50
285.98642157289834
 51
326.06832519730614
  0
ARC
  8
_0-0_
  6
CONTINUOUS
 62
    7
 10
-21.599539789857829
 20
19.09881461698258
 40
0.6500441756443992
 50
92.037330696820788
 51
187.48995268463241
  0
ARC
  8
_0-0_
  6
CONTINUOUS
 62
    7
 10
-21.90509852035018
 20
18.740104073707144
 40
0.4358238554184938
 50
141.05023582289684
 51
277.44741685019653
  0
ARC
  8
_0-0_
  6
CONTINUOUS
 62
    7
 10
-22.157354916517249
 20
19.38564669679424
 40
1.1210441189456783
 50
285.98642157289834
 51
326.06832519730614
  0
ARC
  8
_0-0_
  6
CONTINUOUS
 62
    7
 10
-18.125414055772836
 20
18.788120445641638
 40
0.6500441756443992
 50
92.037330696820788
 51
187.48995268463241
  0
ARC
  8
_0-0_
  6
CONTINUOUS
 62
    7
 10
-18.430972786265187
 20
18.429409902366203
 40
0.4358238554184938
 50
141.05023582289684
 51
277.44741685019653
  0
ARC
  8
_0-0_
  6
CONTINUOUS
 62
    7
 10
-18.683229182432257
 20
19.074952525453298
 40
1.1210441189456783
 50
285.98642157289834
 51
326.06832519730614
  0
ARC
  8
_0-0_
  6
CONTINUOUS
 62
    7
 10
-20.497987727830889
 20
17.065180040932816
 40
0.6500441756443992
 50
92.037330696820788
 51
187.48995268463241
  0
ARC
  8
_0-0_
  6
CONTINUOUS
 62
    7
 10
-20.80354645832324
 20
16.70646949765738
 40
0.4358238554184938
 50
141.05023582289684
 51
277.44741685019653
  0
ARC
  8
_0-0_
  6
CONTINUOUS
 62
    7
 10
-21.05580285449031
 20
17.352012120744476
 40
1.1210441189456783
 50
285.98642157289834
 51
326.06832519730614
  0
ARC
  8
_0-0_
  6
CONTINUOUS
 62
    7
 10
-22.41864260521119
 20
15.991872903573253
 40
0.6500441756443992
 50
92.037330696820788
 51
187.48995268463241
  0
ARC
  8
_0-0_
  6
CONTINUOUS
 62
    7
 10
-22.72420133570354
 20
15.633162360297817
 40
0.4358238554184938
 50
141.05023582289684
 51
277.44741685019653
  0
ARC
  8
_0-0_
  6
CONTINUOUS
 62
    7
 10
-22.97645773187061
 20
16.278704983384912
 40
1.1210441189456783
 50
285.98642157289834
 51
326.06832519730614
  0
ARC
  8
_0-0_
  6
CONTINUOUS
 62
    7
 10
-18.888027021791515
 20
15.568199033562891
 40
0.6500441756443992
 50
92.037330696820788
 51
187.48995268463241
  0
ARC
  8
_0-0_
  6
CONTINUOUS
 62
    7
 10
-19.193585752283866
 20
15.209488490287455
 40
0.4358238554184938
 50
141.05023582289684
 51
277.44741685019653
  0
ARC
  8
_0-0_
  6
CONTINUOUS
 62
    7
 10
-19.445842148450936
 20
15.855031113374551
 40
1.1210441189456783
 50
285.98642157289834
 51
326.06832519730614
  0
ARC
  8
_0-0_
  6
CONTINUOUS
 62
    7
 10
-21.430070241853684
 20
12.06582837481055
 40
0.6500441756443992
 50
92.037330696820788
 51
187.48995268463241
  0
ARC
  8
_0-0_
  6
CONTINUOUS
 62
    7
 10
-21.735628972346035
 20
11.707117831535115
 40
0.4358238554184938
 50
141.05023582289684
 51
277.44741685019653
  0
ARC
  8
_0-0_
  6
CONTINUOUS
 62
    7
 10
-21.987885368513105
 20
12.35266045462221
 40
1.1210441189456783
 50
285.98642157289834
 51
326.06832519730614
  0
ARC
  8
_0-0_
  6
CONTINUOUS
 62
    7
 10
-23.153010646562478
 20
12.828441340829201
 40
0.6500441756443992
 50
92.037330696820788
 51
187.48995268463241
  0
ARC
  8
_0-0_
  6
CONTINUOUS
 62
    7
 10
-23.458569377054829
 20
12.469730797553765
 40
0.4358238554184938
 50
141.05023582289684
 51
277.44741685019653
  0
ARC
  8
_0-0_
  6
CONTINUOUS
 62
    7
 10
-23.710825773221899
 20
13.115273420640861
 40
1.1210441189456783
 50
285.98642157289834
 51
326.06832519730614
  0
ARC
  8
_0-0_
  6
CONTINUOUS
 62
    7
 10
-19.735374761812238
 20
12.40476747081884
 40
0.6500441756443992
 50
92.037330696820788
 51
187.48995268463241
  0
ARC
  8
_0-0_
  6
CONTINUOUS
 62
    7
 10
-20.040933492304589
 20
12.046056927543404
 40
0.4358238554184938
 50
141.05023582289684
 51
277.44741685019653
  0
ARC
  8
_0-0_
  6
CONTINUOUS
 62
    7
 10
-20.293189888471659
 20
12.691599550630499
 40
1.1210441189456783
 50
285.98642157289834
 51
326.06832519730614
  0
ARC
  8
_0-0_
  6
CONTINUOUS
 62
    7
 10
-23.943868537248491
 20
9.6085199287504537
 40
0.6500441756443992
 50
92.037330696820788
 51
187.48995268463241
  0
ARC
  8
_0-0_
  6
CONTINUOUS
 62
    7
 10
-24.249427267740842
 20
9.2498093854750181
 40
0.4358238554184938
 50
141.05023582289684
 51
277.44741685019653
  0
ARC
  8
_0-0_
  6
CONTINUOUS
 62
    7
 10
-24.501683663907912
 20
9.8953520085621136
 40
1.1210441189456783
 50
285.98642157289834
 51
326.06832519730614
  0
ARC
  8
_0-0_
  6
CONTINUOUS
 62
    7
 10
-22.164438283204973
 20
9.7497445520872219
 40
0.6500441756443992
 50
92.037330696820788
 51
187.48995268463241
  0
ARC
  8
_0-0_
  6
CONTINUOUS
 62
    7
 10
-22.469997013697323
 20
9.3910340088117863
 40
0.4358238554184938
 50
141.05023582289684
 51
277.44741685019653
  0
ARC
  8
_0-0_
  6
CONTINUOUS
 62
    7
 10
-22.722253409864393
 20
10.036576631898882
 40
1.1210441189456783
 50
285.98642157289834
 51
326.06832519730614
  0
ARC
  8
_0-0_
  6
CONTINUOUS
 62
    7
 10
-20.469742803163513
 20
9.1848460587400922
 40
0.6500441756443992
 50
92.037330696820788
 51
187.48995268463241
  0
ARC
  8
_0-0_
  6
CONTINUOUS
 62
    7
 10
-20.775301533655863
 20
8.8261355154646566
 40
0.4358238554184938
 50
141.05023582289684
 51
277.44741685019653
  0
ARC
  8
_0-0_
  6
CONTINUOUS
 62
    7
 10
-21.027557929822933
 20
9.4716781385517521
 40
1.1210441189456783
 50
285.98642157289834
 51
326.06832519730614
  0
ARC
  8
_0-0_
  6
CONTINUOUS
 62
    7
 10
-24.706481503267142
 20
6.4450883660064022
 40
0.6500441756443992
 50
92.037330696820788
 51
187.48995268463241
  0
ARC
  8
_0-0_
  6
CONTINUOUS
 62
    7
 10
-25.012040233759492
 20
6.0863778227309666
 40
0.4358238554184938
 50
141.05023582289684
 51
277.44741685019653
  0
ARC
  8
_0-0_
  6
CONTINUOUS
 62
    7
 10
-25.264296629926562
 20
6.7319204458180621
 40
1.1210441189456783
 50
285.98642157289834
 51
326.06832519730614
  0
ARC
  8
_0-0_
  6
CONTINUOUS
 62
    7
 10
-21.288845618516888
 20
5.7389652493224759
 40
0.6500441756443992
 50
92.037330696820788
 51
187.48995268463241
  0
ARC
  8
_0-0_
  6
CONTINUOUS
 62
    7
 10
-21.594404349009238
 20
5.3802547060470403
 40
0.4358238554184938
 50
141.05023582289684
 51
277.44741685019653
  0
ARC
  8
_0-0_
  6
CONTINUOUS
 62
    7
 10
-21.846660745176308
 20
6.0257973291341358
 40
1.1210441189456783
 50
285.98642157289834
 51
326.06832519730614
  0
ARC
  8
_0-0_
  6
CONTINUOUS
 62
    7
 10
-9.8214062035697509
 20
19.296529089654072
 40
0.6500441756443992
 50
92.037330696820788
 51
187.48995268463241
  0
ARC
  8
_0-0_
  6
CONTINUOUS
 62
    7
 10
-10.126964934062102
 20
18.937818546378637
 40
0.4358238554184938
 50
141.05023582289684
 51
277.44741685019653
  0
ARC
  8
_0-0_
  6
CONTINUOUS
 62
    7
 10
-10.379221330229171
 20
19.583361169465732
 40
1.1210441189456783
 50
285.98642157289834
 51
326.06832519730614
  0
ARC
  8
_0-0_
  6
CONTINUOUS
 62
    7
 10
-12.052755252290979
 20
18.251466876961857
 40
0.6500441756443992
 50
92.037330696820788
 51
187.48995268463241
  0
ARC
  8
_0-0_
  6
CONTINUOUS
 62
    7
 10
-12.358313982783329
 20
17.892756333686421
 40
0.4358238554184938
 50
141.05023582289684
 51
277.44741685019653
  0
ARC
  8
_0-0_
  6
CONTINUOUS
 62
    7
 10
-12.610570378950399
 20
18.538298956773517
 40
1.1210441189456783
 50
285.98642157289834
 51
326.06832519730614
  0
ARC
  8
_0-0_
  6
CONTINUOUS
 62
    7
 10
-10.753488717592546
 20
16.161342451577397
 40
0.6500441756443992
 50
92.037330696820788
 51
187.48995268463241
  0
ARC
  8
_0-0_
  6
CONTINUOUS
 62
    7
 10
-11.059047448084897
 20
15.802631908301962
 40
0.4358238554184938
 50
141.05023582289684
 51
277.44741685019653
  0
ARC
  8
_0-0_
  6
CONTINUOUS
 62
    7
 10
-11.311303844251967
 20
16.448174531389057
 40
1.1210441189456783
 50
285.98642157289834
 51
326.06832519730614
  0
ARC
  8
_0-0_
  6
CONTINUOUS
 62
    7
 10
-8.0984657988609285
 20
18.081997328957712
 40
0.6500441756443992
 50
92.037330696820788
 51
187.48995268463241
  0
ARC
  8
_0-0_
  6
CONTINUOUS
 62
    7
 10
-8.4040245293532791
 20
17.723286785682276
 40
0.4358238554184938
 50
141.05023582289684
 51
277.44741685019653
  0
ARC
  8
_0-0_
  6
CONTINUOUS
 62
    7
 10
-8.656280925520349
 20
18.368829408769372
 40
1.1210441189456783
 50
285.98642157289834
 51
326.06832519730614
  0
ARC
  8
_0-0_
  6
CONTINUOUS
 62
    7
 10
-12.871858067644354
 20
14.975055615548385
 40
0.6500441756443992
 50
92.037330696820788
 51
187.48995268463241
  0
ARC
  8
_0-0_
  6
CONTINUOUS
 62
    7
 10
-13.177416798136704
 20
14.616345072272949
 40
0.4358238554184938
 50
141.05023582289684
 51
277.44741685019653
  0
ARC
  8
_0-0_
  6
CONTINUOUS
 62
    7
 10
-13.429673194303774
 20
15.261887695360045
 40
1.1210441189456783
 50
285.98642157289834
 51
326.06832519730614
  0
ARC
  8
_0-0_
  6
CONTINUOUS
 62
    7
 10
-9.0587932375511002
 20
14.466646971535951
 40
0.6500441756443992
 50
92.037330696820788
 51
187.48995268463241
  0
ARC
  8
_0-0_
  6
CONTINUOUS
 62
    7
 10
-9.3643519680434508
 20
14.107936428260516
 40
0.4358238554184938
 50
141.05023582289684
 51
277.44741685019653
  0
ARC
  8
_0-0_
  6
CONTINUOUS
 62
    7
 10
-9.6166083642105207
 20
14.753479051347611
 40
1.1210441189456783
 50
285.98642157289834
 51
326.06832519730614
  0
ARC
  8
_0-0_
  6
CONTINUOUS
 62
    7
 10
-10.019120676241243
 20
11.190235710122479
 40
0.6500441756443992
 50
92.037330696820788
 51
187.48995268463241
  0
ARC
  8
_0-0_
  6
CONTINUOUS
 62
    7
 10
-10.324679406733594
 20
10.831525166847044
 40
0.4358238554184938
 50
141.05023582289684
 51
277.44741685019653
  0
ARC
  8
_0-0_
  6
CONTINUOUS
 62
    7
 10
-10.576935802900664
 20
11.477067789934139
 40
1.1210441189456783
 50
285.98642157289834
 51
326.06832519730614
  0
ARC
  8
_0-0_
  6
CONTINUOUS
 62
    7
 10
-12.052755252290979
 20
10.907786463448886
 40
0.6500441756443992
 50
92.037330696820788
 51
187.48995268463241
  0
ARC
  8
_0-0_
  6
CONTINUOUS
 62
    7
 10
-12.358313982783329
 20
10.549075920173451
 40
0.4358238554184938
 50
141.05023582289684
 51
277.44741685019653
  0
ARC
  8
_0-0_
  6
CONTINUOUS
 62
    7
 10
-12.610570378950399
 20
11.194618543260546
 40
1.1210441189456783
 50
285.98642157289834
 51
326.06832519730614
  0
ARC
  8
_0-0_
  6
CONTINUOUS
 62
    7
 10
-13.775695656999801
 20
11.557419730798117
 40
0.6500441756443992
 50
92.037330696820788
 51
187.48995268463241
  0
ARC
  8
_0-0_
  6
CONTINUOUS
 62
    7
 10
-14.081254387492152
 20
11.198709187522681
 40
0.4358238554184938
 50
141.05023582289684
 51
277.44741685019653
  0
ARC
  8
_0-0_
  6
CONTINUOUS
 62
    7
 10
-14.333510783659221
 20
11.844251810609776
 40
1.1210441189456783
 50
285.98642157289834
 51
326.06832519730614
  0
ARC
  8
_0-0_
  6
CONTINUOUS
 62
    7
 10
-14.453573849016379
 20
8.1962736953825726
 40
0.6500441756443992
 50
92.037330696820788
 51
187.48995268463241
  0
ARC
  8
_0-0_
  6
CONTINUOUS
 62
    7
 10
-14.75913257950873
 20
7.8375631521071369
 40
0.4358238554184938
 50
141.05023582289684
 51
277.44741685019653
  0
ARC
  8
_0-0_
  6
CONTINUOUS
 62
    7
 10
-15.0113889756758
 20
8.4831057751942325
 40
1.1210441189456783
 50
285.98642157289834
 51
326.06832519730614
  0
ARC
  8
_0-0_
  6
CONTINUOUS
 62
    7
 10
-12.391694348299268
 20
8.648192490060282
 40
0.6500441756443992
 50
92.037330696820788
 51
187.48995268463241
  0
ARC
  8
_0-0_
  6
CONTINUOUS
 62
    7
 10
-12.697253078791618
 20
8.2894819467848464
 40
0.4358238554184938
 50
141.05023582289684
 51
277.44741685019653
  0
ARC
  8
_0-0_
  6
CONTINUOUS
 62
    7
 10
-12.949509474958688
 20
8.9350245698719419
 40
1.1210441189456783
 50
285.98642157289834
 51
326.06832519730614
  0
ARC
  8
_0-0_
  6
CONTINUOUS
 62
    7
 10
-10.72524379292517
 20
7.8290896747069354
 40
0.6500441756443992
 50
92.037330696820788
 51
187.48995268463241
  0
ARC
  8
_0-0_
  6
CONTINUOUS
 62
    7
 10
-11.03080252341752
 20
7.4703791314314998
 40
0.4358238554184938
 50
141.05023582289684
 51
277.44741685019653
  0
ARC
  8
_0-0_
  6
CONTINUOUS
 62
    7
 10
-11.28305891958459
 20
8.1159217545185953
 40
1.1210441189456783
 50
285.98642157289834
 51
326.06832519730614
  0
ARC
  8
_0-0_
  6
CONTINUOUS
 62
    7
 10
-11.629081382280617
 20
4.439698714624015
 40
0.6500441756443992
 50
92.037330696820788
 51
187.48995268463241
  0
ARC
  8
_0-0_
  6
CONTINUOUS
 62
    7
 10
-11.934640112772968
 20
4.0809881713485794
 40
0.4358238554184938
 50
141.05023582289684
 51
277.44741685019653
  0
ARC
  8
_0-0_
  6
CONTINUOUS
 62
    7
 10
-12.186896508940038
 20
4.7265307944356749
 40
1.1210441189456783
 50
285.98642157289834
 51
326.06832519730614
  0
ARC
  8
_0-0_
  6
CONTINUOUS
 62
    7
 10
-15.21618681503503
 20
5.0328421326385211
 40
0.6500441756443992
 50
92.037330696820788
 51
187.48995268463241
  0
ARC
  8
_0-0_
  6
CONTINUOUS
 62
    7
 10
-15.521745545527381
 20
4.6741315893630855
 40
0.4358238554184938
 50
141.05023582289684
 51
277.44741685019653
  0
ARC
  8
_0-0_
  6
CONTINUOUS
 62
    7
 10
-15.774001941694451
 20
5.319674212450181
 40
1.1210441189456783
 50
285.98642157289834
 51
326.06832519730614
  0
ARC
  8
_0-0_
  6
CONTINUOUS
 62
    7
 10
-25.469094469285807
 20
3.2534118785950028
 40
0.6500441756443992
 50
92.037330696820788
 51
187.48995268463241
  0
ARC
  8
_0-0_
  6
CONTINUOUS
 62
    7
 10
-25.774653199778157
 20
2.8947013353195672
 40
0.4358238554184938
 50
141.05023582289684
 51
277.44741685019653
  0
ARC
  8
_0-0_
  6
CONTINUOUS
 62
    7
 10
-26.026909595945227
 20
3.5402439584066627
 40
1.1210441189456783
 50
285.98642157289834
 51
326.06832519730614
  0
ARC
  8
_0-0_
  6
CONTINUOUS
 62
    7
 10
-21.938478885866118
 20
2.5755336865784244
 40
0.6500441756443992
 50
92.037330696820788
 51
187.48995268463241
  0
ARC
  8
_0-0_
  6
CONTINUOUS
 62
    7
 10
-22.244037616358469
 20
2.2168231433029888
 40
0.4358238554184938
 50
141.05023582289684
 51
277.44741685019653
  0
ARC
  8
_0-0_
  6
CONTINUOUS
 62
    7
 10
-22.496294012525539
 20
2.8623657663900843
 40
1.1210441189456783
 50
285.98642157289834
 51
326.06832519730614
  0
ARC
  8
_0-0_
  6
CONTINUOUS
 62
    7
 10
-26.231707435304457
 20
0.0334904665162554
 40
0.6500441756443992
 50
92.037330696820788
 51
187.48995268463241
  0
ARC
  8
_0-0_
  6
CONTINUOUS
 62
    7
 10
-26.537266165796808
 20
-0.3252200767591801
 40
0.4358238554184938
 50
141.05023582289684
 51
277.44741685019653
  0
ARC
  8
_0-0_
  6
CONTINUOUS
 62
    7
 10
-26.789522561963878
 20
0.3203225463279153
 40
1.1210441189456783
 50
285.98642157289834
 51
326.06832519730614
  0
ARC
  8
_0-0_
  6
CONTINUOUS
 62
    7
 10
-24.565256879930359
 20
-0.4466732528288304
 40
0.6500441756443992
 50
92.037330696820788
 51
187.48995268463241
  0
ARC
  8
_0-0_
  6
CONTINUOUS
 62
    7
 10
-24.87081561042271
 20
-0.805383796104266
 40
0.4358238554184938
 50
141.05023582289684
 51
277.44741685019653
  0
ARC
  8
_0-0_
  6
CONTINUOUS
 62
    7
 10
-25.12307200658978
 20
-0.1598411730171704
 40
1.1210441189456783
 50
285.98642157289834
 51
326.06832519730614
  0
ARC
  8
_0-0_
  6
CONTINUOUS
 62
    7
 10
-22.870561399888913
 20
-0.4184283281614682
 40
0.6500441756443992
 50
92.037330696820788
 51
187.48995268463241
  0
ARC
  8
_0-0_
  6
CONTINUOUS
 62
    7
 10
-23.176120130381264
 20
-0.7771388714369038
 40
0.4358238554184938
 50
141.05023582289684
 51
277.44741685019653
  0
ARC
  8
_0-0_
  6
CONTINUOUS
 62
    7
 10
-23.428376526548334
 20
-0.1315962483498083
 40
1.1210441189456783
 50
285.98642157289834
 51
326.06832519730614
  0
ARC
  8
_0-0_
  6
CONTINUOUS
 62
    7
 10
-23.689664215242274
 20
-4.0337786855832292
 40
0.6500441756443992
 50
92.037330696820788
 51
187.48995268463241
  0
ARC
  8
_0-0_
  6
CONTINUOUS
 62
    7
 10
-23.995222945734625
 20
-4.3924892288586648
 40
0.4358238554184938
 50
141.05023582289684
 51
277.44741685019653
  0
ARC
  8
_0-0_
  6
CONTINUOUS
 62
    7
 10
-24.247479341901695
 20
-3.7469466057715692
 40
1.1210441189456783
 50
285.98642157289834
 51
326.06832519730614
  0
ARC
  8
_0-0_
  6
CONTINUOUS
 62
    7
 10
-25.130155373277518
 20
-3.158186020895144
 40
0.6500441756443992
 50
92.037330696820788
 51
187.48995268463241
  0
ARC
  8
_0-0_
  6
CONTINUOUS
 62
    7
 10
-25.435714103769868
 20
-3.5168965641705796
 40
0.4358238554184938
 50
141.05023582289684
 51
277.44741685019653
  0
ARC
  8
_0-0_
  6
CONTINUOUS
 62
    7
 10
-25.687970499936938
 20
-2.8713539410834841
 40
1.1210441189456783
 50
285.98642157289834
 51
326.06832519730614
  0
ARC
  8
_0-0_
  6
CONTINUOUS
 62
    7
 10
-26.909585627321036
 20
-3.2429207948972163
 40
0.6500441756443992
 50
92.037330696820788
 51
187.48995268463241
  0
ARC
  8
_0-0_
  6
CONTINUOUS
 62
    7
 10
-27.215144357813386
 20
-3.6016313381726519
 40
0.4358238554184938
 50
141.05023582289684
 51
277.44741685019653
  0
ARC
  8
_0-0_
  6
CONTINUOUS
 62
    7
 10
-27.467400753980456
 20
-2.9560887150855564
 40
1.1210441189456783
 50
285.98642157289834
 51
326.06832519730614
  0
ARC
  8
_0-0_
  6
CONTINUOUS
 62
    7
 10
-27.813423216676469
 20
-6.5475769809780502
 40
0.6500441756443992
 50
92.037330696820788
 51
187.48995268463241
  0
ARC
  8
_0-0_
  6
CONTINUOUS
 62
    7
 10
-28.11898194716882
 20
-6.9062875242534858
 40
0.4358238554184938
 50
141.05023582289684
 51
277.44741685019653
  0
ARC
  8
_0-0_
  6
CONTINUOUS
 62
    7
 10
-28.371238343335889
 20
-6.2607449011663903
 40
1.1210441189456783
 50
285.98642157289834
 51
326.06832519730614
  0
ARC
  8
_0-0_
  6
CONTINUOUS
 62
    7
 10
-24.339297482591505
 20
-7.1124754743251941
 40
0.6500441756443992
 50
92.037330696820788
 51
187.48995268463241
  0
ARC
  8
_0-0_
  6
CONTINUOUS
 62
    7
 10
-24.644856213083855
 20
-7.4711860176006297
 40
0.4358238554184938
 50
141.05023582289684
 51
277.44741685019653
  0
ARC
  8
_0-0_
  6
CONTINUOUS
 62
    7
 10
-24.897112609250925
 20
-6.8256433945135342
 40
1.1210441189456783
 50
285.98642157289834
 51
326.06832519730614
  0
ARC
  8
_0-0_
  6
CONTINUOUS
 62
    7
 10
-26.259952359971805
 20
-8.0728029130153516
 40
0.6500441756443992
 50
92.037330696820788
 51
187.48995268463241
  0
ARC
  8
_0-0_
  6
CONTINUOUS
 62
    7
 10
-26.565511090464156
 20
-8.4315134562907872
 40
0.4358238554184938
 50
141.05023582289684
 51
277.44741685019653
  0
ARC
  8
_0-0_
  6
CONTINUOUS
 62
    7
 10
-26.817767486631226
 20
-7.7859708332036917
 40
1.1210441189456783
 50
285.98642157289834
 51
326.06832519730614
  0
ARC
  8
_0-0_
  6
CONTINUOUS
 62
    7
 10
-28.51954633336041
 20
-9.8239882423915219
 40
0.6500441756443992
 50
92.037330696820788
 51
187.48995268463241
  0
ARC
  8
_0-0_
  6
CONTINUOUS
 62
    7
 10
-28.82510506385276
 20
-10.182698785666958
 40
0.4358238554184938
 50
141.05023582289684
 51
277.44741685019653
  0
ARC
  8
_0-0_
  6
CONTINUOUS
 62
    7
 10
-29.07736146001983
 20
-9.537156162579862
 40
1.1210441189456783
 50
285.98642157289834
 51
326.06832519730614
  0
ARC
  8
_0-0_
  6
CONTINUOUS
 62
    7
 10
-25.186645222612228
 20
-10.417131660406028
 40
0.6500441756443992
 50
92.037330696820788
 51
187.48995268463241
  0
ARC
  8
_0-0_
  6
CONTINUOUS
 62
    7
 10
-25.492203953104578
 20
-10.775842203681464
 40
0.4358238554184938
 50
141.05023582289684
 51
277.44741685019653
  0
ARC
  8
_0-0_
  6
CONTINUOUS
 62
    7
 10
-25.744460349271648
 20
-10.130299580594368
 40
1.1210441189456783
 50
285.98642157289834
 51
326.06832519730614
  0
ARC
  8
_0-0_
  6
CONTINUOUS
 62
    7
 10
-27.135545024659891
 20
-11.236234475759403
 40
0.6500441756443992
 50
92.037330696820788
 51
187.48995268463241
  0
ARC
  8
_0-0_
  6
CONTINUOUS
 62
    7
 10
-27.441103755152241
 20
-11.594945019034839
 40
0.4358238554184938
 50
141.05023582289684
 51
277.44741685019653
  0
ARC
  8
_0-0_
  6
CONTINUOUS
 62
    7
 10
-27.693360151319311
 20
-10.949402395947743
 40
1.1210441189456783
 50
285.98642157289834
 51
326.06832519730614
  0
ARC
  8
_0-0_
  6
CONTINUOUS
 62
    7
 10
-19.311166687897497
 20
-11.657512396987642
 40
0.7150485932088391
 50
92.037330696820788
 51
187.48995268463241
  0
ARC
  8
_0-0_
  6
CONTINUOUS
 62
    7
 10
-19.647281291439072
 20
-12.052093994590621
 40
0.4794062409603432
 50
141.05023582289684
 51
277.44741685019653
  0
ARC
  8
_0-0_
  6
CONTINUOUS
 62
    7
 10
-19.924763327222877
 20
-11.341997109194807
 40
1.2331485308402463
 50
285.98642157289834
 51
326.06832519730614
  0
ARC
  8
_0-0_
  6
CONTINUOUS
 62
    7
 10
-17.644716132523399
 20
-13.408697726363798
 40
0.7150485932088391
 50
92.037330696820788
 51
187.48995268463241
  0
ARC
  8
_0-0_
  6
CONTINUOUS
 62
    7
 10
-17.980830736064974
 20
-13.803279323966777
 40
0.4794062409603432
 50
141.05023582289684
 51
277.44741685019653
  0
ARC
  8
_0-0_
  6
CONTINUOUS
 62
    7
 10
-18.258312771848779
 20
-13.093182438570963
 40
1.2331485308402463
 50
285.98642157289834
 51
326.06832519730614
  0
ARC
  8
_0-0_
  6
CONTINUOUS
 62
    7
 10
-15.498101857804244
 20
-12.363635513671582
 40
0.7150485932088391
 50
92.037330696820788
 51
187.48995268463241
  0
ARC
  8
_0-0_
  6
CONTINUOUS
 62
    7
 10
-15.834216461345818
 20
-12.758217111274561
 40
0.4794062409603432
 50
141.05023582289684
 51
277.44741685019653
  0
ARC
  8
_0-0_
  6
CONTINUOUS
 62
    7
 10
-16.111698497129623
 20
-12.048120225878748
 40
1.2331485308402463
 50
285.98642157289834
 51
326.06832519730614
  0
ARC
  8
_0-0_
  6
CONTINUOUS
 62
    7
 10
-16.882103166504749
 20
-9.8498372182767611
 40
0.7150485932088391
 50
92.037330696820788
 51
187.48995268463241
  0
ARC
  8
_0-0_
  6
CONTINUOUS
 62
    7
 10
-17.218217770046323
 20
-10.24441881587974
 40
0.4794062409603432
 50
141.05023582289684
 51
277.44741685019653
  0
ARC
  8
_0-0_
  6
CONTINUOUS
 62
    7
 10
-17.495699805830128
 20
-9.5343219304839266
 40
1.2331485308402463
 50
285.98642157289834
 51
326.06832519730614
  0
ARC
  8
_0-0_
  6
CONTINUOUS
 62
    7
 10
-18.379084173874702
 20
-8.2116315875700252
 40
0.7150485932088391
 50
92.037330696820788
 51
187.48995268463241
  0
ARC
  8
_0-0_
  6
CONTINUOUS
 62
    7
 10
-18.715198777416276
 20
-8.6062131851730044
 40
0.4794062409603432
 50
141.05023582289684
 51
277.44741685019653
  0
ARC
  8
_0-0_
  6
CONTINUOUS
 62
    7
 10
-18.992680813200082
 20
-7.8961162997771908
 40
1.2331485308402463
 50
285.98642157289834
 51
326.06832519730614
  0
ARC
  8
_0-0_
  6
CONTINUOUS
 62
    7
 10
-14.678999042450869
 20
-8.8047750055845313
 40
0.7150485932088391
 50
92.037330696820788
 51
187.48995268463241
  0
ARC
  8
_0-0_
  6
CONTINUOUS
 62
    7
 10
-15.015113645992443
 20
-9.1993566031875105
 40
0.4794062409603432
 50
141.05023582289684
 51
277.44741685019653
  0
ARC
  8
_0-0_
  6
CONTINUOUS
 62
    7
 10
-15.292595681776248
 20
-8.4892597177916969
 40
1.2331485308402463
 50
285.98642157289834
 51
326.06832519730614
  0
ARC
  8
_0-0_
  6
CONTINUOUS
 62
    7
 10
-13.972875925766914
 20
-5.5566086688384217
 40
0.7150485932088391
 50
92.037330696820788
 51
187.48995268463241
  0
ARC
  8
_0-0_
  6
CONTINUOUS
 62
    7
 10
-14.308990529308488
 20
-5.9511902664414009
 40
0.4794062409603432
 50
141.05023582289684
 51
277.44741685019653
  0
ARC
  8
_0-0_
  6
CONTINUOUS
 62
    7
 10
-14.586472565092294
 20
-5.2410933810455873
 40
1.2331485308402463
 50
285.98642157289834
 51
326.06832519730614
  0
ARC
  8
_0-0_
  6
CONTINUOUS
 62
    7
 10
-15.695816330475736
 20
-4.6527710794829744
 40
0.7150485932088391
 50
92.037330696820788
 51
187.48995268463241
  0
ARC
  8
_0-0_
  6
CONTINUOUS
 62
    7
 10
-16.031930934017311
 20
-5.0473526770859536
 40
0.4794062409603432
 50
141.05023582289684
 51
277.44741685019653
  0
ARC
  8
_0-0_
  6
CONTINUOUS
 62
    7
 10
-16.309412969801116
 20
-4.33725579169014
 40
1.2331485308402463
 50
285.98642157289834
 51
326.06832519730614
  0
ARC
  8
_0-0_
  6
CONTINUOUS
 62
    7
 10
-17.503491509186603
 20
-4.7939957028197711
 40
0.7150485932088391
 50
92.037330696820788
 51
187.48995268463241
  0
ARC
  8
_0-0_
  6
CONTINUOUS
 62
    7
 10
-17.839606112728177
 20
-5.1885773004227502
 40
0.4794062409603432
 50
141.05023582289684
 51
277.44741685019653
  0
ARC
  8
_0-0_
  6
CONTINUOUS
 62
    7
 10
-18.117088148511982
 20
-4.4784804150269366
 40
1.2331485308402463
 50
285.98642157289834
 51
326.06832519730614
  0
ARC
  8
_0-0_
  6
CONTINUOUS
 62
    7
 10
-16.853858241837401
 20
-1.5458293660736473
 40
0.7150485932088391
 50
92.037330696820788
 51
187.48995268463241
  0
ARC
  8
_0-0_
  6
CONTINUOUS
 62
    7
 10
-17.189972845378975
 20
-1.9404109636766265
 40
0.4794062409603432
 50
141.05023582289684
 51
277.44741685019653
  0
ARC
  8
_0-0_
  6
CONTINUOUS
 62
    7
 10
-17.46745488116278
 20
-1.2303140782808129
 40
1.2331485308402463
 50
285.98642157289834
 51
326.06832519730614
  0
ARC
  8
_0-0_
  6
CONTINUOUS
 62
    7
 10
-15.017938138459158
 20
-2.0542380100860811
 40
0.7150485932088391
 50
92.037330696820788
 51
187.48995268463241
  0
ARC
  8
_0-0_
  6
CONTINUOUS
 62
    7
 10
-15.354052742000732
 20
-2.4488196076890603
 40
0.4794062409603432
 50
141.05023582289684
 51
277.44741685019653
  0
ARC
  8
_0-0_
  6
CONTINUOUS
 62
    7
 10
-15.631534777784537
 20
-1.7387227222932466
 40
1.2331485308402463
 50
285.98642157289834
 51
326.06832519730614
  0
ARC
  8
_0-0_
  6
CONTINUOUS
 62
    7
 10
-12.984303562409423
 20
-2.1672177087555156
 40
0.7150485932088391
 50
92.037330696820788
 51
187.48995268463241
  0
ARC
  8
_0-0_
  6
CONTINUOUS
 62
    7
 10
-13.320418165950997
 20
-2.5617993063584947
 40
0.4794062409603432
 50
141.05023582289684
 51
277.44741685019653
  0
ARC
  8
_0-0_
  6
CONTINUOUS
 62
    7
 10
-13.597900201734802
 20
-1.8517024209626811
 40
1.2331485308402463
 50
285.98642157289834
 51
326.06832519730614
  0
ARC
  8
_0-0_
  6
CONTINUOUS
 62
    7
 10
-15.921775727814605
 20
1.7023369706724623
 40
0.7150485932088391
 50
92.037330696820788
 51
187.48995268463241
  0
ARC
  8
_0-0_
  6
CONTINUOUS
 62
    7
 10
-16.25789033135618
 20
1.3077553730694831
 40
0.4794062409603432
 50
141.05023582289684
 51
277.44741685019653
  0
ARC
  8
_0-0_
  6
CONTINUOUS
 62
    7
 10
-16.535372367139985
 20
2.0178522584652967
 40
1.2331485308402463
 50
285.98642157289834
 51
326.06832519730614
  0
ARC
  8
_0-0_
  6
CONTINUOUS
 62
    7
 10
-12.306425370392844
 20
1.1939283266600285
 40
0.7150485932088391
 50
92.037330696820788
 51
187.48995268463241
  0
ARC
  8
_0-0_
  6
CONTINUOUS
 62
    7
 10
-12.642539973934419
 20
0.7993467290570492
 40
0.4794062409603432
 50
141.05023582289684
 51
277.44741685019653
  0
ARC
  8
_0-0_
  6
CONTINUOUS
 62
    7
 10
-12.920022009718224
 20
1.5094436144528629
 40
1.2331485308402463
 50
285.98642157289834
 51
326.06832519730614
  0
ARC
  8
_0-0_
  6
CONTINUOUS
 62
    7
 10
0.6862399765916222
 20
18.508067147750197
 40
0.7150485932088391
 50
92.037330696820788
 51
187.48995268463241
  0
ARC
  8
_0-0_
  6
CONTINUOUS
 62
    7
 10
0.3501253730500479
 20
18.113485550147217
 40
0.4794062409603432
 50
141.05023582289684
 51
277.44741685019653
  0
ARC
  8
_0-0_
  6
CONTINUOUS
 62
    7
 10
0.0726433372662427
 20
18.823582435543031
 40
1.2331485308402463
 50
285.98642157289834
 51
326.06832519730614
  0
ARC
  8
_0-0_
  6
CONTINUOUS
 62
    7
 10
-1.7145786201337785
 20
17.491249859725329
 40
0.7150485932088391
 50
92.037330696820788
 51
187.48995268463241
  0
ARC
  8
_0-0_
  6
CONTINUOUS
 62
    7
 10
-2.0506932236753528
 20
17.09666826212235
 40
0.4794062409603432
 50
141.05023582289684
 51
277.44741685019653
  0
ARC
  8
_0-0_
  6
CONTINUOUS
 62
    7
 10
-2.328175259459158
 20
17.806765147518163
 40
1.2331485308402463
 50
285.98642157289834
 51
326.06832519730614
  0
ARC
  8
_0-0_
  6
CONTINUOUS
 62
    7
 10
2.2114659086289237
 20
16.841616592376099
 40
0.7150485932088391
 50
92.037330696820788
 51
187.48995268463241
  0
ARC
  8
_0-0_
  6
CONTINUOUS
 62
    7
 10
1.8753513050873494
 20
16.447034994773119
 40
0.4794062409603432
 50
141.05023582289684
 51
277.44741685019653
  0
ARC
  8
_0-0_
  6
CONTINUOUS
 62
    7
 10
1.5978692693035441
 20
17.157131880168933
 40
1.2331485308402463
 50
285.98642157289834
 51
326.06832519730614
  0
ARC
  8
_0-0_
  6
CONTINUOUS
 62
    7
 10
-0.217597612763825
 20
15.090431262999928
 40
0.7150485932088391
 50
92.037330696820788
 51
187.48995268463241
  0
ARC
  8
_0-0_
  6
CONTINUOUS
 62
    7
 10
-0.5537122163053993
 20
14.695849665396949
 40
0.4794062409603432
 50
141.05023582289684
 51
277.44741685019653
  0
ARC
  8
_0-0_
  6
CONTINUOUS
 62
    7
 10
-0.8311942520892046
 20
15.405946550792763
 40
1.2331485308402463
 50
285.98642157289834
 51
326.06832519730614
  0
ARC
  8
_0-0_
  6
CONTINUOUS
 62
    7
 10
-2.6466611341565738
 20
13.706429954299423
 40
0.7150485932088391
 50
92.037330696820788
 51
187.48995268463241
  0
ARC
  8
_0-0_
  6
CONTINUOUS
 62
    7
 10
-2.9827757376981481
 20
13.311848356696444
 40
0.4794062409603432
 50
141.05023582289684
 51
277.44741685019653
  0
ARC
  8
_0-0_
  6
CONTINUOUS
 62
    7
 10
-3.2602577734819533
 20
14.021945242092258
 40
1.2331485308402463
 50
285.98642157289834
 51
326.06832519730614
  0
ARC
  8
_0-0_
  6
CONTINUOUS
 62
    7
 10
1.448852942610273
 20
13.367490858291106
 40
0.7150485932088391
 50
92.037330696820788
 51
187.48995268463241
  0
ARC
  8
_0-0_
  6
CONTINUOUS
 62
    7
 10
1.1127383390686987
 20
12.972909260688127
 40
0.4794062409603432
 50
141.05023582289684
 51
277.44741685019653
  0
ARC
  8
_0-0_
  6
CONTINUOUS
 62
    7
 10
0.8352563032848934
 20
13.68300614608394
 40
1.2331485308402463
 50
285.98642157289834
 51
326.06832519730614
  0
ARC
  8
_0-0_
  6
CONTINUOUS
 62
    7
 10
-1.3191496747907649
 20
9.5544260281978524
 40
0.7150485932088391
 50
92.037330696820788
 51
187.48995268463241
  0
ARC
  8
_0-0_
  6
CONTINUOUS
 62
    7
 10
-1.6552642783323392
 20
9.1598444305948732
 40
0.4794062409603432
 50
141.05023582289684
 51
277.44741685019653
  0
ARC
  8
_0-0_
  6
CONTINUOUS
 62
    7
 10
-1.9327463141161445
 20
9.8699413159906868
 40
1.2331485308402463
 50
285.98642157289834
 51
326.06832519730614
  0
ARC
  8
_0-0_
  6
CONTINUOUS
 62
    7
 10
0.7709747505936945
 20
9.9498549735408659
 40
0.7150485932088391
 50
92.037330696820788
 51
187.48995268463241
  0
ARC
  8
_0-0_
  6
CONTINUOUS
 62
    7
 10
0.4348601470521202
 20
9.5552733759378867
 40
0.4794062409603432
 50
141.05023582289684
 51
277.44741685019653
  0
ARC
  8
_0-0_
  6
CONTINUOUS
 62
    7
 10
0.157378111268315
 20
10.2653702613337
 40
1.2331485308402463
 50
285.98642157289834
 51
326.06832519730614
  0
ARC
  8
_0-0_
  6
CONTINUOUS
 62
    7
 10
-3.0420900794995589
 20
10.4582636175533
 40
0.7150485932088391
 50
92.037330696820788
 51
187.48995268463241
  0
ARC
  8
_0-0_
  6
CONTINUOUS
 62
    7
 10
-3.3782046830411332
 20
10.063682019950321
 40
0.4794062409603432
 50
141.05023582289684
 51
277.44741685019653
  0
ARC
  8
_0-0_
  6
CONTINUOUS
 62
    7
 10
-3.6556867188249385
 20
10.773778905346134
 40
1.2331485308402463
 50
285.98642157289834
 51
326.06832519730614
  0
ARC
  8
_0-0_
  6
CONTINUOUS
 62
    7
 10
-3.8611928948529339
 20
7.0123828081356834
 40
0.7150485932088391
 50
92.037330696820788
 51
187.48995268463241
  0
ARC
  8
_0-0_
  6
CONTINUOUS
 62
    7
 10
-4.1973074983945082
 20
6.6178012105327042
 40
0.4794062409603432
 50
141.05023582289684
 51
277.44741685019653
  0
ARC
  8
_0-0_
  6
CONTINUOUS
 62
    7
 10
-4.4747895341783135
 20
7.3278980959285178
 40
1.2331485308402463
 50
285.98642157289834
 51
326.06832519730614
  0
ARC
  8
_0-0_
  6
CONTINUOUS
 62
    7
 10
-1.912293092805271
 20
7.0688726574704077
 40
0.7150485932088391
 50
92.037330696820788
 51
187.48995268463241
  0
ARC
  8
_0-0_
  6
CONTINUOUS
 62
    7
 10
-2.2484076963468453
 20
6.6742910598674285
 40
0.4794062409603432
 50
141.05023582289684
 51
277.44741685019653
  0
ARC
  8
_0-0_
  6
CONTINUOUS
 62
    7
 10
-2.5258897321306506
 20
7.3843879452632422
 40
1.2331485308402463
 50
285.98642157289834
 51
326.06832519730614
  0
ARC
  8
_0-0_
  6
CONTINUOUS
 62
    7
 10
-0.0481280647596804
 20
6.3627495407864529
 40
0.7150485932088391
 50
92.037330696820788
 51
187.48995268463241
  0
ARC
  8
_0-0_
  6
CONTINUOUS
 62
    7
 10
-0.3842426683012547
 20
5.9681679431834738
 40
0.4794062409603432
 50
141.05023582289684
 51
277.44741685019653
  0
ARC
  8
_0-0_
  6
CONTINUOUS
 62
    7
 10
-0.66172470408506
 20
6.6782648285792874
 40
1.2331485308402463
 50
285.98642157289834
 51
326.06832519730614
  0
ARC
  8
_0-0_
  6
CONTINUOUS
 62
    7
 10
-4.7367855595410333
 20
3.5382570740507049
 40
0.7150485932088391
 50
92.037330696820788
 51
187.48995268463241
  0
ARC
  8
_0-0_
  6
CONTINUOUS
 62
    7
 10
-5.0729001630826076
 20
3.1436754764477257
 40
0.4794062409603432
 50
141.05023582289684
 51
277.44741685019653
  0
ARC
  8
_0-0_
  6
CONTINUOUS
 62
    7
 10
-5.3503821988664129
 20
3.8537723618435393
 40
1.2331485308402463
 50
285.98642157289834
 51
326.06832519730614
  0
ARC
  8
_0-0_
  6
CONTINUOUS
 62
    7
 10
-0.7542511814436068
 20
2.9451136560361988
 40
0.7150485932088391
 50
92.037330696820788
 51
187.48995268463241
  0
ARC
  8
_0-0_
  6
CONTINUOUS
 62
    7
 10
-1.0903657849851811
 20
2.5505320584332196
 40
0.4794062409603432
 50
141.05023582289684
 51
277.44741685019653
  0
ARC
  8
_0-0_
  6
CONTINUOUS
 62
    7
 10
-1.3678478207689864
 20
3.2606289438290332
 40
1.2331485308402463
 50
285.98642157289834
 51
326.06832519730614
  0
ARC
  8
_0-0_
  6
CONTINUOUS
 62
    7
 10
-1.4321293734601852
 20
-0.613746852050852
 40
0.7150485932088391
 50
92.037330696820788
 51
187.48995268463241
  0
ARC
  8
_0-0_
  6
CONTINUOUS
 62
    7
 10
-1.7682439770017595
 20
-1.0083284496538312
 40
0.4794062409603432
 50
141.05023582289684
 51
277.44741685019653
  0
ARC
  8
_0-0_
  6
CONTINUOUS
 62
    7
 10
-2.0457260127855648
 20
-0.2982315642580175
 40
1.2331485308402463
 50
285.98642157289834
 51
326.06832519730614
  0
ARC
  8
_0-0_
  6
CONTINUOUS
 62
    7
 10
-5.4429086762249597
 20
-0.0488483587036938
 40
0.7150485932088391
 50
92.037330696820788
 51
187.48995268463241
  0
ARC
  8
_0-0_
  6
CONTINUOUS
 62
    7
 10
-5.779023279766534
 20
-0.443429956306673
 40
0.4794062409603432
 50
141.05023582289684
 51
277.44741685019653
  0
ARC
  8
_0-0_
  6
CONTINUOUS
 62
    7
 10
-6.0565053155503392
 20
0.2666669290891405
 40
1.2331485308402463
 50
285.98642157289834
 51
326.06832519730614
  0
ARC
  8
_0-0_
  6
CONTINUOUS
 62
    7
 10
-6.0925419435741901
 20
-3.5229740927886724
 40
0.7150485932088391
 50
92.037330696820788
 51
187.48995268463241
  0
ARC
  8
_0-0_
  6
CONTINUOUS
 62
    7
 10
-6.4286565471157644
 20
-3.9175556903916515
 40
0.4794062409603432
 50
141.05023582289684
 51
277.44741685019653
  0
ARC
  8
_0-0_
  6
CONTINUOUS
 62
    7
 10
-6.7061385828995697
 20
-3.2074588049958379
 40
1.2331485308402463
 50
285.98642157289834
 51
326.06832519730614
  0
ARC
  8
_0-0_
  6
CONTINUOUS
 62
    7
 10
-4.45433631286744
 20
-4.1726073601378886
 40
0.7150485932088391
 50
92.037330696820788
 51
187.48995268463241
  0
ARC
  8
_0-0_
  6
CONTINUOUS
 62
    7
 10
-4.7904509164090143
 20
-4.5671889577408677
 40
0.4794062409603432
 50
141.05023582289684
 51
277.44741685019653
  0
ARC
  8
_0-0_
  6
CONTINUOUS
 62
    7
 10
-5.0679329521928196
 20
-3.8570920723450541
 40
1.2331485308402463
 50
285.98642157289834
 51
326.06832519730614
  0
ARC
  8
_0-0_
  6
CONTINUOUS
 62
    7
 10
-2.3077220381482846
 20
-4.3703218328093953
 40
0.7150485932088391
 50
92.037330696820788
 51
187.48995268463241
  0
ARC
  8
_0-0_
  6
CONTINUOUS
 62
    7
 10
-2.6438366416898589
 20
-4.7649034304123745
 40
0.4794062409603432
 50
141.05023582289684
 51
277.44741685019653
  0
ARC
  8
_0-0_
  6
CONTINUOUS
 62
    7
 10
-2.9213186774736641
 20
-4.0548065450165609
 40
1.2331485308402463
 50
285.98642157289834
 51
326.06832519730614
  0
ARC
  8
_0-0_
  6
CONTINUOUS
 62
    7
 10
-4.9062551075451779
 20
-6.7711404295347819
 40
0.7150485932088391
 50
92.037330696820788
 51
187.48995268463241
  0
ARC
  8
_0-0_
  6
CONTINUOUS
 62
    7
 10
-5.2423697110867522
 20
-7.1657220271377611
 40
0.4794062409603432
 50
141.05023582289684
 51
277.44741685019653
  0
ARC
  8
_0-0_
  6
CONTINUOUS
 62
    7
 10
-5.5198517468705575
 20
-6.4556251417419475
 40
1.2331485308402463
 50
285.98642157289834
 51
326.06832519730614
  0
ARC
  8
_0-0_
  6
CONTINUOUS
 62
    7
 10
-7.3635635536052746
 20
-7.1100795255430711
 40
0.7150485932088391
 50
92.037330696820788
 51
187.48995268463241
  0
ARC
  8
_0-0_
  6
CONTINUOUS
 62
    7
 10
-7.6996781571468489
 20
-7.5046611231460503
 40
0.4794062409603432
 50
141.05023582289684
 51
277.44741685019653
  0
ARC
  8
_0-0_
  6
CONTINUOUS
 62
    7
 10
-7.9771601929306541
 20
-6.7945642377502367
 40
1.2331485308402463
 50
285.98642157289834
 51
326.06832519730614
  0
ARC
  8
_0-0_
  6
CONTINUOUS
 62
    7
 10
-3.2115596275037035
 20
-7.8162026422270117
 40
0.7150485932088391
 50
92.037330696820788
 51
187.48995268463241
  0
ARC
  8
_0-0_
  6
CONTINUOUS
 62
    7
 10
-3.5476742310452778
 20
-8.2107842398299908
 40
0.4794062409603432
 50
141.05023582289684
 51
277.44741685019653
  0
ARC
  8
_0-0_
  6
CONTINUOUS
 62
    7
 10
-3.8251562668290831
 20
-7.5006873544341772
 40
1.2331485308402463
 50
285.98642157289834
 51
326.06832519730614
  0
ARC
  8
_0-0_
  6
CONTINUOUS
 62
    7
 10
-7.7872374236156361
 20
-10.555960334960702
 40
0.7150485932088391
 50
92.037330696820788
 51
187.48995268463241
  0
ARC
  8
_0-0_
  6
CONTINUOUS
 62
    7
 10
-8.1233520271572104
 20
-10.950541932563681
 40
0.4794062409603432
 50
141.05023582289684
 51
277.44741685019653
  0
ARC
  8
_0-0_
  6
CONTINUOUS
 62
    7
 10
-8.4008340629410156
 20
-10.240445047167867
 40
1.2331485308402463
 50
285.98642157289834
 51
326.06832519730614
  0
ARC
  8
_0-0_
  6
CONTINUOUS
 62
    7
 10
-3.832947970185586
 20
-11.431552999648773
 40
0.7150485932088391
 50
92.037330696820788
 51
187.48995268463241
  0
ARC
  8
_0-0_
  6
CONTINUOUS
 62
    7
 10
-4.1690625737271603
 20
-11.826134597251752
 40
0.4794062409603432
 50
141.05023582289684
 51
277.44741685019653
  0
ARC
  8
_0-0_
  6
CONTINUOUS
 62
    7
 10
-4.4465446095109655
 20
-11.116037711855938
 40
1.2331485308402463
 50
285.98642157289834
 51
326.06832519730614
  0
ARC
  8
_0-0_
  6
CONTINUOUS
 62
    7
 10
-6.0642970189068137
 20
-12.420125363006292
 40
0.7150485932088391
 50
92.037330696820788
 51
187.48995268463241
  0
ARC
  8
_0-0_
  6
CONTINUOUS
 62
    7
 10
-6.400411622448388
 20
-12.814706960609271
 40
0.4794062409603432
 50
141.05023582289684
 51
277.44741685019653
  0
ARC
  8
_0-0_
  6
CONTINUOUS
 62
    7
 10
-6.6778936582321933
 20
-12.104610075213458
 40
1.2331485308402463
 50
285.98642157289834
 51
326.06832519730614
  0
ARC
  8
_0-0_
  6
CONTINUOUS
 62
    7
 10
-8.4651156156322145
 20
-14.030086069045666
 40
0.7150485932088391
 50
92.037330696820788
 51
187.48995268463241
  0
ARC
  8
_0-0_
  6
CONTINUOUS
 62
    7
 10
-8.8012302191737888
 20
-14.424667666648645
 40
0.4794062409603432
 50
141.05023582289684
 51
277.44741685019653
  0
ARC
  8
_0-0_
  6
CONTINUOUS
 62
    7
 10
-9.078712254957594
 20
-13.714570781252831
 40
1.2331485308402463
 50
285.98642157289834
 51
326.06832519730614
  0
ARC
  8
_0-0_
  6
CONTINUOUS
 62
    7
 10
-7.0246244575969854
 20
-16.091965569762763
 40
0.7150485932088391
 50
92.037330696820788
 51
187.48995268463241
  0
ARC
  8
_0-0_
  6
CONTINUOUS
 62
    7
 10
-7.3607390611385597
 20
-16.486547167365742
 40
0.4794062409603432
 50
141.05023582289684
 51
277.44741685019653
  0
ARC
  8
_0-0_
  6
CONTINUOUS
 62
    7
 10
-7.6382210969223649
 20
-15.776450281969929
 40
1.2331485308402463
 50
285.98642157289834
 51
326.06832519730614
  0
ARC
  8
_0-0_
  6
CONTINUOUS
 62
    7
 10
-4.7085406348736569
 20
-14.877433809066389
 40
0.7150485932088391
 50
92.037330696820788
 51
187.48995268463241
  0
ARC
  8
_0-0_
  6
CONTINUOUS
 62
    7
 10
-5.0446552384152312
 20
-15.272015406669368
 40
0.4794062409603432
 50
141.05023582289684
 51
277.44741685019653
  0
ARC
  8
_0-0_
  6
CONTINUOUS
 62
    7
 10
-5.3221372741990365
 20
-14.561918521273554
 40
1.2331485308402463
 50
285.98642157289834
 51
326.06832519730614
  0
ARC
  8
_0-0_
  6
CONTINUOUS
 62
    7
 10
2.4944493592068682
 20
-16.513243490991002
 40
0.780053010773279
 50
92.037330696820788
 51
187.48995268463241
  0
ARC
  8
_0-0_
  6
CONTINUOUS
 62
    7
 10
2.1277788826160418
 20
-16.943696142921524
 40
0.5229886265021925
 50
141.05023582289684
 51
277.44741685019653
  0
ARC
  8
_0-0_
  6
CONTINUOUS
 62
    7
 10
1.8250712072155579
 20
-16.169044995216993
 40
1.3452529427348139
 50
285.98642157289834
 51
326.06832519730614
  0
ARC
  8
_0-0_
  6
CONTINUOUS
 62
    7
 10
4.4715940859219074
 20
-18.518633142373389
 40
0.780053010773279
 50
92.037330696820788
 51
187.48995268463241
  0
ARC
  8
_0-0_
  6
CONTINUOUS
 62
    7
 10
4.104923609331081
 20
-18.949085794303912
 40
0.5229886265021925
 50
141.05023582289684
 51
277.44741685019653
  0
ARC
  8
_0-0_
  6
CONTINUOUS
 62
    7
 10
3.8022159339305972
 20
-18.17443464659938
 40
1.3452529427348139
 50
285.98642157289834
 51
326.06832519730614
  0
ARC
  8
_0-0_
  6
CONTINUOUS
 62
    7
 10
7.0418822306514244
 20
-17.219366607674942
 40
0.780053010773279
 50
92.037330696820788
 51
187.48995268463241
  0
ARC
  8
_0-0_
  6
CONTINUOUS
 62
    7
 10
6.675211754060598
 20
-17.649819259605465
 40
0.5229886265021925
 50
141.05023582289684
 51
277.44741685019653
  0
ARC
  8
_0-0_
  6
CONTINUOUS
 62
    7
 10
6.3725040786601141
 20
-16.875168111900933
 40
1.3452529427348139
 50
285.98642157289834
 51
326.06832519730614
  0
ARC
  8
_0-0_
  6
CONTINUOUS
 62
    7
 10
5.1777172026058338
 20
-14.620833538278049
 40
0.780053010773279
 50
92.037330696820788
 51
187.48995268463241
  0
ARC
  8
_0-0_
  6
CONTINUOUS
 62
    7
 10
4.8110467260150074
 20
-15.051286190208572
 40
0.5229886265021925
 50
141.05023582289684
 51
277.44741685019653
  0
ARC
  8
_0-0_
  6
CONTINUOUS
 62
    7
 10
4.5083390506145236
 20
-14.27663504250404
 40
1.3452529427348139
 50
285.98642157289834
 51
326.06832519730614
  0
ARC
  8
_0-0_
  6
CONTINUOUS
 62
    7
 10
3.4830217225643878
 20
-12.643688811563024
 40
0.780053010773279
 50
92.037330696820788
 51
187.48995268463241
  0
ARC
  8
_0-0_
  6
CONTINUOUS
 62
    7
 10
3.1163512459735614
 20
-13.074141463493547
 40
0.5229886265021925
 50
141.05023582289684
 51
277.44741685019653
  0
ARC
  8
_0-0_
  6
CONTINUOUS
 62
    7
 10
2.8136435705730776
 20
-12.299490315789015
 40
1.3452529427348139
 50
285.98642157289834
 51
326.06832519730614
  0
ARC
  8
_0-0_
  6
CONTINUOUS
 62
    7
 10
7.8327401213374515
 20
-13.632261174920544
 40
0.780053010773279
 50
92.037330696820788
 51
187.48995268463241
  0
ARC
  8
_0-0_
  6
CONTINUOUS
 62
    7
 10
7.466069644746625
 20
-14.062713826851066
 40
0.5229886265021925
 50
141.05023582289684
 51
277.44741685019653
  0
ARC
  8
_0-0_
  6
CONTINUOUS
 62
    7
 10
7.1633619693461412
 20
-13.288062679146535
 40
1.3452529427348139
 50
285.98642157289834
 51
326.06832519730614
  0
ARC
  8
_0-0_
  6
CONTINUOUS
 62
    7
 10
8.5953530873561022
 20
-9.1978080021454076
 40
0.780053010773279
 50
92.037330696820788
 51
187.48995268463241
  0
ARC
  8
_0-0_
  6
CONTINUOUS
 62
    7
 10
8.2286826107652757
 20
-9.6282606540759303
 40
0.5229886265021925
 50
141.05023582289684
 51
277.44741685019653
  0
ARC
  8
_0-0_
  6
CONTINUOUS
 62
    7
 10
7.9259749353647919
 20
-8.8536095063713987
 40
1.3452529427348139
 50
285.98642157289834
 51
326.06832519730614
  0
ARC
  8
_0-0_
  6
CONTINUOUS
 62
    7
 10
6.6746982099757872
 20
-8.7458892074676982
 40
0.780053010773279
 50
92.037330696820788
 51
187.48995268463241
  0
ARC
  8
_0-0_
  6
CONTINUOUS
 62
    7
 10
6.3080277333849608
 20
-9.1763418593982209
 40
0.5229886265021925
 50
141.05023582289684
 51
277.44741685019653
  0
ARC
  8
_0-0_
  6
CONTINUOUS
 62
    7
 10
6.005320057984477
 20
-8.4016907116936892
 40
1.3452529427348139
 50
285.98642157289834
 51
326.06832519730614
  0
ARC
  8
_0-0_
  6
CONTINUOUS
 62
    7
 10
4.5563288599239797
 20
-8.8871138308044806
 40
0.780053010773279
 50
92.037330696820788
 51
187.48995268463241
  0
ARC
  8
_0-0_
  6
CONTINUOUS
 62
    7
 10
4.1896583833331533
 20
-9.3175664827350033
 40
0.5229886265021925
 50
141.05023582289684
 51
277.44741685019653
  0
ARC
  8
_0-0_
  6
CONTINUOUS
 62
    7
 10
3.8869507079326695
 20
-8.5429153350304716
 40
1.3452529427348139
 50
285.98642157289834
 51
326.06832519730614
  0
ARC
  8
_0-0_
  6
CONTINUOUS
 62
    7
 10
5.0364925792690372
 20
-5.356498247384792
 40
0.780053010773279
 50
92.037330696820788
 51
187.48995268463241
  0
ARC
  8
_0-0_
  6
CONTINUOUS
 62
    7
 10
4.6698221026782107
 20
-5.7869508993153147
 40
0.5229886265021925
 50
141.05023582289684
 51
277.44741685019653
  0
ARC
  8
_0-0_
  6
CONTINUOUS
 62
    7
 10
4.3671144272777269
 20
-5.012299751610783
 40
1.3452529427348139
 50
285.98642157289834
 51
326.06832519730614
  0
ARC
  8
_0-0_
  6
CONTINUOUS
 62
    7
 10
6.9571474566493521
 20
-6.0343764394013704
 40
0.780053010773279
 50
92.037330696820788
 51
187.48995268463241
  0
ARC
  8
_0-0_
  6
CONTINUOUS
 62
    7
 10
6.5904769800585257
 20
-6.4648290913318931
 40
0.5229886265021925
 50
141.05023582289684
 51
277.44741685019653
  0
ARC
  8
_0-0_
  6
CONTINUOUS
 62
    7
 10
6.2877693046580418
 20
-5.6901779436273614
 40
1.3452529427348139
 50
285.98642157289834
 51
326.06832519730614
  0
ARC
  8
_0-0_
  6
CONTINUOUS
 62
    7
 10
9.2732312793726805
 20
-6.1191112134034427
 40
0.780053010773279
 50
92.037330696820788
 51
187.48995268463241
  0
ARC
  8
_0-0_
  6
CONTINUOUS
 62
    7
 10
8.9065608027818541
 20
-6.5495638653339654
 40
0.5229886265021925
 50
141.05023582289684
 51
277.44741685019653
  0
ARC
  8
_0-0_
  6
CONTINUOUS
 62
    7
 10
8.6038531273813703
 20
-5.7749127176294337
 40
1.3452529427348139
 50
285.98642157289834
 51
326.06832519730614
  0
ARC
  8
_0-0_
  6
CONTINUOUS
 62
    7
 10
9.9793543960566069
 20
-2.3907811573122473
 40
0.780053010773279
 50
92.037330696820788
 51
187.48995268463241
  0
ARC
  8
_0-0_
  6
CONTINUOUS
 62
    7
 10
9.6126839194657805
 20
-2.82123380924277
 40
0.5229886265021925
 50
141.05023582289684
 51
277.44741685019653
  0
ARC
  8
_0-0_
  6
CONTINUOUS
 62
    7
 10
9.3099762440652967
 20
-2.0465826615382383
 40
1.3452529427348139
 50
285.98642157289834
 51
326.06832519730614
  0
ARC
  8
_0-0_
  6
CONTINUOUS
 62
    7
 10
5.3754316752773263
 20
-1.5716783419588864
 40
0.780053010773279
 50
92.037330696820788
 51
187.48995268463241
  0
ARC
  8
_0-0_
  6
CONTINUOUS
 62
    7
 10
5.0087611986864999
 20
-2.0021309938894092
 40
0.5229886265021925
 50
141.05023582289684
 51
277.44741685019653
  0
ARC
  8
_0-0_
  6
CONTINUOUS
 62
    7
 10
4.7060535232860161
 20
-1.2274798461848775
 40
1.3452529427348139
 50
285.98642157289834
 51
326.06832519730614
  0
ARC
  8
_0-0_
  6
CONTINUOUS
 62
    7
 10
6.3922489633021939
 20
1.902447392126092
 40
0.780053010773279
 50
92.037330696820788
 51
187.48995268463241
  0
ARC
  8
_0-0_
  6
CONTINUOUS
 62
    7
 10
6.0255784867113675
 20
1.4719947401955693
 40
0.5229886265021925
 50
141.05023582289684
 51
277.44741685019653
  0
ARC
  8
_0-0_
  6
CONTINUOUS
 62
    7
 10
5.7228708113108837
 20
2.246645887900101
 40
1.3452529427348139
 50
285.98642157289834
 51
326.06832519730614
  0
ARC
  8
_0-0_
  6
CONTINUOUS
 62
    7
 10
10.71372243740791
 20
1.2810590494442238
 40
0.780053010773279
 50
92.037330696820788
 51
187.48995268463241
  0
ARC
  8
_0-0_
  6
CONTINUOUS
 62
    7
 10
10.347051960817083
 20
0.850606397513701
 40
0.5229886265021925
 50
141.05023582289684
 51
277.44741685019653
  0
ARC
  8
_0-0_
  6
CONTINUOUS
 62
    7
 10
10.044344285416599
 20
1.6252575452182327
 40
1.3452529427348139
 50
285.98642157289834
 51
326.06832519730614
  0
ARC
  8
_0-0_
  6
CONTINUOUS
 62
    7
 10
11.504580328093908
 20
4.9246543315333469
 40
0.780053010773279
 50
92.037330696820788
 51
187.48995268463241
  0
ARC
  8
_0-0_
  6
CONTINUOUS
 62
    7
 10
11.137909851503082
 20
4.4942016796028241
 40
0.5229886265021925
 50
141.05023582289684
 51
277.44741685019653
  0
ARC
  8
_0-0_
  6
CONTINUOUS
 62
    7
 10
10.835202176102598
 20
5.2688528273073558
 40
1.3452529427348139
 50
285.98642157289834
 51
326.06832519730614
  0
ARC
  8
_0-0_
  6
CONTINUOUS
 62
    7
 10
7.5785357993312346
 20
5.5460426742152009
 40
0.780053010773279
 50
92.037330696820788
 51
187.48995268463241
  0
ARC
  8
_0-0_
  6
CONTINUOUS
 62
    7
 10
7.2118653227404081
 20
5.1155900222846782
 40
0.5229886265021925
 50
141.05023582289684
 51
277.44741685019653
  0
ARC
  8
_0-0_
  6
CONTINUOUS
 62
    7
 10
6.9091576473399243
 20
5.8902411699892099
 40
1.3452529427348139
 50
285.98642157289834
 51
326.06832519730614
  0
ARC
  8
_0-0_
  6
CONTINUOUS
 62
    7
 10
9.4991906767115211
 20
5.5742875988825773
 40
0.780053010773279
 50
92.037330696820788
 51
187.48995268463241
  0
ARC
  8
_0-0_
  6
CONTINUOUS
 62
    7
 10
9.1325202001206947
 20
5.1438349469520546
 40
0.5229886265021925
 50
141.05023582289684
 51
277.44741685019653
  0
ARC
  8
_0-0_
  6
CONTINUOUS
 62
    7
 10
8.8298125247202108
 20
5.9184860946565863
 40
1.3452529427348139
 50
285.98642157289834
 51
326.06832519730614
  0
ARC
  8
_0-0_
  6
CONTINUOUS
 62
    7
 10
10.092334094726027
 20
8.2858003669488909
 40
0.780053010773279
 50
92.037330696820788
 51
187.48995268463241
  0
ARC
  8
_0-0_
  6
CONTINUOUS
 62
    7
 10
9.7256636181352007
 20
7.8553477150183681
 40
0.5229886265021925
 50
141.05023582289684
 51
277.44741685019653
  0
ARC
  8
_0-0_
  6
CONTINUOUS
 62
    7
 10
9.4229559427347169
 20
8.6299988627228998
 40
1.3452529427348139
 50
285.98642157289834
 51
326.06832519730614
  0
ARC
  8
_0-0_
  6
CONTINUOUS
 62
    7
 10
8.030454594008944
 20
9.2461278056390341
 40
0.780053010773279
 50
92.037330696820788
 51
187.48995268463241
  0
ARC
  8
_0-0_
  6
CONTINUOUS
 62
    7
 10
7.6637841174181176
 20
8.8156751537085114
 40
0.5229886265021925
 50
141.05023582289684
 51
277.44741685019653
  0
ARC
  8
_0-0_
  6
CONTINUOUS
 62
    7
 10
7.3610764420176338
 20
9.5903263014130431
 40
1.3452529427348139
 50
285.98642157289834
 51
326.06832519730614
  0
ARC
  8
_0-0_
  6
CONTINUOUS
 62
    7
 10
12.267193294112559
 20
8.4835148396203834
 40
0.780053010773279
 50
92.037330696820788
 51
187.48995268463241
  0
ARC
  8
_0-0_
  6
CONTINUOUS
 62
    7
 10
11.900522817521733
 20
8.0530621876898607
 40
0.5229886265021925
 50
141.05023582289684
 51
277.44741685019653
  0
ARC
  8
_0-0_
  6
CONTINUOUS
 62
    7
 10
11.597815142121249
 20
8.8277133353943924
 40
1.3452529427348139
 50
285.98642157289834
 51
326.06832519730614
  0
ARC
  8
_0-0_
  6
CONTINUOUS
 62
    7
 10
13.114541034133282
 20
12.381314443715738
 40
0.780053010773279
 50
92.037330696820788
 51
187.48995268463241
  0
ARC
  8
_0-0_
  6
CONTINUOUS
 62
    7
 10
12.747870557542456
 20
11.950861791785215
 40
0.5229886265021925
 50
141.05023582289684
 51
277.44741685019653
  0
ARC
  8
_0-0_
  6
CONTINUOUS
 62
    7
 10
12.445162882141972
 20
12.725512939489747
 40
1.3452529427348139
 50
285.98642157289834
 51
326.06832519730614
  0
ARC
  8
_0-0_
  6
CONTINUOUS
 62
    7
 10
11.306865855422416
 20
13.79356067708359
 40
0.780053010773279
 50
92.037330696820788
 51
187.48995268463241
  0
ARC
  8
_0-0_
  6
CONTINUOUS
 62
    7
 10
10.940195378831589
 20
13.363108025153068
 40
0.5229886265021925
 50
141.05023582289684
 51
277.44741685019653
  0
ARC
  8
_0-0_
  6
CONTINUOUS
 62
    7
 10
10.637487703431106
 20
14.137759172857599
 40
1.3452529427348139
 50
285.98642157289834
 51
326.06832519730614
  0
ARC
  8
_0-0_
  6
CONTINUOUS
 62
    7
 10
9.1320066560358839
 20
12.720253539724027
 40
0.780053010773279
 50
92.037330696820788
 51
187.48995268463241
  0
ARC
  8
_0-0_
  6
CONTINUOUS
 62
    7
 10
8.7653361794450575
 20
12.289800887793504
 40
0.5229886265021925
 50
141.05023582289684
 51
277.44741685019653
  0
ARC
  8
_0-0_
  6
CONTINUOUS
 62
    7
 10
8.4626285040445737
 20
13.064452035498036
 40
1.3452529427348139
 50
285.98642157289834
 51
326.06832519730614
  0
ARC
  8
_0-0_
  6
CONTINUOUS
 62
    7
 10
9.5274356013788974
 20
16.279114047811063
 40
0.780053010773279
 50
92.037330696820788
 51
187.48995268463241
  0
ARC
  8
_0-0_
  6
CONTINUOUS
 62
    7
 10
9.160765124788071
 20
15.848661395880541
 40
0.5229886265021925
 50
141.05023582289684
 51
277.44741685019653
  0
ARC
  8
_0-0_
  6
CONTINUOUS
 62
    7
 10
8.8580574493875872
 20
16.623312543585072
 40
1.3452529427348139
 50
285.98642157289834
 51
326.06832519730614
  0
ARC
  8
_0-0_
  6
CONTINUOUS
 62
    7
 10
12.097723746108414
 20
17.267686411168583
 40
0.780053010773279
 50
92.037330696820788
 51
187.48995268463241
  0
ARC
  8
_0-0_
  6
CONTINUOUS
 62
    7
 10
11.731053269517588
 20
16.83723375923806
 40
0.5229886265021925
 50
141.05023582289684
 51
277.44741685019653
  0
ARC
  8
_0-0_
  6
CONTINUOUS
 62
    7
 10
11.428345594117104
 20
17.611884906942592
 40
1.3452529427348139
 50
285.98642157289834
 51
326.06832519730614
  0
ARC
  8
_0-0_
  6
CONTINUOUS
 62
    7
 10
13.933643849486657
 20
15.827195253133354
 40
0.780053010773279
 50
92.037330696820788
 51
187.48995268463241
  0
ARC
  8
_0-0_
  6
CONTINUOUS
 62
    7
 10
13.566973372895831
 20
15.396742601202831
 40
0.5229886265021925
 50
141.05023582289684
 51
277.44741685019653
  0
ARC
  8
_0-0_
  6
CONTINUOUS
 62
    7
 10
13.264265697495347
 20
16.171393748907363
 40
1.3452529427348139
 50
285.98642157289834
 51
326.06832519730614
  0
LINE
  8
_0-0_
  6
CONTINUOUS
 62
    7
 10
21.26713583259297
 20
0.3664604725805702
 11
22.525024452173625
 21
0.1457782586190461
  0
LINE
  8
_0-0_
  6
CONTINUOUS
 62
    7
 10
22.017455360062144
 20
-2.2596578735615083
 11
20.737498519085307
 21
-1.9948392168076907
  0
LINE
  8
_0-0_
  6
CONTINUOUS
 62
    7
 10
23.451889750812001
 20
-3.6278876001229321
 11
24.952528805750347
 21
-3.738228707103687
  0
LINE
  8
_0-0_
  6
CONTINUOUS
 62
    7
 10
24.753914813184963
 20
-6.099528396491948
 11
23.34154864383126
 21
-5.9009144039265777
  0
LINE
  8
_0-0_
  6
CONTINUOUS
 62
    7
 10
20.097520098596902
 20
-5.0402537694766494
 11
21.554022710742942
 21
-5.194731319249712
  0
LINE
  8
_0-0_
  6
CONTINUOUS
 62
    7
 10
19.788564999050777
 20
-7.4015534588649103
 11
21.399545160969865
 21
-7.5118945658456653
  0
ARC
  8
_0-0_
  6
CONTINUOUS
 62
    7
 10
22.644043395711037
 20
-0.7317606921411652
 40
0.8855733278628612
 50
97.723788359441627
 51
160.69268989956626
  0
ARC
  8
_0-0_
  6
CONTINUOUS
 62
    7
 10
24.346608410043331
 20
-1.4392175241268603
 40
2.7283051363256563
 50
158.49252839809409
 51
185.97713956505444
  0
ARC
  8
_0-0_
  6
CONTINUOUS
 62
    7
 10
22.095311045596247
 20
-1.7354829524341682
 40
0.4623354063738197
 50
178.49256424121819
 51
259.69515353124245
  0
ARC
  8
_0-0_
  6
CONTINUOUS
 62
    7
 10
22.035714743883773
 20
-1.4338526907048532
 40
0.7568610215918049
 50
268.25035143968461
 51
324.87975091447225
  0
ARC
  8
_0-0_
  6
CONTINUOUS
 62
    7
 10
21.44434064945068
 20
-1.0550837577461181
 40
1.4587938151621442
 50
326.07388980912771
 51
8.1761070716479942
  0
ARC
  8
_0-0_
  6
CONTINUOUS
 62
    7
 10
20.769784510801514
 20
-0.8094481104364774
 40
2.1188660830163633
 50
358.96775530842405
 51
20.307320917436559
  0
ARC
  8
_0-0_
  6
CONTINUOUS
 62
    7
 10
22.110149607857437
 20
-0.5241209568683444
 40
0.7879632576186406
 50
34.82972528636585
 51
58.229679967262399
  0
ARC
  8
_0-0_
  6
CONTINUOUS
 62
    7
 10
25.890763013774034
 20
-4.9264205737039362
 40
1.5139627937835203
 50
128.29574743658429
 51
171.98396241659216
  0
ARC
  8
_0-0_
  6
CONTINUOUS
 62
    7
 10
25.963729728374744
 20
-5.062722796056832
 40
1.6100676182427087
 50
167.5385486320238
 51
211.83902448871018
  0
ARC
  8
_0-0_
  6
CONTINUOUS
 62
    7
 10
24.943126257656559
 20
-5.7210350854623897
 40
0.3962973379262812
 50
208.82248869115696
 51
344.86305813410547
  0
ARC
  8
_0-0_
  6
CONTINUOUS
 62
    7
 10
24.337382991079693
 20
-4.9373507307479088
 40
1.3280761868534166
 50
318.08633359536981
 51
15.432626574258094
  0
ARC
  8
_0-0_
  6
CONTINUOUS
 62
    7
 10
24.755224728245679
 20
-4.5832624492228717
 40
0.862349642155917
 50
359.95478824354956
 51
65.943641989630393
  0
ARC
  8
_0-0_
  6
CONTINUOUS
 62
    7
 10
21.945315958034229
 20
-6.2170568600994756
 40
1.0946505912159887
 50
110.94425663471503
 51
159.802121038754
  0
ARC
  8
_0-0_
  6
CONTINUOUS
 62
    7
 10
24.439921806469414
 20
-6.7199092586354254
 40
3.6304096440206557
 50
165.95901319857776
 51
186.15061434334677
  0
ARC
  8
_0-0_
  6
CONTINUOUS
 62
    7
 10
21.409831950794768
 20
-6.9673084921757038
 40
0.5964665805335718
 50
193.73021550831766
 51
264.80557109226436
  0
ARC
  8
_0-0_
  6
CONTINUOUS
 62
    7
 10
21.015766608857547
 20
-6.6900032515531365
 40
0.935331951037086
 50
291.31994368051915
 51
340.20785324133738
  0
ARC
  8
_0-0_
  6
CONTINUOUS
 62
    7
 10
18.242714202633977
 20
-5.9631716208695451
 40
3.7992570111359076
 50
344.05762746351633
 51
0.5502690924519775
  0
ARC
  8
_0-0_
  6
CONTINUOUS
 62
    7
 10
21.358421538256209
 20
-5.8535823627689751
 40
0.6872732471329065
 50
353.89419200779315
 51
73.464781011995129
  0
ARC
  8
_0-0_
  6
CONTINUOUS
 62
    7
 10
21.178707692440753
 20
-6.2711854430513796
 40
1.343183232020901
 50
121.33838266637353
 51
170.86928420689921
  0
ARC
  8
_0-0_
  6
CONTINUOUS
 62
    7
 10
21.699671731704825
 20
-6.3145966316892981
 40
1.9225016829653823
 50
177.137381818796
 51
211.29432512855215
  0
ARC
  8
_0-0_
  6
CONTINUOUS
 62
    7
 10
24.421950664460041
 20
-4.5617585048401708
 40
0.927172438151779
 50
117.24269424515805
 51
186.79835697788451
  0
ARC
  8
_0-0_
  6
CONTINUOUS
 62
    7
 10
27.498228064307568
 20
-4.5155442630439779
 40
4.0303762426189067
 50
182.63314149523492
 51
198.5139053418871
  0
ARC
  8
_0-0_
  6
CONTINUOUS
 62
    7
 10
22.040209584740523
 20
-0.8555517541207535
 40
1.345790051962984
 50
119.13332506559244
 51
167.12687964271842
  0
ARC
  8
_0-0_
  6
CONTINUOUS
 62
    7
 10
22.536054130738933
 20
-1.0602335151576625
 40
1.8768880693974059
 50
164.40691932818001
 51
209.55519548548014
  0
ARC
  8
_0-0_
  6
CONTINUOUS
 62
    7
 10
23.669461387283548
 20
-3.7600962510747991
 40
0.4845512875003285
 50
18.533519007651112
 51
123.91041454745553
  0
ARC
  8
_0-0_
  6
CONTINUOUS
 62
    7
 10
25.066206956825056
 20
-4.9580492743492215
 40
2.3107180819738433
 50
136.17458376038246
 51
177.96121536443701
  0
ARC
  8
_0-0_
  6
CONTINUOUS
 62
    7
 10
24.388224958272417
 20
-5.0262840771475084
 40
1.6381957054696876
 50
174.73091633710675
 51
217.73378498520751
  0
ARC
  8
_0-0_
  6
CONTINUOUS
 62
    7
 10
23.318859607289653
 20
-5.6615413591399886
 40
0.4313835207934007
 50
238.37133196989305
 51
319.57392125990367
  0
ARC
  8
_0-0_
  6
CONTINUOUS
 62
    7
 10
20.991485815061623
 20
-0.7325844458388246
 40
1.2092914479749355
 50
65.040452792571159
 51
116.55099431290583
  0
ARC
  8
_0-0_
  6
CONTINUOUS
 62
    7
 10
22.459351401331361
 20
-1.1544018849898237
 40
2.5088743254312895
 50
143.18008113371499
 51
183.32841778964524
  0
ARC
  8
_0-0_
  6
CONTINUOUS
 62
    7
 10
21.087660972768191
 20
-1.2100439277998305
 40
1.136522570439858
 50
184.543016061721
 51
236.81154398187113
  0
ARC
  8
_0-0_
  6
CONTINUOUS
 62
    7
 10
20.724575015145518
 20
-1.3518225328203499
 40
0.8497920765081044
 50
252.25218622634912
 51
297.90702949368017
  0
ARC
  8
_0-0_
  6
CONTINUOUS
 62
    7
 10
20.148311407434562
 20
-5.230489510750175
 40
0.4730935130189279
 50
18.525720014449451
 51
128.69519931747971
  0
ARC
  8
_0-0_
  6
CONTINUOUS
 62
    7
 10
21.119203342176263
 20
-6.3400408587765611
 40
1.9471141386803064
 50
130.58169294221034
 51
168.62085162945621
  0
ARC
  8
_0-0_
  6
CONTINUOUS
 62
    7
 10
21.358545755130308
 20
-6.1819271013849004
 40
2.160043233935542
 50
173.99287903562353
 51
214.35179636464119
  0
ARC
  8
_0-0_
  6
CONTINUOUS
 62
    7
 10
19.881734124838999
 20
-7.2110452036700963
 40
0.3604702217242939
 50
211.75948008481336
 51
301.75948008481333
  0
ARC
  8
_0-0_
  6
CONTINUOUS
 62
    7
 10
20.288735955273921
 20
-5.749222003403716
 40
0.7135008745109604
 50
87.522017307953575
 51
180.18645701569662
  0
ARC
  8
_0-0_
  6
CONTINUOUS
 62
    7
 10
25.151734552135622
 20
-5.6252693656409036
 40
5.7355779189051024
 50
186.96466417154292
 51
196.35392113550338
  0
ARC
  8
_0-0_
  6
CONTINUOUS
 62
    7
 10
23.743247920743926
 20
-4.1246665324175638
 40
0.554357039201597
 50
69.305694783461462
 51
171.62539505546064
  0
ARC
  8
_0-0_
  6
CONTINUOUS
 62
    7
 10
24.536541546245445
 20
-4.827336223521641
 40
1.4786688341826635
 50
170.52582833329785
 51
223.95709046458234
  0
ARC
  8
_0-0_
  6
CONTINUOUS
 62
    7
 10
21.067752653966892
 20
0.0131385648738131
 40
0.3707829845741427
 50
64.996082578632283
 51
124.15175994116801
  0
ARC
  8
_0-0_
  6
CONTINUOUS
 62
    7
 10
21.709759461046843
 20
-0.8768097073491389
 40
1.423037124023744
 50
140.51419848709068
 51
184.117017459794
  0
ARC
  8
_0-0_
  6
CONTINUOUS
 62
    7
 10
21.04393070861002
 20
-1.2882486103865887
 40
0.7683276939605737
 50
178.7043073123171
 51
238.3419299003051
  0
ARC
  8
_0-0_
  6
CONTINUOUS
 62
    7
 10
17.658624552918496
 20
-3.735974102195101
 40
8.2453833006820751
 50
330.62721869922376
 51
6.4945367251618684
  0
ARC
  8
_0-0_
  6
CONTINUOUS
 62
    7
 10
22.517046099042545
 20
-5.5697696885989245
 40
2.4822777553164816
 50
321.68097602271547
 51
346.58631038909448
  0
ARC
  8
_0-0_
  6
CONTINUOUS
 62
    7
 10
23.759708962424128
 20
-3.2732907936646995
 40
1.6370024882863157
 50
341.38580882420632
 51
15.089409128470644
  0
ARC
  8
_0-0_
  6
CONTINUOUS
 62
    7
 10
25.593528220401538
 20
-2.8001213352548433
 40
0.2575863367635668
 50
359.28151186365983
 51
190.51667304391586
  0
ARC
  8
_0-0_
  6
CONTINUOUS
 62
    7
 10
25.464326468947093
 20
-7.4664579252959413
 40
1.0617809019767606
 50
160.31968691031571
 51
199.68031308968429
  0
ARC
  8
_0-0_
  6
CONTINUOUS
 62
    7
 10
24.629458946765595
 20
-7.586825782550136
 40
0.2888902087037907
 50
235.19582540717744
 51
317.96806390317812
  0
ENDBLK
  0
ENDSEC
  0
SECTION
  2
ENTITIES
  0
INSERT
  2
-003-25
  8
_0-0_
 10
145.97448979591837
 20
107.69387755102041
 41
1
 42
1
 50
0
  0
ENDSEC
  0
EOF
