  0
SECTION
  2
HEADER
  9
$ACADVER
  1
AC1009
  9
$INSBASE
 10
0
 20
0
 30
0
  9
$EXTMIN
 10
0
 20
0
  9
$EXTMAX
 10
297
 20
210
  9
$LIMMIN
 10
0
 20
0
  9
$LIMMAX
 10
297
 20
210
  9
$LTSCALE
 40
1
  0
ENDSEC
  0
SECTION
  2
TABLES
  0
TABLE
  2
LTYPE
 70
     9
  0
LTYPE
  2
CONTINUOUS
 70
    64
  3
実線
 72
    65
 73
     0
 40
0.0
  0
LTYPE
  2
DASHED1
 70
    64
  3
--  --  --  --  --  --  --  --  
 72
    65
 73
     2
 40
2.5
 49
1.25
 49
-1.25
  0
LTYPE
  2
DASHED2
 70
    64
  3
----    ----    ----    ----    
 72
    65
 73
     2
 40
5.0
 49
2.5
 49
-2.5
  0
LTYPE
  2
DASHED3
 70
    64
  3
------  ------  ------  ------  
 72
    65
 73
     2
 40
5.0
 49
3.75
 49
-1.25
  0
LTYPE
  2
CENTER1
 70
    64
  3
----- - ----- - ----- - ----- - 
 72
    65
 73
     4
 40
10.0
 49
6.25
 49
-1.25
 49
1.25
 49
-1.25
  0
LTYPE
  2
CENTER2
 70
    64
  3
----------  --  ----------  --  
 72
    65
 73
     4
 40
20.0
 49
12.5
 49
-2.5
 49
2.5
 49
-2.5
  0
LTYPE
  2
PHANTOM1
 70
    64
  3
--- - - --- - - --- - - --- - - 
 72
    65
 73
     6
 40
10.0
 49
3.25
 49
-1.25
 49
1.25
 49
-1.25
 49
1.25
 49
-1.25
  0
LTYPE
  2
PHANTOM2
 70
    64
  3
--------  -  -  --------  -  -  
 72
    65
 73
     6
 40
20.0
 49
10.0
 49
-2.5
 49
1.25
 49
-2.5
 49
1.25
 49
-2.5
  0
LTYPE
  2
DOT
 70
    64
  3
-   -   -   -   -   -   -   -   
 72
    65
 73
     2
 40
2.5
 49
0.625
 49
-1.875
  0
LTYPE
  2
DUMMY
 70
    64
  3
ダミー
 72
    65
 73
     0
 40
0.0
  0
LTYPE
  2
RAND1
 70
    64
  3
ランダム線1
 72
    65
 73
     4
 40
10.0
 49
1.0
 49
-2.0
 49
3.0
 49
-4.0
  0
LTYPE
  2
RAND2
 70
    64
  3
ランダム線2
 72
    65
 73
     4
 40
14.0
 49
2.0
 49
-3.0
 49
4.0
 49
-5.0
  0
LTYPE
  2
RAND3
 70
    64
  3
ランダム線3
 72
    65
 73
     4
 40
18.0
 49
3.0
 49
-4.0
 49
5.0
 49
-6.0
  0
LTYPE
  2
RAND4
 70
    64
  3
ランダム線4
 72
    65
 73
     4
 40
22.0
 49
4.0
 49
-5.0
 49
6.0
 49
-7.0
  0
LTYPE
  2
RAND5
 70
    64
  3
ランダム線5
 72
    65
 73
     4
 40
26.0
 49
5.0
 49
-6.0
 49
7.0
 49
-8.0
  0
LTYPE
  2
LONG1
 70
    64
  3
----------  --  ----------  --  
 72
    65
 73
     4
 40
40.0
 49
32.5
 49
-2.5
 49
2.5
 49
-2.5
  0
LTYPE
  2
LONG2
 70
    64
  3
--------  -  -  --------  -  -  
 72
    65
 73
     6
 40
40.0
 49
30.0
 49
-2.5
 49
1.25
 49
-2.5
 49
1.25
 49
-2.5
  0
LTYPE
  2
LONG3
 70
    64
  3
+++++++++++++++..+++++++++++++++
 72
    65
 73
     2
 40
40.0
 49
37.5
 49
-2.5
  0
LTYPE
  2
LONG4
 70
    64
  3
+++++++++++++++..+++++++++++++++
 72
    65
 73
     2
 40
80.0
 49
75.0
 49
-5.0
  0
LTYPE
  2
LONG5
 70
    64
  3
----------  --  ----------  --  
 72
    65
 73
     4
 40
60.0
 49
37.5
 49
-7.5
 49
7.5
 49
-7.5
  0
LTYPE
  2
dashed
 70
   64
  3
-------   -------------   ------
 72
   65
 73
    2
 40
7.5
 49
6
 49
-1.5
  0
LTYPE
  2
dashed_spaced
 70
   64
  3
----        --------        ----
 72
   65
 73
    2
 40
12
 49
6
 49
-6
  0
LTYPE
  2
long_dashed_dotted
 70
   64
  3
------------- --- --------------
 72
   65
 73
    4
 40
15.25
 49
12
 49
-1.5
 49
0.25
 49
-1.5
  0
LTYPE
  2
long_dashed_double-dotted
 70
   64
  3
----------- --- --- ------------
 72
   65
 73
    6
 40
17
 49
12
 49
-1.5
 49
0.25
 49
-1.5
 49
0.25
 49
-1.5
  0
LTYPE
  2
long_dashed_triplicate-dotted
 70
   64
  3
--------- --- --- --- ----------
 72
   65
 73
    8
 40
18.75
 49
12
 49
-1.5
 49
0.25
 49
-1.5
 49
0.25
 49
-1.5
 49
0.25
 49
-1.5
  0
LTYPE
  2
dotted
 70
   64
  3
   -       -       -       -    
 72
   65
 73
    2
 40
1.75
 49
0.25
 49
-1.5
  0
LTYPE
  2
chain
 70
   64
  3
-------------- -- --------------
 72
   65
 73
    4
 40
18.5
 49
12
 49
-1.5
 49
3.5
 49
-1.5
  0
LTYPE
  2
chain_double_dash
 70
   64
  3
------------ -- -- -------------
 72
   65
 73
    6
 40
23.5
 49
12
 49
-1.5
 49
3.5
 49
-1.5
 49
3.5
 49
-1.5
  0
LTYPE
  2
dashed_dotted
 70
   64
  3
-----------     -     ----------
 72
   65
 73
    4
 40
9.25
 49
6
 49
-1.5
 49
0.25
 49
-1.5
  0
LTYPE
  2
double-dashed_dotted
 70
   64
  3
------   -----------   -   -----
 72
   65
 73
    6
 40
16.75
 49
6
 49
-1.5
 49
6
 49
-1.5
 49
0.25
 49
-1.5
  0
LTYPE
  2
dashed_double-dotted
 70
   64
  3
---------    -    -    ---------
 72
   65
 73
    6
 40
11
 49
6
 49
-1.5
 49
0.25
 49
-1.5
 49
0.25
 49
-1.5
  0
LTYPE
  2
double-dashed_double-dotted
 70
   64
  3
-----   ---------   -   -   ----
 72
   65
 73
    8
 40
18.5
 49
6
 49
-1.5
 49
6
 49
-1.5
 49
0.25
 49
-1.5
 49
0.25
 49
-1.5
  0
LTYPE
  2
dashed_triplicate-dotted
 70
   64
  3
-------    -    -    -    ------
 72
   65
 73
    8
 40
12.75
 49
6
 49
-1.5
 49
0.25
 49
-1.5
 49
0.25
 49
-1.5
 49
0.25
 49
-1.5
  0
LTYPE
  2
double-dashed_triplicate-dotted
 70
   64
  3
-----  ---------  -  -  -  -----
 72
   65
 73
   10
 40
20.25
 49
6
 49
-1.5
 49
6
 49
-1.5
 49
0.25
 49
-1.5
 49
0.25
 49
-1.5
 49
0.25
 49
-1.5
  0
LTYPE
  2
undefined
 70
   64
  3
--------------------------------
 72
   65
 73
    0
 40
0
  0
LTYPE
  2
_
 70
   64
  3
                                
 72
   65
 73
    0
 40
0
  0
LTYPE
  2
__18
 70
   64
  3
                                
 72
   65
 73
    0
 40
0
  0
LTYPE
  2
__19
 70
   64
  3
                                
 72
   65
 73
    0
 40
0
  0
LTYPE
  2
__20
 70
   64
  3
                                
 72
   65
 73
    0
 40
0
  0
LTYPE
  2
__21
 70
   64
  3
                                
 72
   65
 73
    0
 40
0
  0
LTYPE
  2
__22
 70
   64
  3
                                
 72
   65
 73
    0
 40
0
  0
LTYPE
  2
__23
 70
   64
  3
                                
 72
   65
 73
    0
 40
0
  0
LTYPE
  2
__24
 70
   64
  3
                                
 72
   65
 73
    0
 40
0
  0
LTYPE
  2
__25
 70
   64
  3
                                
 72
   65
 73
    0
 40
0
  0
LTYPE
  2
__26
 70
   64
  3
                                
 72
   65
 73
    0
 40
0
  0
LTYPE
  2
__27
 70
   64
  3
                                
 72
   65
 73
    0
 40
0
  0
LTYPE
  2
__28
 70
   64
  3
                                
 72
   65
 73
    0
 40
0
  0
LTYPE
  2
__29
 70
   64
  3
                                
 72
   65
 73
    0
 40
0
  0
LTYPE
  2
__30
 70
   64
  3
                                
 72
   65
 73
    0
 40
0
  0
LTYPE
  2
__31
 70
   64
  3
                                
 72
   65
 73
    0
 40
0
  0
LTYPE
  2
__32
 70
   64
  3
                                
 72
   65
 73
    0
 40
0
  0
ENDTAB
  0
TABLE
  2
STYLE
  5
3
100
AcDbSymbolTable
 70
     1
  0
STYLE
  5
10
100
AcDbSymbolTableRecord
100
AcDbTextStyleTableRecord
  2
STANDARD
 70
     0
 40
0.0
 41
1.0
 50
0.0
 71
     0
 42
0.2
  3
txt
  4
bigfont.shx
  0
STYLE
  5
26
100
AcDbSymbolTableRecord
100
AcDbTextStyleTableRecord
  2
TATEGAKI
 70
    68
 40
0.0
 41
1.0
 50
0.0
 71
     0
 42
1.0
  3
txt
  4
bigfont.shx
  0
ENDTAB
  0
TABLE
  2
LAYER
 70
    2
  0
LAYER
  2
_0-0_
 70
   64
 62
    7
  6
CONTINUOUS
  0
LAYER
  2
ADD_LINE
 70
   64
 62
    7
  6
CONTINUOUS
  0
ENDTAB
  0
ENDSEC
  0
SECTION
  2
BLOCKS
  0
BLOCK
  2
-002-1
 70
   64
 10
0
 20
0
 30
0
  0
LINE
  8
_0-0_
  6
CONTINUOUS
 62
    7
 10
-12.384536474428018
 20
30.297985203826052
 11
18.215881420020935
 21
25.915886524766613
  0
LINE
  8
_0-0_
  6
CONTINUOUS
 62
    7
 10
-17.880728037994061
 20
27.104252268240366
 11
13.091054151290422
 21
21.830879281575626
  0
LINE
  8
_0-0_
  6
CONTINUOUS
 62
    7
 10
18.215881420020935
 20
25.915886524766613
 11
18.538045859234956
 21
25.76876003343687
  0
LINE
  8
_0-0_
  6
CONTINUOUS
 62
    7
 10
18.538045859234956
 20
25.76876003343687
 11
18.176143075095865
 21
20.726247907765419
  0
LINE
  8
_0-0_
  6
CONTINUOUS
 62
    7
 10
18.176143075095865
 20
20.726247907765419
 11
18.417411597855278
 21
20.340218271350388
  0
LINE
  8
_0-0_
  6
CONTINUOUS
 62
    7
 10
18.417411597855278
 20
20.340218271350388
 11
23.00151353028383
 21
19.881808078107532
  0
LINE
  8
_0-0_
  6
CONTINUOUS
 62
    7
 10
23.00151353028383
 20
19.881808078107532
 11
18.296777336475571
 21
20.871009021421067
  0
LINE
  8
_0-0_
  6
CONTINUOUS
 62
    7
 10
23.00151353028383
 20
19.881808078107532
 11
22.518976484765034
 21
11.726932008839846
  0
LINE
  8
_0-0_
  6
CONTINUOUS
 62
    7
 10
22.518976484765034
 20
11.726932008839846
 11
20.226925518550757
 21
12.281849611186466
  0
LINE
  8
_0-0_
  6
CONTINUOUS
 62
    7
 10
21.167872757312409
 20
20.050696044039107
 11
20.757716268621436
 21
19.83355437355565
  0
LINE
  8
_0-0_
  6
CONTINUOUS
 62
    7
 10
20.757716268621436
 20
19.83355437355565
 11
20.033910700343228
 21
11.316775520148866
  0
LINE
  8
_0-0_
  6
CONTINUOUS
 62
    7
 10
15.473935620190588
 20
25.672252624333105
 11
15.256793949707145
 21
21.691321998803026
  0
LINE
  8
_0-0_
  6
CONTINUOUS
 62
    7
 10
15.377428211086851
 20
23.693850737706036
 11
16.728531938539476
 21
23.235440544463181
  0
LINE
  8
_0-0_
  6
CONTINUOUS
 62
    7
 10
16.728531938539476
 20
23.235440544463181
 11
17.066307870402625
 21
22.173859044321823
  0
LINE
  8
_0-0_
  6
CONTINUOUS
 62
    7
 10
17.066307870402625
 20
22.173859044321823
 11
16.463136563504122
 21
21.450053476043628
  0
LINE
  8
_0-0_
  6
CONTINUOUS
 62
    7
 10
16.463136563504122
 20
21.450053476043628
 11
14.60536893825676
 21
21.329419214663922
  0
LINE
  8
_0-0_
  6
CONTINUOUS
 62
    7
 10
14.60536893825676
 20
21.329419214663922
 11
13.592041142667284
 21
20.123076600866931
  0
LINE
  8
_0-0_
  6
CONTINUOUS
 62
    7
 10
14.60536893825676
 20
21.329419214663922
 11
14.653622642808642
 21
20.147203453142872
  0
LINE
  8
_0-0_
  6
CONTINUOUS
 62
    7
 10
14.653622642808642
 20
25.479237806125589
 11
18.007255109164277
 21
25.696379476609046
  0
LINE
  8
_0-0_
  6
CONTINUOUS
 62
    7
 10
18.007255109164277
 20
25.696379476609046
 11
18.417411597855278
 21
25.57574521522934
  0
LINE
  8
_0-0_
  6
CONTINUOUS
 62
    7
 10
13.091054151290422
 20
21.830879281575626
 11
13.688548551771049
 21
21.980844226114307
  0
LINE
  8
_0-0_
  6
CONTINUOUS
 62
    7
 10
13.978070779082316
 20
21.908463669286483
 11
14.894891165568026
 21
21.811956260182718
  0
LINE
  8
_0-0_
  6
CONTINUOUS
 62
    7
 10
15.256793949707145
 20
21.691321998803026
 11
14.60536893825676
 21
21.329419214663922
  0
LINE
  8
_0-0_
  6
CONTINUOUS
 62
    7
 10
13.374899472183813
 20
19.930061782659415
 11
17.983128256888335
 21
19.640539555348134
  0
LINE
  8
_0-0_
  6
CONTINUOUS
 62
    7
 10
18.031381961440218
 20
17.83102563465264
 11
13.495533733563519
 21
18.144674714239862
  0
LINE
  8
_0-0_
  6
CONTINUOUS
 62
    7
 10
17.765986586404892
 20
16.142145975336845
 11
13.857436517702638
 21
16.311033941268427
  0
LINE
  8
_0-0_
  6
CONTINUOUS
 62
    7
 10
13.254265210804135
 20
14.646281134228573
 11
17.741859734128951
 21
14.405012611469175
  0
LINE
  8
_0-0_
  6
CONTINUOUS
 62
    7
 10
12.940616131216899
 20
12.812640361257138
 11
17.572971768197363
 21
12.71613295215338
  0
LINE
  8
_0-0_
  6
CONTINUOUS
 62
    7
 10
12.699347608457515
 20
11.147887554217284
 11
17.548844915921421
 21
11.027253292837585
  0
LINE
  8
_0-0_
  6
CONTINUOUS
 62
    7
 10
12.40982538114622
 20
9.4107541903496141
 11
17.283449540886096
 21
9.3142467812458563
  0
LINE
  8
_0-0_
  6
CONTINUOUS
 62
    7
 10
12.458079085698103
 20
7.6494939742060026
 11
16.897419904471064
 21
7.6012402696541201
  0
LINE
  8
_0-0_
  6
CONTINUOUS
 62
    7
 10
12.849384870275401
 20
5.8872604880130339
 11
16.968366168594571
 21
5.8872604880130339
  0
LINE
  8
_0-0_
  6
CONTINUOUS
 62
    7
 10
16.701843849291578
 20
4.2881265721950044
 11
11.662149084289297
 21
4.3365851757046414
  0
LINE
  8
_0-0_
  6
CONTINUOUS
 62
    7
 10
16.580697340517474
 20
2.5193875440932487
 11
11.419856066741119
 21
2.4709289405836117
  0
LINE
  8
_0-0_
  6
CONTINUOUS
 62
    7
 10
16.532238737007845
 20
0.8717950247655821
 11
11.492543972005564
 21
0.6295020072173969
  0
LINE
  8
_0-0_
  6
CONTINUOUS
 62
    7
 10
16.435321529988556
 20
-0.8484853998265435
 11
11.032187238664022
 21
-1.0180905121102697
  0
LINE
  8
_0-0_
  6
CONTINUOUS
 62
    7
 10
13.188595094842867
 20
-3.1502690665343138
 11
11.419856066741119
 21
-3.1744983682891288
  0
LINE
  8
_0-0_
  6
CONTINUOUS
 62
    7
 10
15.635754572079549
 20
-8.4322568490847729
 11
10.983728635154364
 21
-8.7714670736522322
  0
LINE
  8
_0-0_
  6
CONTINUOUS
 62
    7
 10
15.441920158041
 20
-10.07984936841244
 11
11.007957936909207
 21
-10.394830291225077
  0
LINE
  8
_0-0_
  6
CONTINUOUS
 62
    7
 10
15.358326494874177
 20
-11.650175621846813
 11
11.01660023562431
 21
-12.019222353883052
  0
LINE
  8
_0-0_
  6
CONTINUOUS
 62
    7
 10
15.27149196968918
 20
-13.27832296906552
 11
10.582427609699323
 21
-13.669078332398009
  0
LINE
  8
_0-0_
  6
CONTINUOUS
 62
    7
 10
15.206366075800446
 20
-14.841344422395473
 11
11.081726129513044
 21
-15.253808417024214
  0
LINE
  8
_0-0_
  6
CONTINUOUS
 62
    7
 10
15.032697025430451
 20
-16.512909032206679
 11
10.452175821921827
 21
-17.033916183316663
  0
LINE
  8
_0-0_
  6
CONTINUOUS
 62
    7
 10
14.902445237652955
 20
-18.054221854240385
 11
10.321924034144331
 21
-18.770606687016613
  0
LINE
  8
_0-0_
  6
CONTINUOUS
 62
    7
 10
14.837319343764193
 20
-19.704077832755338
 11
10.104837721181838
 21
-20.398754034235317
  0
LINE
  8
_0-0_
  6
CONTINUOUS
 62
    7
 10
14.555107136912966
 20
-21.419059705159039
 11
10.126546352478073
 21
-22.092027275342769
  0
LINE
  8
_0-0_
  6
CONTINUOUS
 62
    7
 10
14.403146717839206
 20
-23.025498421081494
 11
10.083129089885574
 21
-23.915552304227717
  0
LINE
  8
_0-0_
  6
CONTINUOUS
 62
    7
 10
14.099225879691716
 20
-24.697063030892696
 11
10.01800319599684
 21
-25.326613338483927
  0
LINE
  8
_0-0_
  6
CONTINUOUS
 62
    7
 10
14.142643142284214
 20
-26.260084484222652
 11
9.6489564639605874
 21
-26.933052054406382
  0
LINE
  8
_0-0_
  6
CONTINUOUS
 62
    7
 10
13.990682723210455
 20
-27.909940462737605
 11
10.235089508959305
 21
-28.669742558106332
  0
LINE
  8
_0-0_
  6
CONTINUOUS
 62
    7
 10
10.235089508959305
 20
-28.669742558106332
 11
10.191672246366807
 21
-29.7117568603263
  0
LINE
  8
_0-0_
  6
CONTINUOUS
 62
    7
 10
10.018003195996812
 20
-28.756577083291329
 11
9.7140823578493212
 21
-28.669742558106332
  0
LINE
  8
_0-0_
  6
CONTINUOUS
 62
    7
 10
10.191672246366807
 20
-29.7117568603263
 11
10.908057079143049
 21
-30.059094961066293
  0
LINE
  8
_0-0_
  6
CONTINUOUS
 62
    7
 10
10.908057079143049
 20
-30.059094961066293
 11
12.188866325621774
 21
-29.972260435881296
  0
LINE
  8
_0-0_
  6
CONTINUOUS
 62
    7
 10
12.188866325621774
 20
-29.972260435881296
 11
12.16715769432551
 21
-30.536684849583779
  0
LINE
  8
_0-0_
  6
CONTINUOUS
 62
    7
 10
12.16715769432551
 20
-30.536684849583779
 11
10.365341296736801
 21
-30.623519374768776
  0
LINE
  8
_0-0_
  6
CONTINUOUS
 62
    7
 10
12.16715769432551
 20
-30.536684849583779
 11
12.492787163769265
 21
-30.666936637361275
  0
LINE
  8
_0-0_
  6
CONTINUOUS
 62
    7
 10
12.492787163769265
 20
-30.666936637361275
 11
10.690970766180556
 21
-30.753771162546272
  0
LINE
  8
_0-0_
  6
CONTINUOUS
 62
    7
 10
12.492787163769265
 20
-30.666936637361275
 11
12.536204426361763
 21
-31.253069682360007
  0
LINE
  8
_0-0_
  6
CONTINUOUS
 62
    7
 10
12.536204426361763
 20
-31.253069682360007
 11
11.537607386734294
 21
-31.817494096062489
  0
LINE
  8
_0-0_
  6
CONTINUOUS
 62
    7
 10
11.537607386734294
 20
-31.817494096062489
 11
10.994891604328046
 21
-31.882619989951237
  0
LINE
  8
_0-0_
  6
CONTINUOUS
 62
    7
 10
10.690970766180556
 20
-30.753771162546272
 11
10.582427609699295
 21
-34.33569532642742
  0
LINE
  8
_0-0_
  6
CONTINUOUS
 62
    7
 10
10.582427609699295
 20
-34.33569532642742
 11
13.81701367284046
 21
-33.727853650132438
  0
LINE
  8
_0-0_
  6
CONTINUOUS
 62
    7
 10
13.81701367284046
 20
-33.727853650132438
 11
14.099225879691716
 21
-29.234166971808815
  0
LINE
  8
_0-0_
  6
CONTINUOUS
 62
    7
 10
14.099225879691716
 20
-29.234166971808815
 11
19.027085183940329
 21
-28.257278563477591
  0
LINE
  8
_0-0_
  6
CONTINUOUS
 62
    7
 10
19.027085183940329
 20
-28.257278563477591
 11
19.548092335050313
 21
-20.594131715901561
  0
LINE
  8
_0-0_
  6
CONTINUOUS
 62
    7
 10
19.548092335050313
 20
-20.594131715901561
 11
17.333811942832881
 21
-19.85603825182908
  0
LINE
  8
_0-0_
  6
CONTINUOUS
 62
    7
 10
16.617427110056639
 20
-28.669742558106332
 11
17.333811942832881
 21
-19.85603825182908
  0
LINE
  8
_0-0_
  6
CONTINUOUS
 62
    7
 10
13.882139566729222
 20
-29.082206552735069
 11
12.709873476731758
 21
-28.713159820698831
  0
LINE
  8
_0-0_
  6
CONTINUOUS
 62
    7
 10
10.365341296736801
 20
-30.623519374768776
 11
-18.876185059311126
 21
-17.294419758871655
  0
LINE
  8
_0-0_
  6
CONTINUOUS
 62
    7
 10
-18.876185059311126
 20
-17.294419758871655
 11
-18.897893690607361
 21
-17.576631965722896
  0
LINE
  8
_0-0_
  6
CONTINUOUS
 62
    7
 10
-18.897893690607361
 20
-17.576631965722896
 11
-20.460915143937314
 21
-17.402962915352902
  0
LINE
  8
_0-0_
  6
CONTINUOUS
 62
    7
 10
-20.460915143937314
 20
-17.402962915352902
 11
-20.916796401158535
 21
-18.010804591647883
  0
LINE
  8
_0-0_
  6
CONTINUOUS
 62
    7
 10
-20.916796401158535
 20
-18.010804591647883
 11
-20.417497881344786
 21
-19.834329620532834
  0
LINE
  8
_0-0_
  6
CONTINUOUS
 62
    7
 10
-20.417497881344786
 20
-19.834329620532834
 11
9.9311686708118145
 21
-34.357403957723669
  0
LINE
  8
_0-0_
  6
CONTINUOUS
 62
    7
 10
9.9311686708118145
 20
-34.357403957723669
 11
10.191672246366807
 21
-34.248860801242422
  0
LINE
  8
_0-0_
  6
CONTINUOUS
 62
    7
 10
10.191672246366807
 20
-34.248860801242422
 11
10.582427609699295
 21
-34.33569532642742
  0
LINE
  8
_0-0_
  6
CONTINUOUS
 62
    7
 10
9.301618363220598
 20
-31.057692000693763
 11
8.3247299548893636
 21
-31.253069682360007
  0
LINE
  8
_0-0_
  6
CONTINUOUS
 62
    7
 10
7.9122659602606404
 20
-30.970857475508765
 11
-20.569458300418546
 21
-17.923970066462886
  0
LINE
  8
_0-0_
  6
CONTINUOUS
 62
    7
 10
-19.201814528754824
 20
-17.728592384796642
 11
9.1279493128506033
 21
-30.775479793842521
  0
LINE
  8
_0-0_
  6
CONTINUOUS
 62
    7
 10
17.333811942832881
 20
-19.85603825182908
 11
18.195105346300011
 21
-10.113702303605265
  0
LINE
  8
_0-0_
  6
CONTINUOUS
 62
    7
 10
19.265050498977558
 20
0.262746912928101
 11
20.033910700343228
 21
11.316775520148866
  0
LINE
  8
_0-0_
  6
CONTINUOUS
 62
    7
 10
19.95143040824243
 20
10.396944396779759
 11
42.440466258861449
 21
5.3904085880243571
  0
LINE
  8
_0-0_
  6
CONTINUOUS
 62
    7
 10
42.440466258861449
 20
5.3904085880243571
 11
22.656574756521564
 21
0.1819963353675291
  0
LINE
  8
_0-0_
  6
CONTINUOUS
 62
    7
 10
23.423705243346973
 20
0.3434974904886729
 11
19.143924632636725
 21
0.3434974904886729
  0
LINE
  8
_0-0_
  6
CONTINUOUS
 62
    7
 10
18.619045878493012
 20
-0.5043835738973214
 11
17.892290680447871
 21
-9.1043200840981271
  0
LINE
  8
_0-0_
  6
CONTINUOUS
 62
    7
 10
18.376794145811289
 20
-9.992576437264411
 11
25.805847281383819
 21
-9.185070661658699
  0
LINE
  8
_0-0_
  6
CONTINUOUS
 62
    7
 10
22.858451200422991
 20
-9.185070661658699
 11
42.521216836422013
 21
-3.4517796548581643
  0
LINE
  8
_0-0_
  6
CONTINUOUS
 62
    7
 10
42.521216836422013
 20
-3.4517796548581643
 11
42.440466258861449
 21
5.3904085880243571
  0
LINE
  8
_0-0_
  6
CONTINUOUS
 62
    7
 10
19.507302231659281
 20
2.6045136621846581
 11
25.64434612626269
 21
0.9895021109732411
  0
LINE
  8
_0-0_
  6
CONTINUOUS
 62
    7
 10
13.329883048275605
 20
20.450391303070838
 11
9.4134800365879414
 21
-28.040330522052017
  0
LINE
  8
_0-0_
  6
CONTINUOUS
 62
    7
 10
8.5655989722019399
 20
-28.040330522052017
 11
12.724253716571354
 21
19.319883217222845
  0
LINE
  8
_0-0_
  6
CONTINUOUS
 62
    7
 10
10.705489277557064
 20
21.298272367456839
 11
3.3168114307648295
 21
22.469155742085114
  0
LINE
  8
_0-0_
  6
CONTINUOUS
 62
    7
 10
3.6398137410071172
 20
21.702025255259692
 11
10.301736389754211
 21
20.69264303575256
  0
LINE
  8
_0-0_
  6
CONTINUOUS
 62
    7
 10
12.078249096086779
 20
18.996880906980557
 11
7.6369673302553736
 21
-26.344568393280021
  0
LINE
  8
_0-0_
  6
CONTINUOUS
 62
    7
 10
5.0933241370973974
 20
-27.192449457666015
 11
-1.3667220677482703
 21
-24.446929820606602
  0
LINE
  8
_0-0_
  6
CONTINUOUS
 62
    7
 10
5.6989534688016761
 20
-26.263817815719449
 11
9.9383587907316553
 21
18.310500997715714
  0
LINE
  8
_0-0_
  6
CONTINUOUS
 62
    7
 10
9.0904777263456538
 20
19.642885527465133
 11
2.3881797888182632
 21
20.733018324532843
  0
LINE
  8
_0-0_
  6
CONTINUOUS
 62
    7
 10
1.7421751683336879
 20
19.764011393805994
 11
-1.6089738004299932
 21
-23.276046445978331
  0
LINE
  8
_0-0_
  6
CONTINUOUS
 62
    7
 10
10.665113988776795
 20
25.012798935243104
 11
-15.215446119386172
 21
29.050327813271643
  0
LINE
  8
_0-0_
  6
CONTINUOUS
 62
    7
 10
19.806859443214933
 20
7.4444049669297101
 11
24.487864128524194
 21
6.3907470857346382
  0
LINE
  8
_0-0_
  6
CONTINUOUS
 62
    7
 10
24.332406408347879
 20
4.4216159635012247
 11
19.668674803058195
 21
5.6134584848530267
  0
LINE
  8
_0-0_
  6
CONTINUOUS
 62
    7
 10
28.685222573284904
 20
5.4580007646767044
 11
35.853550781415294
 21
3.7306927627175668
  0
LINE
  8
_0-0_
  6
CONTINUOUS
 62
    7
 10
28.253395572795114
 20
3.5234158024824751
 11
32.053473177105218
 21
2.6943079615420871
  0
ARC
  8
_0-0_
  6
CONTINUOUS
 62
    7
 10
29.022846388812354
 20
4.367150847023261
 40
1.1419034038200593
 50
107.19757267474948
 51
227.63650233709632
  0
ARC
  8
_0-0_
  6
CONTINUOUS
 62
    7
 10
23.893780429552521
 20
5.446946380319261
 40
1.1152108378806349
 50
293.16074904268669
 51
57.811274041311144
  0
ARC
  8
_0-0_
  6
CONTINUOUS
 62
    7
 10
33.491323176019307
 20
-4.6001760751815084
 40
11.843181425530284
 50
156.18460048429822
 51
182.18670283641876
  0
ARC
  8
_0-0_
  6
CONTINUOUS
 62
    7
 10
32.193702365726097
 20
-4.2296156468789547
 40
10.568985226728188
 50
184.46310295813927
 51
207.96081678077937
  0
ARC
  8
_0-0_
  6
CONTINUOUS
 62
    7
 10
19.744855301321024
 20
-0.6149102128867198
 40
1.131221903277452
 50
122.08809993443181
 51
174.39293989594154
  0
ARC
  8
_0-0_
  6
CONTINUOUS
 62
    7
 10
18.551145955928803
 20
-9.3212099646089754
 40
0.6936364280349257
 50
161.77886908058139
 51
255.44205025134758
  0
ARC
  8
_0-0_
  6
CONTINUOUS
 62
    7
 10
25.541075433900403
 20
-8.4271824051370174
 40
0.8028067890801919
 50
289.25710308847039
 51
16.9562978454559
  0
LINE
  8
_0-0_
  6
CONTINUOUS
 62
    7
 10
11.137423567649506
 20
-6.59292474207016
 11
12.737548891247826
 21
-6.3855010890111146
  0
LINE
  8
_0-0_
  6
CONTINUOUS
 62
    7
 10
12.737548891247826
 20
-6.3855010890111146
 11
13.188595094842867
 21
-3.1502690665343138
  0
ARC
  8
_0-0_
  6
CONTINUOUS
 62
    7
 10
13.106606697779455
 20
22.362109828019591
 40
0.4277631107651154
 50
179.65803250630063
 51
246.56465141444261
  0
ARC
  8
_0-0_
  6
CONTINUOUS
 62
    7
 10
16.514665147526046
 20
22.408159243835165
 40
3.8360605477611283
 50
139.69736942615444
 51
180.64967962290567
  0
ARC
  8
_0-0_
  6
CONTINUOUS
 62
    7
 10
15.632763014609623
 20
22.456636978446532
 40
3.1772364770625279
 50
107.94919697235525
 51
130.03149529324369
  0
ARC
  8
_0-0_
  6
CONTINUOUS
 62
    7
 10
-17.525401094904055
 20
27.463955418580191
 40
0.5056120972149407
 50
162.19955523522589
 51
225.35066366762459
  0
ARC
  8
_0-0_
  6
CONTINUOUS
 62
    7
 10
-16.252929304215229
 20
28.04976741856408
 40
1.8061181759651879
 50
140.50474522819104
 51
193.81389674762275
  0
ARC
  8
_0-0_
  6
CONTINUOUS
 62
    7
 10
-15.049838520502362
 20
27.411025728081434
 40
3.1525450700886535
 50
93.492310468513438
 51
145.45946753798023
  0
ARC
  8
_0-0_
  6
CONTINUOUS
 62
    7
 10
-14.887544765052382
 20
27.368748990921496
 40
3.2085920767064846
 50
83.659808254095822
 51
96.340191745904193
  0
ARC
  8
_0-0_
  6
CONTINUOUS
 62
    7
 10
-16.453407579875602
 20
5.6549903445372323
 40
24.976647247132291
 50
80.624329627759266
 51
85.590777523885222
  0
ARC
  8
_0-0_
  6
CONTINUOUS
 62
    7
 10
-19.829993742098225
 20
2.7906377591259783
 40
26.662058650863305
 50
80.033319778583888
 51
83.471533190927317
  0
LINE
  8
_0-0_
  6
CONTINUOUS
 62
    7
 10
-17.520090373180778
 20
27.61109360675993
 11
12.13193708681635
 21
22.493840640850259
  0
LINE
  8
_0-0_
  6
CONTINUOUS
 62
    7
 10
-16.05886855951411
 20
26.116930553048626
 11
-9.6416768693731569
 21
24.859507857007493
  0
LINE
  8
_0-0_
  6
CONTINUOUS
 62
    7
 10
-6.9100344607320778
 20
24.382554420578096
 11
-0.0158893341617272
 21
23.168491127848732
  0
LINE
  8
_0-0_
  6
CONTINUOUS
 62
    7
 10
-6.7799562507968005
 20
23.515366354342838
 11
-0.6662803838381989
 21
22.47474067486052
  0
LINE
  8
_0-0_
  6
CONTINUOUS
 62
    7
 10
-16.405743786008202
 20
25.336461293436891
 11
-11.202615388596627
 21
24.59935143713691
  0
LINE
  8
_0-0_
  6
CONTINUOUS
 62
    7
 10
-17.229572448931719
 20
24.512632630513387
 11
-12.026444051520144
 21
23.645444564278129
  0
LINE
  8
_0-0_
  6
CONTINUOUS
 62
    7
 10
-7.9073007369026413
 20
22.778256498042857
 11
-2.0537812898145944
 21
21.780990221872308
  0
LINE
  8
_0-0_
  6
CONTINUOUS
 62
    7
 10
1.2415333618793909
 20
21.824349625184077
 11
-2.1838594997499001
 21
-23.833102062102508
  0
LINE
  8
_0-0_
  6
CONTINUOUS
 62
    7
 10
-3.1377663726086951
 20
-23.052632802490773
 11
0.0274700691500129
 21
21.304036785442911
  0
LINE
  8
_0-0_
  6
CONTINUOUS
 62
    7
 10
-1.4033902401381511
 20
20.523567525831176
 11
-4.8721425050792107
 21
-22.228804139567274
  0
LINE
  8
_0-0_
  6
CONTINUOUS
 62
    7
 10
-5.7393305713144684
 20
-22.228804139567274
 11
-11.159255985284858
 21
-19.930755764043827
  0
LINE
  8
_0-0_
  6
CONTINUOUS
 62
    7
 10
-11.115896581973118
 20
-18.803411277937983
 11
-8.4709729799555475
 21
21.9110684318076
  0
LINE
  8
_0-0_
  6
CONTINUOUS
 62
    7
 10
-9.1213640296319909
 20
23.428647547719315
 11
-10.248708515737832
 21
-0.6791806936209923
  0
LINE
  8
_0-0_
  6
CONTINUOUS
 62
    7
 10
-12.416678681326005
 20
-18.413176648132119
 11
-9.8151144826202028
 21
22.691537691419335
  0
LINE
  8
_0-0_
  6
CONTINUOUS
 62
    7
 10
-11.809647034961301
 20
22.604818884795812
 11
-14.020976603861243
 21
-17.892863808390963
  0
LINE
  8
_0-0_
  6
CONTINUOUS
 62
    7
 10
-14.844805266784761
 20
-18.239739034885066
 11
-19.614339631078678
 21
-15.941690659361619
  0
LINE
  8
_0-0_
  6
CONTINUOUS
 62
    7
 10
-20.091293067508047
 20
-14.901064979879301
 11
-18.01004170854344
 21
23.948960387460467
  0
ARC
  8
_0-0_
  6
CONTINUOUS
 62
    7
 10
-17.278480875413493
 20
23.758190996692015
 40
0.7560252727415803
 50
86.290858553345686
 51
165.3844473552098
  0
ARC
  8
_0-0_
  6
CONTINUOUS
 62
    7
 10
-15.634953150372667
 20
23.741841994877824
 40
1.7711377448748746
 50
115.79771506581766
 51
154.20228493418134
  0
ARC
  8
_0-0_
  6
CONTINUOUS
 62
    7
 10
-4.5773464869366762
 20
20.546713840654284
 40
12.761373880821779
 50
154.11983406058246
 51
157.95518799026269
  0
ARC
  8
_0-0_
  6
CONTINUOUS
 62
    7
 10
-12.684576595504097
 20
22.966770790222917
 40
0.9453763996637327
 50
339.7982752050695
 51
45.880331846147229
  0
ARC
  8
_0-0_
  6
CONTINUOUS
 62
    7
 10
-11.514163288082642
 20
22.855780993825981
 40
1.6917981641165047
 50
4.3827143480159378
 51
71.762849399966797
  0
ARC
  8
_0-0_
  6
CONTINUOUS
 62
    7
 10
-10.005566840133355
 20
23.863164890816243
 40
0.8696847350353568
 50
345.80887597568812
 51
76.509733040999549
  0
ARC
  8
_0-0_
  6
CONTINUOUS
 62
    7
 10
-7.7169934619638241
 20
21.999467300236866
 40
0.7575082440519799
 50
102.57317839176132
 51
164.88076156812298
  0
ARC
  8
_0-0_
  6
CONTINUOUS
 62
    7
 10
-7.1431257753507111
 20
22.753263702498721
 40
0.8286900837621201
 50
83.173396471094478
 51
161.97471779805093
  0
ARC
  8
_0-0_
  6
CONTINUOUS
 62
    7
 10
-6.827652340857469
 20
23.943132731386179
 40
0.3298070602461394
 50
102.11494586387462
 51
216.17613805696902
  0
ARC
  8
_0-0_
  6
CONTINUOUS
 62
    7
 10
-2.3850051871077085
 20
20.707200582638272
 40
1.0499627717771456
 50
348.50064706777528
 51
76.737839074609909
  0
ARC
  8
_0-0_
  6
CONTINUOUS
 62
    7
 10
-1.2471128747904743
 20
21.2619445056419
 40
1.2210099819878892
 50
1.1242435956463068
 51
68.000805702116537
  0
ARC
  8
_0-0_
  6
CONTINUOUS
 62
    7
 10
-1.1046232480227332
 20
21.31419452432241
 40
2.2833733486822068
 50
11.73021259451332
 51
58.253827802604675
  0
ARC
  8
_0-0_
  6
CONTINUOUS
 62
    7
 10
3.2108043124261485
 20
21.281423948587381
 40
0.4290168930188257
 50
60.625959993889609
 51
135.63424471442448
  0
ARC
  8
_0-0_
  6
CONTINUOUS
 62
    7
 10
3.568994326273554
 20
21.482905831376577
 40
1.0048316251605283
 50
107.10272896905236
 51
143.9726266148964
  0
ARC
  8
_0-0_
  6
CONTINUOUS
 62
    7
 10
2.6891295996910003
 20
19.862943089695698
 40
1.0444716201395725
 50
117.02223207714439
 51
166.66331474811946
  0
ARC
  8
_0-0_
  6
CONTINUOUS
 62
    7
 10
8.6295476156673203
 20
16.38541419680616
 40
7.8861901134162817
 50
139.4957345247542
 51
145.36708141759112
  0
ARC
  8
_0-0_
  6
CONTINUOUS
 62
    7
 10
2.5051699851467788
 20
21.854136200415617
 40
0.3012941713779622
 50
295.15127414895346
 51
23.736635411879391
  0
ARC
  8
_0-0_
  6
CONTINUOUS
 62
    7
 10
8.7895693276240365
 20
18.480898514959684
 40
1.2372356294592413
 50
347.24345273031105
 51
69.004018036267823
  0
ARC
  8
_0-0_
  6
CONTINUOUS
 62
    7
 10
9.3268659975873049
 20
17.71036873441053
 40
2.9579405688989695
 50
25.756278468311447
 51
70.455775722922027
  0
ARC
  8
_0-0_
  6
CONTINUOUS
 62
    7
 10
10.108634189216446
 20
18.586865211590883
 40
2.7412776536311672
 50
17.030507210558842
 51
77.31898101866085
  0
ARC
  8
_0-0_
  6
CONTINUOUS
 62
    7
 10
12.630721957844571
 20
20.271935753311148
 40
0.6585430047446273
 50
13.351250883543678
 51
70.289088876725359
  0
ARC
  8
_0-0_
  6
CONTINUOUS
 62
    7
 10
-19.400620277634857
 20
-15.214121286776987
 40
0.7583094051636439
 50
155.6169796392351
 51
253.63014993308997
  0
ARC
  8
_0-0_
  6
CONTINUOUS
 62
    7
 10
-14.617328801912947
 20
-17.628261488486931
 40
0.6524188315949112
 50
249.59423780239973
 51
336.07307055343659
  0
LINE
  8
_0-0_
  6
CONTINUOUS
 62
    7
 10
-19.185026303383552
 20
-16.268082940554539
 11
-18.766391724699361
 21
-17.080726534470866
  0
LINE
  8
_0-0_
  6
CONTINUOUS
 62
    7
 10
-13.201014384545147
 20
-19.888040767999989
 11
-11.304845998740404
 21
-19.986543021808028
  0
LINE
  8
_0-0_
  6
CONTINUOUS
 62
    7
 10
-3.3261634402892071
 20
-24.320642189361763
 11
-1.7993785062645884
 21
-24.049760991389654
  0
ARC
  8
_0-0_
  6
CONTINUOUS
 62
    7
 10
-13.672171602186097
 20
-17.600540058642682
 40
1.4084108640032869
 50
264.11195253431032
 51
327.30795502731149
  0
ARC
  8
_0-0_
  6
CONTINUOUS
 62
    7
 10
-15.00262060669462
 20
-16.90440750015426
 40
3.8905593437769914
 50
313.20464275080053
 51
354.12918579763993
  0
ARC
  8
_0-0_
  6
CONTINUOUS
 62
    7
 10
-10.434427044417561
 20
-19.243040432968545
 40
0.7904424779800364
 50
148.42398141935445
 51
245.43104470893914
  0
ARC
  8
_0-0_
  6
CONTINUOUS
 62
    7
 10
-5.3700852068060385
 20
-21.851929453297785
 40
0.5124617621500047
 50
231.3401917459104
 51
308.65980825409207
  0
ARC
  8
_0-0_
  6
CONTINUOUS
 62
    7
 10
-4.2460358226349229
 20
-21.853280273040568
 40
1.5985869819680016
 50
245.76596413158131
 51
310.72667749735632
  0
ARC
  8
_0-0_
  6
CONTINUOUS
 62
    7
 10
-2.9814055519610747
 20
-22.827277662879158
 40
1.1127879584664138
 50
261.08858177119384
 51
303.58959278545996
  0
ARC
  8
_0-0_
  6
CONTINUOUS
 62
    7
 10
-0.538121386852822
 20
-23.596597090039051
 40
1.1436781888445622
 50
166.80938928779651
 51
222.54339698710251
  0
ARC
  8
_0-0_
  6
CONTINUOUS
 62
    7
 10
5.0571110201668716
 20
-26.428671827675107
 40
0.6554974676489527
 50
262.59696880300987
 51
3.4531631752258942
  0
ARC
  8
_0-0_
  6
CONTINUOUS
 62
    7
 10
5.833769999967501
 20
-26.536131455974829
 40
1.753576541286082
 50
287.17832652850689
 51
355.94707048936863
  0
ARC
  8
_0-0_
  6
CONTINUOUS
 62
    7
 10
6.1910424767475263
 20
-24.945578682271428
 40
3.9600851174857308
 50
276.97317726150499
 51
306.88599823884556
  0
ARC
  8
_0-0_
  6
CONTINUOUS
 62
    7
 10
7.2782198212324829
 20
-26.627749665271875
 40
2.746273516513122
 50
278.44343907242444
 51
313.93278232253743
  0
ARC
  8
_0-0_
  6
CONTINUOUS
 62
    7
 10
-13.177120387085779
 20
21.6384017063885
 40
2.7348011038049305
 50
141.31221582003403
 51
206.49606109077394
  0
ARC
  8
_0-0_
  6
CONTINUOUS
 62
    7
 10
-14.973166132328345
 20
21.134697227150589
 40
0.9683354453350308
 50
227.71569804400133
 51
304.11306839604538
  0
ARC
  8
_0-0_
  6
CONTINUOUS
 62
    7
 10
-13.439168156405572
 20
21.492287595932346
 40
1.8742833298510551
 50
137.82924723931799
 51
190.27996095883628
  0
ARC
  8
_0-0_
  6
CONTINUOUS
 62
    7
 10
-15.041605330966775
 20
21.428008078458255
 40
0.3625691525734329
 50
228.17983011988423
 51
311.82016988012248
  0
ARC
  8
_0-0_
  6
CONTINUOUS
 62
    7
 10
-15.041605330966092
 20
21.17202769913478
 40
1.0382400499208526
 50
306.08507304283751
 51
346.53479190520608
  0
ARC
  8
_0-0_
  6
CONTINUOUS
 62
    7
 10
-18.141812147221799
 20
33.203105527346814
 40
10.253525063554205
 50
286.02180478239598
 51
288.68624449012441
  0
ARC
  8
_0-0_
  6
CONTINUOUS
 62
    7
 10
-14.672744714928683
 20
22.63147138957985
 40
0.1959058548840372
 50
18.517152180455263
 51
142.55820340348828
  0
ARC
  8
_0-0_
  6
CONTINUOUS
 62
    7
 10
-15.76699148172338
 20
18.574777685723426
 40
2.4613209934244376
 50
141.31221582003403
 51
206.49606109077394
  0
ARC
  8
_0-0_
  6
CONTINUOUS
 62
    7
 10
-17.383432652441684
 20
18.121443654409298
 40
0.8715019008015277
 50
227.71569804400133
 51
304.11306839604538
  0
ARC
  8
_0-0_
  6
CONTINUOUS
 62
    7
 10
-16.002834474111182
 20
18.443274986312879
 40
1.6868549968659496
 50
137.82924723931799
 51
190.27996095883628
  0
ARC
  8
_0-0_
  6
CONTINUOUS
 62
    7
 10
-17.445027931216316
 20
18.3854234205862
 40
0.3263122373160896
 50
228.17983011988423
 51
311.82016988012248
  0
ARC
  8
_0-0_
  6
CONTINUOUS
 62
    7
 10
-17.445027931215691
 20
18.15504107919508
 40
0.9344160449287674
 50
306.08507304283751
 51
346.53479190520608
  0
ARC
  8
_0-0_
  6
CONTINUOUS
 62
    7
 10
-20.23521406584581
 20
28.983011124585907
 40
9.2281725571987856
 50
286.02180478239598
 51
288.68624449012441
  0
ARC
  8
_0-0_
  6
CONTINUOUS
 62
    7
 10
-17.113053376782034
 20
19.468540400595636
 40
0.1763152693956335
 50
18.517152180455263
 51
142.55820340348828
  0
ARC
  8
_0-0_
  6
CONTINUOUS
 62
    7
 10
-15.930640179049362
 20
15.072695562947622
 40
2.4613209934244376
 50
141.31221582003403
 51
206.49606109077394
  0
ARC
  8
_0-0_
  6
CONTINUOUS
 62
    7
 10
-17.547081349767666
 20
14.619361531633494
 40
0.8715019008015277
 50
227.71569804400133
 51
304.11306839604538
  0
ARC
  8
_0-0_
  6
CONTINUOUS
 62
    7
 10
-16.166483171437164
 20
14.941192863537076
 40
1.6868549968659496
 50
137.82924723931799
 51
190.27996095883628
  0
ARC
  8
_0-0_
  6
CONTINUOUS
 62
    7
 10
-17.608676628542298
 20
14.883341297810396
 40
0.3263122373160896
 50
228.17983011988423
 51
311.82016988012248
  0
ARC
  8
_0-0_
  6
CONTINUOUS
 62
    7
 10
-17.608676628541673
 20
14.652958956419276
 40
0.9344160449287674
 50
306.08507304283751
 51
346.53479190520608
  0
ARC
  8
_0-0_
  6
CONTINUOUS
 62
    7
 10
-20.398862763171792
 20
25.480929001810104
 40
9.2281725571987856
 50
286.02180478239598
 51
288.68624449012441
  0
ARC
  8
_0-0_
  6
CONTINUOUS
 62
    7
 10
-17.276702074108016
 20
15.966458277819832
 40
0.1763152693956335
 50
18.517152180455263
 51
142.55820340348828
  0
ARC
  8
_0-0_
  6
CONTINUOUS
 62
    7
 10
-16.192478094770877
 20
11.177856566589483
 40
2.4613209934244376
 50
141.31221582003403
 51
206.49606109077394
  0
ARC
  8
_0-0_
  6
CONTINUOUS
 62
    7
 10
-17.80891926548918
 20
10.724522535275355
 40
0.8715019008015277
 50
227.71569804400133
 51
304.11306839604538
  0
ARC
  8
_0-0_
  6
CONTINUOUS
 62
    7
 10
-16.428321087158679
 20
11.046353867178937
 40
1.6868549968659496
 50
137.82924723931799
 51
190.27996095883628
  0
ARC
  8
_0-0_
  6
CONTINUOUS
 62
    7
 10
-17.870514544263813
 20
10.988502301452257
 40
0.3263122373160896
 50
228.17983011988423
 51
311.82016988012248
  0
ARC
  8
_0-0_
  6
CONTINUOUS
 62
    7
 10
-17.870514544263187
 20
10.758119960061137
 40
0.9344160449287674
 50
306.08507304283751
 51
346.53479190520608
  0
ARC
  8
_0-0_
  6
CONTINUOUS
 62
    7
 10
-20.660700678893306
 20
21.586090005451958
 40
9.2281725571987856
 50
286.02180478239598
 51
288.68624449012441
  0
ARC
  8
_0-0_
  6
CONTINUOUS
 62
    7
 10
-17.53853998982953
 20
12.071619281461693
 40
0.1763152693956335
 50
18.517152180455263
 51
142.55820340348828
  0
ARC
  8
_0-0_
  6
CONTINUOUS
 62
    7
 10
-16.388856531562055
 20
7.283017570231344
 40
2.4613209934244376
 50
141.31221582003403
 51
206.49606109077394
  0
ARC
  8
_0-0_
  6
CONTINUOUS
 62
    7
 10
-18.005297702280359
 20
6.8296835389172159
 40
0.8715019008015277
 50
227.71569804400133
 51
304.11306839604538
  0
ARC
  8
_0-0_
  6
CONTINUOUS
 62
    7
 10
-16.624699523949857
 20
7.1515148708207974
 40
1.6868549968659496
 50
137.82924723931799
 51
190.27996095883628
  0
ARC
  8
_0-0_
  6
CONTINUOUS
 62
    7
 10
-18.066892981054991
 20
7.0936633050941182
 40
0.3263122373160896
 50
228.17983011988423
 51
311.82016988012248
  0
ARC
  8
_0-0_
  6
CONTINUOUS
 62
    7
 10
-18.066892981054366
 20
6.8632809637029979
 40
0.9344160449287674
 50
306.08507304283751
 51
346.53479190520608
  0
ARC
  8
_0-0_
  6
CONTINUOUS
 62
    7
 10
-20.857079115684485
 20
17.691251009093826
 40
9.2281725571987856
 50
286.02180478239598
 51
288.68624449012441
  0
ARC
  8
_0-0_
  6
CONTINUOUS
 62
    7
 10
-17.734918426620709
 20
8.176780285103554
 40
0.1763152693956335
 50
18.517152180455263
 51
142.55820340348828
  0
ARC
  8
_0-0_
  6
CONTINUOUS
 62
    7
 10
-11.348476653922091
 20
18.149291072675901
 40
2.4613209934244376
 50
141.31221582003403
 51
206.49606109077394
  0
ARC
  8
_0-0_
  6
CONTINUOUS
 62
    7
 10
-12.964917824640395
 20
17.695957041361773
 40
0.8715019008015277
 50
227.71569804400133
 51
304.11306839604538
  0
ARC
  8
_0-0_
  6
CONTINUOUS
 62
    7
 10
-11.584319646309893
 20
18.017788373265354
 40
1.6868549968659496
 50
137.82924723931799
 51
190.27996095883628
  0
ARC
  8
_0-0_
  6
CONTINUOUS
 62
    7
 10
-13.026513103415027
 20
17.959936807538675
 40
0.3263122373160896
 50
228.17983011988423
 51
311.82016988012248
  0
ARC
  8
_0-0_
  6
CONTINUOUS
 62
    7
 10
-13.026513103414402
 20
17.729554466147555
 40
0.9344160449287674
 50
306.08507304283751
 51
346.53479190520608
  0
ARC
  8
_0-0_
  6
CONTINUOUS
 62
    7
 10
-15.816699238044521
 20
28.557524511538382
 40
9.2281725571987856
 50
286.02180478239598
 51
288.68624449012441
  0
ARC
  8
_0-0_
  6
CONTINUOUS
 62
    7
 10
-12.694538548980745
 20
19.043053787548111
 40
0.1763152693956335
 50
18.517152180455263
 51
142.55820340348828
  0
ARC
  8
_0-0_
  6
CONTINUOUS
 62
    7
 10
-11.512125351248073
 20
14.188992597387376
 40
2.4613209934244376
 50
141.31221582003403
 51
206.49606109077394
  0
ARC
  8
_0-0_
  6
CONTINUOUS
 62
    7
 10
-13.128566521966377
 20
13.735658566073248
 40
0.8715019008015277
 50
227.71569804400133
 51
304.11306839604538
  0
ARC
  8
_0-0_
  6
CONTINUOUS
 62
    7
 10
-11.747968343635875
 20
14.057489897976829
 40
1.6868549968659496
 50
137.82924723931799
 51
190.27996095883628
  0
ARC
  8
_0-0_
  6
CONTINUOUS
 62
    7
 10
-13.190161800741009
 20
13.99963833225015
 40
0.3263122373160896
 50
228.17983011988423
 51
311.82016988012248
  0
ARC
  8
_0-0_
  6
CONTINUOUS
 62
    7
 10
-13.190161800740384
 20
13.76925599085903
 40
0.9344160449287674
 50
306.08507304283751
 51
346.53479190520608
  0
ARC
  8
_0-0_
  6
CONTINUOUS
 62
    7
 10
-15.980347935370503
 20
24.597226036249857
 40
9.2281725571987856
 50
286.02180478239598
 51
288.68624449012441
  0
ARC
  8
_0-0_
  6
CONTINUOUS
 62
    7
 10
-12.858187246306727
 20
15.082755312259586
 40
0.1763152693956335
 50
18.517152180455263
 51
142.55820340348828
  0
ARC
  8
_0-0_
  6
CONTINUOUS
 62
    7
 10
-11.643044309108859
 20
10.228694122098844
 40
2.4613209934244376
 50
141.31221582003403
 51
206.49606109077394
  0
ARC
  8
_0-0_
  6
CONTINUOUS
 62
    7
 10
-13.259485479827163
 20
9.7753600907847158
 40
0.8715019008015277
 50
227.71569804400133
 51
304.11306839604538
  0
ARC
  8
_0-0_
  6
CONTINUOUS
 62
    7
 10
-11.878887301496661
 20
10.097191422688297
 40
1.6868549968659496
 50
137.82924723931799
 51
190.27996095883628
  0
ARC
  8
_0-0_
  6
CONTINUOUS
 62
    7
 10
-13.321080758601795
 20
10.039339856961618
 40
0.3263122373160896
 50
228.17983011988423
 51
311.82016988012248
  0
ARC
  8
_0-0_
  6
CONTINUOUS
 62
    7
 10
-13.32108075860117
 20
9.8089575155704978
 40
0.9344160449287674
 50
306.08507304283751
 51
346.53479190520608
  0
ARC
  8
_0-0_
  6
CONTINUOUS
 62
    7
 10
-16.111266893231289
 20
20.636927560961318
 40
9.2281725571987856
 50
286.02180478239598
 51
288.68624449012441
  0
ARC
  8
_0-0_
  6
CONTINUOUS
 62
    7
 10
-12.989106204167513
 20
11.122456836971054
 40
0.1763152693956335
 50
18.517152180455263
 51
142.55820340348828
  0
ARC
  8
_0-0_
  6
CONTINUOUS
 62
    7
 10
-11.806693006434841
 20
6.0065577310887619
 40
2.4613209934244376
 50
141.31221582003403
 51
206.49606109077394
  0
ARC
  8
_0-0_
  6
CONTINUOUS
 62
    7
 10
-13.423134177153145
 20
5.5532236997746338
 40
0.8715019008015277
 50
227.71569804400133
 51
304.11306839604538
  0
ARC
  8
_0-0_
  6
CONTINUOUS
 62
    7
 10
-12.042535998822643
 20
5.8750550316782153
 40
1.6868549968659496
 50
137.82924723931799
 51
190.27996095883628
  0
ARC
  8
_0-0_
  6
CONTINUOUS
 62
    7
 10
-13.484729455927777
 20
5.8172034659515361
 40
0.3263122373160896
 50
228.17983011988423
 51
311.82016988012248
  0
ARC
  8
_0-0_
  6
CONTINUOUS
 62
    7
 10
-13.484729455927152
 20
5.5868211245604158
 40
0.9344160449287674
 50
306.08507304283751
 51
346.53479190520608
  0
ARC
  8
_0-0_
  6
CONTINUOUS
 62
    7
 10
-16.274915590557271
 20
16.414791169951243
 40
9.2281725571987856
 50
286.02180478239598
 51
288.68624449012441
  0
ARC
  8
_0-0_
  6
CONTINUOUS
 62
    7
 10
-13.152754901493495
 20
6.9003204459609719
 40
0.1763152693956335
 50
18.517152180455263
 51
142.55820340348828
  0
ARC
  8
_0-0_
  6
CONTINUOUS
 62
    7
 10
-16.847072884074805
 20
0.3443128036101228
 40
2.4613209934244376
 50
141.31221582003403
 51
206.49606109077394
  0
ARC
  8
_0-0_
  6
CONTINUOUS
 62
    7
 10
-18.463514054793109
 20
-0.1090212277040052
 40
0.8715019008015277
 50
227.71569804400133
 51
304.11306839604538
  0
ARC
  8
_0-0_
  6
CONTINUOUS
 62
    7
 10
-17.082915876462607
 20
0.2128101041995762
 40
1.6868549968659496
 50
137.82924723931799
 51
190.27996095883628
  0
ARC
  8
_0-0_
  6
CONTINUOUS
 62
    7
 10
-18.525109333567741
 20
0.154958538472897
 40
0.3263122373160896
 50
228.17983011988423
 51
311.82016988012248
  0
ARC
  8
_0-0_
  6
CONTINUOUS
 62
    7
 10
-18.525109333567116
 20
-0.0754238029182232
 40
0.9344160449287674
 50
306.08507304283751
 51
346.53479190520608
  0
ARC
  8
_0-0_
  6
CONTINUOUS
 62
    7
 10
-21.315295468197235
 20
10.752546242472604
 40
9.2281725571987856
 50
286.02180478239598
 51
288.68624449012441
  0
ARC
  8
_0-0_
  6
CONTINUOUS
 62
    7
 10
-18.193134779133459
 20
1.2380755184823329
 40
0.1763152693956335
 50
18.517152180455263
 51
142.55820340348828
  0
ARC
  8
_0-0_
  6
CONTINUOUS
 62
    7
 10
-12.75585545092548
 20
-0.9648767749976556
 40
2.4613209934244376
 50
141.31221582003403
 51
206.49606109077394
  0
ARC
  8
_0-0_
  6
CONTINUOUS
 62
    7
 10
-14.372296621643784
 20
-1.4182108063117838
 40
0.8715019008015277
 50
227.71569804400133
 51
304.11306839604538
  0
ARC
  8
_0-0_
  6
CONTINUOUS
 62
    7
 10
-12.991698443313282
 20
-1.0963794744082023
 40
1.6868549968659496
 50
137.82924723931799
 51
190.27996095883628
  0
ARC
  8
_0-0_
  6
CONTINUOUS
 62
    7
 10
-14.433891900418416
 20
-1.1542310401348814
 40
0.3263122373160896
 50
228.17983011988423
 51
311.82016988012248
  0
ARC
  8
_0-0_
  6
CONTINUOUS
 62
    7
 10
-14.433891900417791
 20
-1.3846133815260018
 40
0.9344160449287674
 50
306.08507304283751
 51
346.53479190520608
  0
ARC
  8
_0-0_
  6
CONTINUOUS
 62
    7
 10
-17.22407803504791
 20
9.4433566638648259
 40
9.2281725571987856
 50
286.02180478239598
 51
288.68624449012441
  0
ARC
  8
_0-0_
  6
CONTINUOUS
 62
    7
 10
-14.101917345984134
 20
-0.0711140601254456
 40
0.1763152693956335
 50
18.517152180455263
 51
142.55820340348828
  0
ARC
  8
_0-0_
  6
CONTINUOUS
 62
    7
 10
-12.788585190390677
 20
-4.7287968134950162
 40
2.4613209934244376
 50
141.31221582003403
 51
206.49606109077394
  0
ARC
  8
_0-0_
  6
CONTINUOUS
 62
    7
 10
-14.40502636110898
 20
-5.1821308448091443
 40
0.8715019008015277
 50
227.71569804400133
 51
304.11306839604538
  0
ARC
  8
_0-0_
  6
CONTINUOUS
 62
    7
 10
-13.024428182778479
 20
-4.8602995129055628
 40
1.6868549968659496
 50
137.82924723931799
 51
190.27996095883628
  0
ARC
  8
_0-0_
  6
CONTINUOUS
 62
    7
 10
-14.466621639883613
 20
-4.918151078632242
 40
0.3263122373160896
 50
228.17983011988423
 51
311.82016988012248
  0
ARC
  8
_0-0_
  6
CONTINUOUS
 62
    7
 10
-14.466621639882987
 20
-5.1485334200233623
 40
0.9344160449287674
 50
306.08507304283751
 51
346.53479190520608
  0
ARC
  8
_0-0_
  6
CONTINUOUS
 62
    7
 10
-17.256807774513106
 20
5.6794366253674653
 40
9.2281725571987856
 50
286.02180478239598
 51
288.68624449012441
  0
ARC
  8
_0-0_
  6
CONTINUOUS
 62
    7
 10
-14.13464708544933
 20
-3.8350340986228062
 40
0.1763152693956335
 50
18.517152180455263
 51
142.55820340348828
  0
ARC
  8
_0-0_
  6
CONTINUOUS
 62
    7
 10
-16.847072884074805
 20
-3.8450938479347698
 40
2.4613209934244376
 50
141.31221582003403
 51
206.49606109077394
  0
ARC
  8
_0-0_
  6
CONTINUOUS
 62
    7
 10
-18.463514054793109
 20
-4.2984278792488979
 40
0.8715019008015277
 50
227.71569804400133
 51
304.11306839604538
  0
ARC
  8
_0-0_
  6
CONTINUOUS
 62
    7
 10
-17.082915876462607
 20
-3.9765965473453164
 40
1.6868549968659496
 50
137.82924723931799
 51
190.27996095883628
  0
ARC
  8
_0-0_
  6
CONTINUOUS
 62
    7
 10
-18.525109333567741
 20
-4.0344481130719956
 40
0.3263122373160896
 50
228.17983011988423
 51
311.82016988012248
  0
ARC
  8
_0-0_
  6
CONTINUOUS
 62
    7
 10
-18.525109333567116
 20
-4.2648304544631159
 40
0.9344160449287674
 50
306.08507304283751
 51
346.53479190520608
  0
ARC
  8
_0-0_
  6
CONTINUOUS
 62
    7
 10
-21.315295468197235
 20
6.5631395909277117
 40
9.2281725571987856
 50
286.02180478239598
 51
288.68624449012441
  0
ARC
  8
_0-0_
  6
CONTINUOUS
 62
    7
 10
-18.193134779133459
 20
-2.9513311330625598
 40
0.1763152693956335
 50
18.517152180455263
 51
142.55820340348828
  0
ARC
  8
_0-0_
  6
CONTINUOUS
 62
    7
 10
-17.283873363943542
 20
-7.8413252274534528
 40
2.1878408830439446
 50
141.31221582003403
 51
206.49606109077394
  0
ARC
  8
_0-0_
  6
CONTINUOUS
 62
    7
 10
-18.720709960137583
 20
-8.24428881084377
 40
0.7746683562680246
 50
227.71569804400133
 51
304.11306839604538
  0
ARC
  8
_0-0_
  6
CONTINUOUS
 62
    7
 10
-17.493511579399353
 20
-7.9582165158183642
 40
1.4994266638808442
 50
137.82924723931799
 51
190.27996095883628
  0
ARC
  8
_0-0_
  6
CONTINUOUS
 62
    7
 10
-18.775461319048304
 20
-8.0096401297976456
 40
0.2900553220587464
 50
228.17983011988423
 51
311.82016988012248
  0
ARC
  8
_0-0_
  6
CONTINUOUS
 62
    7
 10
-18.775461319047793
 20
-8.2144244332564256
 40
0.8305920399366821
 50
306.08507304283751
 51
346.53479190520608
  0
ARC
  8
_0-0_
  6
CONTINUOUS
 62
    7
 10
-21.255626772052324
 20
1.41043782931321
 40
8.2028200508433642
 50
286.02180478239598
 51
288.68624449012441
  0
ARC
  8
_0-0_
  6
CONTINUOUS
 62
    7
 10
-18.480372826217831
 20
-7.0468694809003694
 40
0.1567246839072298
 50
18.517152180455263
 51
142.55820340348828
  0
ARC
  8
_0-0_
  6
CONTINUOUS
 62
    7
 10
-17.57844101913031
 20
-11.539785787020428
 40
2.1878408830439446
 50
141.31221582003403
 51
206.49606109077394
  0
ARC
  8
_0-0_
  6
CONTINUOUS
 62
    7
 10
-19.015277615324351
 20
-11.942749370410745
 40
0.7746683562680246
 50
227.71569804400133
 51
304.11306839604538
  0
ARC
  8
_0-0_
  6
CONTINUOUS
 62
    7
 10
-17.788079234586121
 20
-11.656677075385339
 40
1.4994266638808442
 50
137.82924723931799
 51
190.27996095883628
  0
ARC
  8
_0-0_
  6
CONTINUOUS
 62
    7
 10
-19.070028974235072
 20
-11.70810068936462
 40
0.2900553220587464
 50
228.17983011988423
 51
311.82016988012248
  0
ARC
  8
_0-0_
  6
CONTINUOUS
 62
    7
 10
-19.07002897423456
 20
-11.9128849928234
 40
0.8305920399366821
 50
306.08507304283751
 51
346.53479190520608
  0
ARC
  8
_0-0_
  6
CONTINUOUS
 62
    7
 10
-21.550194427239092
 20
-2.2880227302537648
 40
8.2028200508433642
 50
286.02180478239598
 51
288.68624449012441
  0
ARC
  8
_0-0_
  6
CONTINUOUS
 62
    7
 10
-18.774940481404599
 20
-10.745330040467344
 40
0.1567246839072298
 50
18.517152180455263
 51
142.55820340348828
  0
ARC
  8
_0-0_
  6
CONTINUOUS
 62
    7
 10
-12.86535853614231
 20
-8.5613794956877314
 40
2.1878408830439446
 50
141.31221582003403
 51
206.49606109077394
  0
ARC
  8
_0-0_
  6
CONTINUOUS
 62
    7
 10
-14.302195132336351
 20
-8.9643430790780485
 40
0.7746683562680246
 50
227.71569804400133
 51
304.11306839604538
  0
ARC
  8
_0-0_
  6
CONTINUOUS
 62
    7
 10
-13.074996751598121
 20
-8.6782707840526427
 40
1.4994266638808442
 50
137.82924723931799
 51
190.27996095883628
  0
ARC
  8
_0-0_
  6
CONTINUOUS
 62
    7
 10
-14.356946491247072
 20
-8.7296943980319242
 40
0.2900553220587464
 50
228.17983011988423
 51
311.82016988012248
  0
ARC
  8
_0-0_
  6
CONTINUOUS
 62
    7
 10
-14.356946491246561
 20
-8.9344787014907041
 40
0.8305920399366821
 50
306.08507304283751
 51
346.53479190520608
  0
ARC
  8
_0-0_
  6
CONTINUOUS
 62
    7
 10
-16.837111944251092
 20
0.6903835610789315
 40
8.2028200508433642
 50
286.02180478239598
 51
288.68624449012441
  0
ARC
  8
_0-0_
  6
CONTINUOUS
 62
    7
 10
-14.061857998416599
 20
-7.7669237491346479
 40
0.1567246839072298
 50
18.517152180455263
 51
142.55820340348828
  0
ARC
  8
_0-0_
  6
CONTINUOUS
 62
    7
 10
-12.930818015072703
 20
-11.998002139533149
 40
2.1878408830439446
 50
141.31221582003403
 51
206.49606109077394
  0
ARC
  8
_0-0_
  6
CONTINUOUS
 62
    7
 10
-14.367654611266744
 20
-12.400965722923466
 40
0.7746683562680246
 50
227.71569804400133
 51
304.11306839604538
  0
ARC
  8
_0-0_
  6
CONTINUOUS
 62
    7
 10
-13.140456230528514
 20
-12.11489342789806
 40
1.4994266638808442
 50
137.82924723931799
 51
190.27996095883628
  0
ARC
  8
_0-0_
  6
CONTINUOUS
 62
    7
 10
-14.422405970177465
 20
-12.166317041877342
 40
0.2900553220587464
 50
228.17983011988423
 51
311.82016988012248
  0
ARC
  8
_0-0_
  6
CONTINUOUS
 62
    7
 10
-14.422405970176953
 20
-12.371101345336122
 40
0.8305920399366821
 50
306.08507304283751
 51
346.53479190520608
  0
ARC
  8
_0-0_
  6
CONTINUOUS
 62
    7
 10
-16.902571423181485
 20
-2.7462390827664862
 40
8.2028200508433642
 50
286.02180478239598
 51
288.68624449012441
  0
ARC
  8
_0-0_
  6
CONTINUOUS
 62
    7
 10
-14.127317477346992
 20
-11.203546392980066
 40
0.1567246839072298
 50
18.517152180455263
 51
142.55820340348828
  0
ARC
  8
_0-0_
  6
CONTINUOUS
 62
    7
 10
-15.87649456694021
 20
-14.878219212470256
 40
2.1878408830439446
 50
141.31221582003403
 51
206.49606109077394
  0
ARC
  8
_0-0_
  6
CONTINUOUS
 62
    7
 10
-17.313331163134251
 20
-15.281182795860573
 40
0.7746683562680246
 50
227.71569804400133
 51
304.11306839604538
  0
ARC
  8
_0-0_
  6
CONTINUOUS
 62
    7
 10
-16.086132782396021
 20
-14.995110500835167
 40
1.4994266638808442
 50
137.82924723931799
 51
190.27996095883628
  0
ARC
  8
_0-0_
  6
CONTINUOUS
 62
    7
 10
-17.368082522044972
 20
-15.046534114814449
 40
0.2900553220587464
 50
228.17983011988423
 51
311.82016988012248
  0
ARC
  8
_0-0_
  6
CONTINUOUS
 62
    7
 10
-17.36808252204446
 20
-15.251318418273229
 40
0.8305920399366821
 50
306.08507304283751
 51
346.53479190520608
  0
ARC
  8
_0-0_
  6
CONTINUOUS
 62
    7
 10
-19.848247975048992
 20
-5.6264561557035933
 40
8.2028200508433642
 50
286.02180478239598
 51
288.68624449012441
  0
ARC
  8
_0-0_
  6
CONTINUOUS
 62
    7
 10
-17.072994029214499
 20
-14.083763465917173
 40
0.1567246839072298
 50
18.517152180455263
 51
142.55820340348828
  0
ARC
  8
_0-0_
  6
CONTINUOUS
 62
    7
 10
-12.734439578281524
 20
-15.500084262308953
 40
2.1878408830439446
 50
141.31221582003403
 51
206.49606109077394
  0
ARC
  8
_0-0_
  6
CONTINUOUS
 62
    7
 10
-14.171276174475565
 20
-15.90304784569927
 40
0.7746683562680246
 50
227.71569804400133
 51
304.11306839604538
  0
ARC
  8
_0-0_
  6
CONTINUOUS
 62
    7
 10
-12.944077793737335
 20
-15.616975550673864
 40
1.4994266638808442
 50
137.82924723931799
 51
190.27996095883628
  0
ARC
  8
_0-0_
  6
CONTINUOUS
 62
    7
 10
-14.226027533386286
 20
-15.668399164653145
 40
0.2900553220587464
 50
228.17983011988423
 51
311.82016988012248
  0
ARC
  8
_0-0_
  6
CONTINUOUS
 62
    7
 10
-14.226027533385775
 20
-15.873183468111925
 40
0.8305920399366821
 50
306.08507304283751
 51
346.53479190520608
  0
ARC
  8
_0-0_
  6
CONTINUOUS
 62
    7
 10
-16.706192986390306
 20
-6.2483212055422896
 40
8.2028200508433642
 50
286.02180478239598
 51
288.68624449012441
  0
ARC
  8
_0-0_
  6
CONTINUOUS
 62
    7
 10
-13.930939040555813
 20
-14.705628515755869
 40
0.1567246839072298
 50
18.517152180455263
 51
142.55820340348828
  0
ARC
  8
_0-0_
  6
CONTINUOUS
 62
    7
 10
-8.7086816240626206
 20
-15.07459764926142
 40
2.1878408830439446
 50
141.31221582003403
 51
206.49606109077394
  0
ARC
  8
_0-0_
  6
CONTINUOUS
 62
    7
 10
-10.145518220256662
 20
-15.477561232651738
 40
0.7746683562680246
 50
227.71569804400133
 51
304.11306839604538
  0
ARC
  8
_0-0_
  6
CONTINUOUS
 62
    7
 10
-8.918319839518432
 20
-15.191488937626332
 40
1.4994266638808442
 50
137.82924723931799
 51
190.27996095883628
  0
ARC
  8
_0-0_
  6
CONTINUOUS
 62
    7
 10
-10.200269579167383
 20
-15.242912551605613
 40
0.2900553220587464
 50
228.17983011988423
 51
311.82016988012248
  0
ARC
  8
_0-0_
  6
CONTINUOUS
 62
    7
 10
-10.200269579166871
 20
-15.447696855064393
 40
0.8305920399366821
 50
306.08507304283751
 51
346.53479190520608
  0
ARC
  8
_0-0_
  6
CONTINUOUS
 62
    7
 10
-12.680435032171374
 20
-5.8228345924947575
 40
8.2028200508433642
 50
286.02180478239598
 51
288.68624449012441
  0
ARC
  8
_0-0_
  6
CONTINUOUS
 62
    7
 10
-9.9051810863369099
 20
-14.280141902708337
 40
0.1567246839072298
 50
18.517152180455263
 51
142.55820340348828
  0
ARC
  8
_0-0_
  6
CONTINUOUS
 62
    7
 10
-6.9085459534769313
 20
-19.067625864015149
 40
2.1878408830439446
 50
141.31221582003403
 51
206.49606109077394
  0
ARC
  8
_0-0_
  6
CONTINUOUS
 62
    7
 10
-8.3453825496709726
 20
-19.470589447405466
 40
0.7746683562680246
 50
227.71569804400133
 51
304.11306839604538
  0
ARC
  8
_0-0_
  6
CONTINUOUS
 62
    7
 10
-7.1181841689327428
 20
-19.18451715238006
 40
1.4994266638808442
 50
137.82924723931799
 51
190.27996095883628
  0
ARC
  8
_0-0_
  6
CONTINUOUS
 62
    7
 10
-8.4001339085816937
 20
-19.235940766359342
 40
0.2900553220587464
 50
228.17983011988423
 51
311.82016988012248
  0
ARC
  8
_0-0_
  6
CONTINUOUS
 62
    7
 10
-8.4001339085811821
 20
-19.440725069818122
 40
0.8305920399366821
 50
306.08507304283751
 51
346.53479190520608
  0
ARC
  8
_0-0_
  6
CONTINUOUS
 62
    7
 10
-10.880299361585713
 20
-9.8158628072484859
 40
8.2028200508433642
 50
286.02180478239598
 51
288.68624449012441
  0
ARC
  8
_0-0_
  6
CONTINUOUS
 62
    7
 10
-8.1050454157512206
 20
-18.273170117462065
 40
0.1567246839072298
 50
18.517152180455263
 51
142.55820340348828
  0
ARC
  8
_0-0_
  6
CONTINUOUS
 62
    7
 10
-3.2100853939099352
 20
-20.016788308505788
 40
2.1878408830439446
 50
141.31221582003403
 51
206.49606109077394
  0
ARC
  8
_0-0_
  6
CONTINUOUS
 62
    7
 10
-4.6469219901039764
 20
-20.419751891896105
 40
0.7746683562680246
 50
227.71569804400133
 51
304.11306839604538
  0
ARC
  8
_0-0_
  6
CONTINUOUS
 62
    7
 10
-3.4197236093657466
 20
-20.133679596870699
 40
1.4994266638808442
 50
137.82924723931799
 51
190.27996095883628
  0
ARC
  8
_0-0_
  6
CONTINUOUS
 62
    7
 10
-4.7016733490146976
 20
-20.185103210849981
 40
0.2900553220587464
 50
228.17983011988423
 51
311.82016988012248
  0
ARC
  8
_0-0_
  6
CONTINUOUS
 62
    7
 10
-4.701673349014186
 20
-20.389887514308761
 40
0.8305920399366821
 50
306.08507304283751
 51
346.53479190520608
  0
ARC
  8
_0-0_
  6
CONTINUOUS
 62
    7
 10
-7.1818388020187172
 20
-10.765025251739125
 40
8.2028200508433642
 50
286.02180478239598
 51
288.68624449012441
  0
ARC
  8
_0-0_
  6
CONTINUOUS
 62
    7
 10
-4.4065848561842245
 20
-19.222332561952705
 40
0.1567246839072298
 50
18.517152180455263
 51
142.55820340348828
  0
ARC
  8
_0-0_
  6
CONTINUOUS
 62
    7
 10
-4.126518098935378
 20
-16.711084622521149
 40
2.1878408830439446
 50
141.31221582003403
 51
206.49606109077394
  0
ARC
  8
_0-0_
  6
CONTINUOUS
 62
    7
 10
-5.5633546951294193
 20
-17.114048205911466
 40
0.7746683562680246
 50
227.71569804400133
 51
304.11306839604538
  0
ARC
  8
_0-0_
  6
CONTINUOUS
 62
    7
 10
-4.3361563143911894
 20
-16.82797591088606
 40
1.4994266638808442
 50
137.82924723931799
 51
190.27996095883628
  0
ARC
  8
_0-0_
  6
CONTINUOUS
 62
    7
 10
-5.6181060540401404
 20
-16.879399524865342
 40
0.2900553220587464
 50
228.17983011988423
 51
311.82016988012248
  0
ARC
  8
_0-0_
  6
CONTINUOUS
 62
    7
 10
-5.6181060540396288
 20
-17.084183828324122
 40
0.8305920399366821
 50
306.08507304283751
 51
346.53479190520608
  0
ARC
  8
_0-0_
  6
CONTINUOUS
 62
    7
 10
-8.09827150704416
 20
-7.459321565754486
 40
8.2028200508433642
 50
286.02180478239598
 51
288.68624449012441
  0
ARC
  8
_0-0_
  6
CONTINUOUS
 62
    7
 10
-5.3230175612096673
 20
-15.916628875968065
 40
0.1567246839072298
 50
18.517152180455263
 51
142.55820340348828
  0
ARC
  8
_0-0_
  6
CONTINUOUS
 62
    7
 10
-3.7664909648182459
 20
-13.04535380241937
 40
2.1878408830439446
 50
141.31221582003403
 51
206.49606109077394
  0
ARC
  8
_0-0_
  6
CONTINUOUS
 62
    7
 10
-5.2033275610122871
 20
-13.448317385809688
 40
0.7746683562680246
 50
227.71569804400133
 51
304.11306839604538
  0
ARC
  8
_0-0_
  6
CONTINUOUS
 62
    7
 10
-3.9761291802740573
 20
-13.162245090784282
 40
1.4994266638808442
 50
137.82924723931799
 51
190.27996095883628
  0
ARC
  8
_0-0_
  6
CONTINUOUS
 62
    7
 10
-5.2580789199230082
 20
-13.213668704763563
 40
0.2900553220587464
 50
228.17983011988423
 51
311.82016988012248
  0
ARC
  8
_0-0_
  6
CONTINUOUS
 62
    7
 10
-5.2580789199224967
 20
-13.418453008222343
 40
0.8305920399366821
 50
306.08507304283751
 51
346.53479190520608
  0
ARC
  8
_0-0_
  6
CONTINUOUS
 62
    7
 10
-7.7382443729270278
 20
-3.7935907456527076
 40
8.2028200508433642
 50
286.02180478239598
 51
288.68624449012441
  0
ARC
  8
_0-0_
  6
CONTINUOUS
 62
    7
 10
-4.9629904270925351
 20
-12.250898055866287
 40
0.1567246839072298
 50
18.517152180455263
 51
142.55820340348828
  0
ARC
  8
_0-0_
  6
CONTINUOUS
 62
    7
 10
-8.6104924056670313
 20
-11.016109955577313
 40
2.1878408830439446
 50
141.31221582003403
 51
206.49606109077394
  0
ARC
  8
_0-0_
  6
CONTINUOUS
 62
    7
 10
-10.047329001861073
 20
-11.419073538967631
 40
0.7746683562680246
 50
227.71569804400133
 51
304.11306839604538
  0
ARC
  8
_0-0_
  6
CONTINUOUS
 62
    7
 10
-8.8201306211228427
 20
-11.133001243942225
 40
1.4994266638808442
 50
137.82924723931799
 51
190.27996095883628
  0
ARC
  8
_0-0_
  6
CONTINUOUS
 62
    7
 10
-10.102080360771794
 20
-11.184424857921506
 40
0.2900553220587464
 50
228.17983011988423
 51
311.82016988012248
  0
ARC
  8
_0-0_
  6
CONTINUOUS
 62
    7
 10
-10.102080360771282
 20
-11.389209161380286
 40
0.8305920399366821
 50
306.08507304283751
 51
346.53479190520608
  0
ARC
  8
_0-0_
  6
CONTINUOUS
 62
    7
 10
-12.582245813775813
 20
-1.7643468988106505
 40
8.2028200508433642
 50
286.02180478239598
 51
288.68624449012441
  0
ARC
  8
_0-0_
  6
CONTINUOUS
 62
    7
 10
-9.8069918679413206
 20
-10.22165420902423
 40
0.1567246839072298
 50
18.517152180455263
 51
142.55820340348828
  0
ARC
  8
_0-0_
  6
CONTINUOUS
 62
    7
 10
-8.315924750480292
 20
-6.9903520013583957
 40
2.1878408830439446
 50
141.31221582003403
 51
206.49606109077394
  0
ARC
  8
_0-0_
  6
CONTINUOUS
 62
    7
 10
-9.7527613466743333
 20
-7.3933155847487129
 40
0.7746683562680246
 50
227.71569804400133
 51
304.11306839604538
  0
ARC
  8
_0-0_
  6
CONTINUOUS
 62
    7
 10
-8.5255629659361034
 20
-7.1072432897233071
 40
1.4994266638808442
 50
137.82924723931799
 51
190.27996095883628
  0
ARC
  8
_0-0_
  6
CONTINUOUS
 62
    7
 10
-9.8075127055850544
 20
-7.1586669037025885
 40
0.2900553220587464
 50
228.17983011988423
 51
311.82016988012248
  0
ARC
  8
_0-0_
  6
CONTINUOUS
 62
    7
 10
-9.8075127055845428
 20
-7.3634512071613685
 40
0.8305920399366821
 50
306.08507304283751
 51
346.53479190520608
  0
ARC
  8
_0-0_
  6
CONTINUOUS
 62
    7
 10
-12.287678158589074
 20
2.2614110554082671
 40
8.2028200508433642
 50
286.02180478239598
 51
288.68624449012441
  0
ARC
  8
_0-0_
  6
CONTINUOUS
 62
    7
 10
-9.5124242127545813
 20
-6.1958962548053123
 40
0.1567246839072298
 50
18.517152180455263
 51
142.55820340348828
  0
ARC
  8
_0-0_
  6
CONTINUOUS
 62
    7
 10
-7.8904381374327386
 20
-2.7027561314179209
 40
2.1878408830439446
 50
141.31221582003403
 51
206.49606109077394
  0
ARC
  8
_0-0_
  6
CONTINUOUS
 62
    7
 10
-9.3272747336267798
 20
-3.1057197148082381
 40
0.7746683562680246
 50
227.71569804400133
 51
304.11306839604538
  0
ARC
  8
_0-0_
  6
CONTINUOUS
 62
    7
 10
-8.10007635288855
 20
-2.8196474197828323
 40
1.4994266638808442
 50
137.82924723931799
 51
190.27996095883628
  0
ARC
  8
_0-0_
  6
CONTINUOUS
 62
    7
 10
-9.382026092537501
 20
-2.8710710337621137
 40
0.2900553220587464
 50
228.17983011988423
 51
311.82016988012248
  0
ARC
  8
_0-0_
  6
CONTINUOUS
 62
    7
 10
-9.3820260925369894
 20
-3.0758553372208937
 40
0.8305920399366821
 50
306.08507304283751
 51
346.53479190520608
  0
ARC
  8
_0-0_
  6
CONTINUOUS
 62
    7
 10
-11.862191545541521
 20
6.549006925348742
 40
8.2028200508433642
 50
286.02180478239598
 51
288.68624449012441
  0
ARC
  8
_0-0_
  6
CONTINUOUS
 62
    7
 10
-9.0869375997070279
 20
-1.9083003848648374
 40
0.1567246839072298
 50
18.517152180455263
 51
142.55820340348828
  0
ARC
  8
_0-0_
  6
CONTINUOUS
 62
    7
 10
-3.2100853939099352
 20
-8.2995415799661743
 40
2.1878408830439446
 50
141.31221582003403
 51
206.49606109077394
  0
ARC
  8
_0-0_
  6
CONTINUOUS
 62
    7
 10
-4.6469219901039764
 20
-8.7025051633564914
 40
0.7746683562680246
 50
227.71569804400133
 51
304.11306839604538
  0
ARC
  8
_0-0_
  6
CONTINUOUS
 62
    7
 10
-3.4197236093657466
 20
-8.4164328683310856
 40
1.4994266638808442
 50
137.82924723931799
 51
190.27996095883628
  0
ARC
  8
_0-0_
  6
CONTINUOUS
 62
    7
 10
-4.7016733490146976
 20
-8.467856482310367
 40
0.2900553220587464
 50
228.17983011988423
 51
311.82016988012248
  0
ARC
  8
_0-0_
  6
CONTINUOUS
 62
    7
 10
-4.701673349014186
 20
-8.672640785769147
 40
0.8305920399366821
 50
306.08507304283751
 51
346.53479190520608
  0
ARC
  8
_0-0_
  6
CONTINUOUS
 62
    7
 10
-7.1818388020187172
 20
0.9522214768004886
 40
8.2028200508433642
 50
286.02180478239598
 51
288.68624449012441
  0
ARC
  8
_0-0_
  6
CONTINUOUS
 62
    7
 10
-4.4065848561842245
 20
-7.5050858334130908
 40
0.1567246839072298
 50
18.517152180455263
 51
142.55820340348828
  0
ARC
  8
_0-0_
  6
CONTINUOUS
 62
    7
 10
-3.0137069571187851
 20
-4.0119457100256994
 40
2.1878408830439446
 50
141.31221582003403
 51
206.49606109077394
  0
ARC
  8
_0-0_
  6
CONTINUOUS
 62
    7
 10
-4.4505435533128264
 20
-4.4149092934160166
 40
0.7746683562680246
 50
227.71569804400133
 51
304.11306839604538
  0
ARC
  8
_0-0_
  6
CONTINUOUS
 62
    7
 10
-3.2233451725745965
 20
-4.1288369983906108
 40
1.4994266638808442
 50
137.82924723931799
 51
190.27996095883628
  0
ARC
  8
_0-0_
  6
CONTINUOUS
 62
    7
 10
-4.5052949122235475
 20
-4.1802606123698922
 40
0.2900553220587464
 50
228.17983011988423
 51
311.82016988012248
  0
ARC
  8
_0-0_
  6
CONTINUOUS
 62
    7
 10
-4.5052949122230359
 20
-4.3850449158286722
 40
0.8305920399366821
 50
306.08507304283751
 51
346.53479190520608
  0
ARC
  8
_0-0_
  6
CONTINUOUS
 62
    7
 10
-6.9854603652275671
 20
5.2398173467409634
 40
8.2028200508433642
 50
286.02180478239598
 51
288.68624449012441
  0
ARC
  8
_0-0_
  6
CONTINUOUS
 62
    7
 10
-4.2102064193930744
 20
-3.217489963472616
 40
0.1567246839072298
 50
18.517152180455263
 51
142.55820340348828
  0
ARC
  8
_0-0_
  6
CONTINUOUS
 62
    7
 10
-7.2685730875940635
 20
4.4650568114596609
 40
2.1878408830439446
 50
141.31221582003403
 51
206.49606109077394
  0
ARC
  8
_0-0_
  6
CONTINUOUS
 62
    7
 10
-8.7054096837881048
 20
4.0620932280693438
 40
0.7746683562680246
 50
227.71569804400133
 51
304.11306839604538
  0
ARC
  8
_0-0_
  6
CONTINUOUS
 62
    7
 10
-7.4782113030498749
 20
4.3481655230947496
 40
1.4994266638808442
 50
137.82924723931799
 51
190.27996095883628
  0
ARC
  8
_0-0_
  6
CONTINUOUS
 62
    7
 10
-8.7601610426988259
 20
4.2967419091154682
 40
0.2900553220587464
 50
228.17983011988423
 51
311.82016988012248
  0
ARC
  8
_0-0_
  6
CONTINUOUS
 62
    7
 10
-8.7601610426983143
 20
4.0919576056566882
 40
0.8305920399366821
 50
306.08507304283751
 51
346.53479190520608
  0
ARC
  8
_0-0_
  6
CONTINUOUS
 62
    7
 10
-11.240326495702845
 20
13.716819868226324
 40
8.2028200508433642
 50
286.02180478239598
 51
288.68624449012441
  0
ARC
  8
_0-0_
  6
CONTINUOUS
 62
    7
 10
-8.4650725498683528
 20
5.2595125580127444
 40
0.1567246839072298
 50
18.517152180455263
 51
142.55820340348828
  0
ARC
  8
_0-0_
  6
CONTINUOUS
 62
    7
 10
-2.8827879992579994
 20
3.0576780144563003
 40
2.1878408830439446
 50
141.31221582003403
 51
206.49606109077394
  0
ARC
  8
_0-0_
  6
CONTINUOUS
 62
    7
 10
-4.3196245954520407
 20
2.6547144310659831
 40
0.7746683562680246
 50
227.71569804400133
 51
304.11306839604538
  0
ARC
  8
_0-0_
  6
CONTINUOUS
 62
    7
 10
-3.0924262147138109
 20
2.9407867260913889
 40
1.4994266638808442
 50
137.82924723931799
 51
190.27996095883628
  0
ARC
  8
_0-0_
  6
CONTINUOUS
 62
    7
 10
-4.3743759543627618
 20
2.8893631121121075
 40
0.2900553220587464
 50
228.17983011988423
 51
311.82016988012248
  0
ARC
  8
_0-0_
  6
CONTINUOUS
 62
    7
 10
-4.3743759543622502
 20
2.6845788086533275
 40
0.8305920399366821
 50
306.08507304283751
 51
346.53479190520608
  0
ARC
  8
_0-0_
  6
CONTINUOUS
 62
    7
 10
-6.8545414073667814
 20
12.309441071222963
 40
8.2028200508433642
 50
286.02180478239598
 51
288.68624449012441
  0
ARC
  8
_0-0_
  6
CONTINUOUS
 62
    7
 10
-4.0792874615322887
 20
3.8521337610093838
 40
0.1567246839072298
 50
18.517152180455263
 51
142.55820340348828
  0
ARC
  8
_0-0_
  6
CONTINUOUS
 62
    7
 10
-7.1917997418424306
 20
8.5267476699087368
 40
2.4613209934244376
 50
141.31221582003403
 51
206.49606109077394
  0
ARC
  8
_0-0_
  6
CONTINUOUS
 62
    7
 10
-8.8082409125607342
 20
8.0734136385946087
 40
0.8715019008015277
 50
227.71569804400133
 51
304.11306839604538
  0
ARC
  8
_0-0_
  6
CONTINUOUS
 62
    7
 10
-7.4276427342302327
 20
8.3952449704981902
 40
1.6868549968659496
 50
137.82924723931799
 51
190.27996095883628
  0
ARC
  8
_0-0_
  6
CONTINUOUS
 62
    7
 10
-8.8698361913353665
 20
8.337393404771511
 40
0.3263122373160896
 50
228.17983011988423
 51
311.82016988012248
  0
ARC
  8
_0-0_
  6
CONTINUOUS
 62
    7
 10
-8.8698361913347412
 20
8.1070110633803907
 40
0.9344160449287674
 50
306.08507304283751
 51
346.53479190520608
  0
ARC
  8
_0-0_
  6
CONTINUOUS
 62
    7
 10
-11.66002232596486
 20
18.934981108771218
 40
9.2281725571987856
 50
286.02180478239598
 51
288.68624449012441
  0
ARC
  8
_0-0_
  6
CONTINUOUS
 62
    7
 10
-8.5378616369010842
 20
9.4205103847809468
 40
0.1763152693956335
 50
18.517152180455263
 51
142.55820340348828
  0
ARC
  8
_0-0_
  6
CONTINUOUS
 62
    7
 10
-2.0532306458068774
 20
7.6430447043484833
 40
2.4613209934244376
 50
141.31221582003403
 51
206.49606109077394
  0
ARC
  8
_0-0_
  6
CONTINUOUS
 62
    7
 10
-3.6696718165251809
 20
7.1897106730343552
 40
0.8715019008015277
 50
227.71569804400133
 51
304.11306839604538
  0
ARC
  8
_0-0_
  6
CONTINUOUS
 62
    7
 10
-2.2890736381946795
 20
7.5115420049379367
 40
1.6868549968659496
 50
137.82924723931799
 51
190.27996095883628
  0
ARC
  8
_0-0_
  6
CONTINUOUS
 62
    7
 10
-3.7312670952998133
 20
7.4536904392112575
 40
0.3263122373160896
 50
228.17983011988423
 51
311.82016988012248
  0
ARC
  8
_0-0_
  6
CONTINUOUS
 62
    7
 10
-3.731267095299188
 20
7.2233080978201372
 40
0.9344160449287674
 50
306.08507304283751
 51
346.53479190520608
  0
ARC
  8
_0-0_
  6
CONTINUOUS
 62
    7
 10
-6.5214532299293069
 20
18.051278143210972
 40
9.2281725571987856
 50
286.02180478239598
 51
288.68624449012441
  0
ARC
  8
_0-0_
  6
CONTINUOUS
 62
    7
 10
-3.399292540865531
 20
8.5368074192206933
 40
0.1763152693956335
 50
18.517152180455263
 51
142.55820340348828
  0
ARC
  8
_0-0_
  6
CONTINUOUS
 62
    7
 10
-6.7335833893297092
 20
12.716154321453622
 40
2.4613209934244376
 50
141.31221582003403
 51
206.49606109077394
  0
ARC
  8
_0-0_
  6
CONTINUOUS
 62
    7
 10
-8.3500245600480127
 20
12.262820290139494
 40
0.8715019008015277
 50
227.71569804400133
 51
304.11306839604538
  0
ARC
  8
_0-0_
  6
CONTINUOUS
 62
    7
 10
-6.9694263817175113
 20
12.584651622043076
 40
1.6868549968659496
 50
137.82924723931799
 51
190.27996095883628
  0
ARC
  8
_0-0_
  6
CONTINUOUS
 62
    7
 10
-8.4116198388226451
 20
12.526800056316397
 40
0.3263122373160896
 50
228.17983011988423
 51
311.82016988012248
  0
ARC
  8
_0-0_
  6
CONTINUOUS
 62
    7
 10
-8.4116198388220198
 20
12.296417714925276
 40
0.9344160449287674
 50
306.08507304283751
 51
346.53479190520608
  0
ARC
  8
_0-0_
  6
CONTINUOUS
 62
    7
 10
-11.201805973452139
 20
23.124387760316104
 40
9.2281725571987856
 50
286.02180478239598
 51
288.68624449012441
  0
ARC
  8
_0-0_
  6
CONTINUOUS
 62
    7
 10
-8.0796452843883628
 20
13.609917036325832
 40
0.1763152693956335
 50
18.517152180455263
 51
142.55820340348828
  0
ARC
  8
_0-0_
  6
CONTINUOUS
 62
    7
 10
-1.6277440327593524
 20
11.374235003380647
 40
2.4613209934244376
 50
141.31221582003403
 51
206.49606109077394
  0
ARC
  8
_0-0_
  6
CONTINUOUS
 62
    7
 10
-3.2441852034776559
 20
10.920900972066519
 40
0.8715019008015277
 50
227.71569804400133
 51
304.11306839604538
  0
ARC
  8
_0-0_
  6
CONTINUOUS
 62
    7
 10
-1.8635870251471545
 20
11.242732303970101
 40
1.6868549968659496
 50
137.82924723931799
 51
190.27996095883628
  0
ARC
  8
_0-0_
  6
CONTINUOUS
 62
    7
 10
-3.3057804822522883
 20
11.184880738243422
 40
0.3263122373160896
 50
228.17983011988423
 51
311.82016988012248
  0
ARC
  8
_0-0_
  6
CONTINUOUS
 62
    7
 10
-3.305780482251663
 20
10.954498396852301
 40
0.9344160449287674
 50
306.08507304283751
 51
346.53479190520608
  0
ARC
  8
_0-0_
  6
CONTINUOUS
 62
    7
 10
-6.0959666168817819
 20
21.782468442243136
 40
9.2281725571987856
 50
286.02180478239598
 51
288.68624449012441
  0
ARC
  8
_0-0_
  6
CONTINUOUS
 62
    7
 10
-2.973805927818006
 20
12.267997718252857
 40
0.1763152693956335
 50
18.517152180455263
 51
142.55820340348828
  0
ARC
  8
_0-0_
  6
CONTINUOUS
 62
    7
 10
-6.3080967762821558
 20
17.101939409789672
 40
2.4613209934244376
 50
141.31221582003403
 51
206.49606109077394
  0
ARC
  8
_0-0_
  6
CONTINUOUS
 62
    7
 10
-7.9245379470004593
 20
16.648605378475544
 40
0.8715019008015277
 50
227.71569804400133
 51
304.11306839604538
  0
ARC
  8
_0-0_
  6
CONTINUOUS
 62
    7
 10
-6.5439397686699579
 20
16.970436710379126
 40
1.6868549968659496
 50
137.82924723931799
 51
190.27996095883628
  0
ARC
  8
_0-0_
  6
CONTINUOUS
 62
    7
 10
-7.9861332257750917
 20
16.912585144652446
 40
0.3263122373160896
 50
228.17983011988423
 51
311.82016988012248
  0
ARC
  8
_0-0_
  6
CONTINUOUS
 62
    7
 10
-7.9861332257744664
 20
16.682202803261326
 40
0.9344160449287674
 50
306.08507304283751
 51
346.53479190520608
  0
ARC
  8
_0-0_
  6
CONTINUOUS
 62
    7
 10
-10.776319360404585
 20
27.510172848652154
 40
9.2281725571987856
 50
286.02180478239598
 51
288.68624449012441
  0
ARC
  8
_0-0_
  6
CONTINUOUS
 62
    7
 10
-7.6541586713408094
 20
17.995702124661882
 40
0.1763152693956335
 50
18.517152180455263
 51
142.55820340348828
  0
ARC
  8
_0-0_
  6
CONTINUOUS
 62
    7
 10
-3.5915284006710237
 20
19.883967264331211
 40
2.4613209934244376
 50
141.31221582003403
 51
206.49606109077394
  0
ARC
  8
_0-0_
  6
CONTINUOUS
 62
    7
 10
-5.2079695713893273
 20
19.430633233017083
 40
0.8715019008015277
 50
227.71569804400133
 51
304.11306839604538
  0
ARC
  8
_0-0_
  6
CONTINUOUS
 62
    7
 10
-3.8273713930588258
 20
19.752464564920665
 40
1.6868549968659496
 50
137.82924723931799
 51
190.27996095883628
  0
ARC
  8
_0-0_
  6
CONTINUOUS
 62
    7
 10
-5.2695648501639596
 20
19.694612999193986
 40
0.3263122373160896
 50
228.17983011988423
 51
311.82016988012248
  0
ARC
  8
_0-0_
  6
CONTINUOUS
 62
    7
 10
-5.2695648501633343
 20
19.464230657802865
 40
0.9344160449287674
 50
306.08507304283751
 51
346.53479190520608
  0
ARC
  8
_0-0_
  6
CONTINUOUS
 62
    7
 10
-8.0597509847934532
 20
30.292200703193693
 40
9.2281725571987856
 50
286.02180478239598
 51
288.68624449012441
  0
ARC
  8
_0-0_
  6
CONTINUOUS
 62
    7
 10
-4.9375902957296773
 20
20.777729979203421
 40
0.1763152693956335
 50
18.517152180455263
 51
142.55820340348828
  0
ARC
  8
_0-0_
  6
CONTINUOUS
 62
    7
 10
-1.5622845538289596
 20
15.989128267973065
 40
2.4613209934244376
 50
141.31221582003403
 51
206.49606109077394
  0
ARC
  8
_0-0_
  6
CONTINUOUS
 62
    7
 10
-3.1787257245472631
 20
15.535794236658937
 40
0.8715019008015277
 50
227.71569804400133
 51
304.11306839604538
  0
ARC
  8
_0-0_
  6
CONTINUOUS
 62
    7
 10
-1.7981275462167616
 20
15.857625568562518
 40
1.6868549968659496
 50
137.82924723931799
 51
190.27996095883628
  0
ARC
  8
_0-0_
  6
CONTINUOUS
 62
    7
 10
-3.2403210033218954
 20
15.799774002835839
 40
0.3263122373160896
 50
228.17983011988423
 51
311.82016988012248
  0
ARC
  8
_0-0_
  6
CONTINUOUS
 62
    7
 10
-3.2403210033212702
 20
15.569391661444719
 40
0.9344160449287674
 50
306.08507304283751
 51
346.53479190520608
  0
ARC
  8
_0-0_
  6
CONTINUOUS
 62
    7
 10
-6.030507137951389
 20
26.397361706835547
 40
9.2281725571987856
 50
286.02180478239598
 51
288.68624449012441
  0
ARC
  8
_0-0_
  6
CONTINUOUS
 62
    7
 10
-2.9083464488876132
 20
16.882890982845275
 40
0.1763152693956335
 50
18.517152180455263
 51
142.55820340348828
  0
ARC
  8
_0-0_
  6
CONTINUOUS
 62
    7
 10
7.3187887080599126
 20
17.727007624393316
 40
2.7348011038049305
 50
141.31221582003403
 51
206.49606109077394
  0
ARC
  8
_0-0_
  6
CONTINUOUS
 62
    7
 10
5.5227429628173468
 20
17.223303145155406
 40
0.9683354453350308
 50
227.71569804400133
 51
304.11306839604538
  0
ARC
  8
_0-0_
  6
CONTINUOUS
 62
    7
 10
7.0567409387401199
 20
17.580893513937163
 40
1.8742833298510551
 50
137.82924723931799
 51
190.27996095883628
  0
ARC
  8
_0-0_
  6
CONTINUOUS
 62
    7
 10
5.4543037641789169
 20
17.516613996463072
 40
0.3625691525734329
 50
228.17983011988423
 51
311.82016988012248
  0
ARC
  8
_0-0_
  6
CONTINUOUS
 62
    7
 10
5.4543037641795991
 20
17.260633617139597
 40
1.0382400499208526
 50
306.08507304283751
 51
346.53479190520608
  0
ARC
  8
_0-0_
  6
CONTINUOUS
 62
    7
 10
2.3540969479238925
 20
29.291711445351631
 40
10.253525063554205
 50
286.02180478239598
 51
288.68624449012441
  0
ARC
  8
_0-0_
  6
CONTINUOUS
 62
    7
 10
5.8231643802170083
 20
18.720077307584667
 40
0.1959058548840372
 50
18.517152180455263
 51
142.55820340348828
  0
ARC
  8
_0-0_
  6
CONTINUOUS
 62
    7
 10
4.3731121561924056
 20
14.846790551456209
 40
2.7348011038049305
 50
141.31221582003403
 51
206.49606109077394
  0
ARC
  8
_0-0_
  6
CONTINUOUS
 62
    7
 10
2.5770664109498398
 20
14.343086072218298
 40
0.9683354453350308
 50
227.71569804400133
 51
304.11306839604538
  0
ARC
  8
_0-0_
  6
CONTINUOUS
 62
    7
 10
4.1110643868726129
 20
14.700676441000056
 40
1.8742833298510551
 50
137.82924723931799
 51
190.27996095883628
  0
ARC
  8
_0-0_
  6
CONTINUOUS
 62
    7
 10
2.5086272123114099
 20
14.636396923525965
 40
0.3625691525734329
 50
228.17983011988423
 51
311.82016988012248
  0
ARC
  8
_0-0_
  6
CONTINUOUS
 62
    7
 10
2.5086272123120921
 20
14.38041654420249
 40
1.0382400499208526
 50
306.08507304283751
 51
346.53479190520608
  0
ARC
  8
_0-0_
  6
CONTINUOUS
 62
    7
 10
-0.5915796039436145
 20
26.411494372414531
 40
10.253525063554205
 50
286.02180478239598
 51
288.68624449012441
  0
ARC
  8
_0-0_
  6
CONTINUOUS
 62
    7
 10
2.8774878283495013
 20
15.83986023464756
 40
0.1959058548840372
 50
18.517152180455263
 51
142.55820340348828
  0
ARC
  8
_0-0_
  6
CONTINUOUS
 62
    7
 10
9.6098704706235196
 20
13.603060451778816
 40
2.7348011038049305
 50
141.31221582003403
 51
206.49606109077394
  0
ARC
  8
_0-0_
  6
CONTINUOUS
 62
    7
 10
7.8138247253809539
 20
13.099355972540906
 40
0.9683354453350308
 50
227.71569804400133
 51
304.11306839604538
  0
ARC
  8
_0-0_
  6
CONTINUOUS
 62
    7
 10
9.3478227013037269
 20
13.456946341322663
 40
1.8742833298510551
 50
137.82924723931799
 51
190.27996095883628
  0
ARC
  8
_0-0_
  6
CONTINUOUS
 62
    7
 10
7.745385526742524
 20
13.392666823848572
 40
0.3625691525734329
 50
228.17983011988423
 51
311.82016988012248
  0
ARC
  8
_0-0_
  6
CONTINUOUS
 62
    7
 10
7.7453855267432061
 20
13.136686444525097
 40
1.0382400499208526
 50
306.08507304283751
 51
346.53479190520608
  0
ARC
  8
_0-0_
  6
CONTINUOUS
 62
    7
 10
4.6451787104874995
 20
25.167764272737124
 40
10.253525063554205
 50
286.02180478239598
 51
288.68624449012441
  0
ARC
  8
_0-0_
  6
CONTINUOUS
 62
    7
 10
8.1142461427806154
 20
14.596130134970167
 40
0.1959058548840372
 50
18.517152180455263
 51
142.55820340348828
  0
ARC
  8
_0-0_
  6
CONTINUOUS
 62
    7
 10
9.2498433365063875
 20
9.2172753634427593
 40
2.7348011038049305
 50
141.31221582003403
 51
206.49606109077394
  0
ARC
  8
_0-0_
  6
CONTINUOUS
 62
    7
 10
7.4537975912638217
 20
8.7135708842048487
 40
0.9683354453350308
 50
227.71569804400133
 51
304.11306839604538
  0
ARC
  8
_0-0_
  6
CONTINUOUS
 62
    7
 10
8.9877955671865948
 20
9.0711612529866059
 40
1.8742833298510551
 50
137.82924723931799
 51
190.27996095883628
  0
ARC
  8
_0-0_
  6
CONTINUOUS
 62
    7
 10
7.3853583926253918
 20
9.0068817355125148
 40
0.3625691525734329
 50
228.17983011988423
 51
311.82016988012248
  0
ARC
  8
_0-0_
  6
CONTINUOUS
 62
    7
 10
7.385358392626074
 20
8.7509013561890399
 40
1.0382400499208526
 50
306.08507304283751
 51
346.53479190520608
  0
ARC
  8
_0-0_
  6
CONTINUOUS
 62
    7
 10
4.2851515763703674
 20
20.781979184401074
 40
10.253525063554205
 50
286.02180478239598
 51
288.68624449012441
  0
ARC
  8
_0-0_
  6
CONTINUOUS
 62
    7
 10
7.7542190086634832
 20
10.21034504663411
 40
0.1959058548840372
 50
18.517152180455263
 51
142.55820340348828
  0
ARC
  8
_0-0_
  6
CONTINUOUS
 62
    7
 10
4.1440039799360591
 20
10.166437807933399
 40
2.7348011038049305
 50
141.31221582003403
 51
206.49606109077394
  0
ARC
  8
_0-0_
  6
CONTINUOUS
 62
    7
 10
2.3479582346934933
 20
9.662733328695488
 40
0.9683354453350308
 50
227.71569804400133
 51
304.11306839604538
  0
ARC
  8
_0-0_
  6
CONTINUOUS
 62
    7
 10
3.8819562106162664
 20
10.020323697477245
 40
1.8742833298510551
 50
137.82924723931799
 51
190.27996095883628
  0
ARC
  8
_0-0_
  6
CONTINUOUS
 62
    7
 10
2.2795190360550635
 20
9.9560441800031541
 40
0.3625691525734329
 50
228.17983011988423
 51
311.82016988012248
  0
ARC
  8
_0-0_
  6
CONTINUOUS
 62
    7
 10
2.2795190360557456
 20
9.7000638006796791
 40
1.0382400499208526
 50
306.08507304283751
 51
346.53479190520608
  0
ARC
  8
_0-0_
  6
CONTINUOUS
 62
    7
 10
-0.820687780199961
 20
21.731141628891713
 40
10.253525063554205
 50
286.02180478239598
 51
288.68624449012441
  0
ARC
  8
_0-0_
  6
CONTINUOUS
 62
    7
 10
2.6483796520931548
 20
11.159507491124749
 40
0.1959058548840372
 50
18.517152180455263
 51
142.55820340348828
  0
ARC
  8
_0-0_
  6
CONTINUOUS
 62
    7
 10
3.7512471063537305
 20
6.0097608958537023
 40
2.7348011038049305
 50
141.31221582003403
 51
206.49606109077394
  0
ARC
  8
_0-0_
  6
CONTINUOUS
 62
    7
 10
1.9552013611111647
 20
5.5060564166157917
 40
0.9683354453350308
 50
227.71569804400133
 51
304.11306839604538
  0
ARC
  8
_0-0_
  6
CONTINUOUS
 62
    7
 10
3.4891993370339378
 20
5.8636467853975489
 40
1.8742833298510551
 50
137.82924723931799
 51
190.27996095883628
  0
ARC
  8
_0-0_
  6
CONTINUOUS
 62
    7
 10
1.8867621624727349
 20
5.7993672679234578
 40
0.3625691525734329
 50
228.17983011988423
 51
311.82016988012248
  0
ARC
  8
_0-0_
  6
CONTINUOUS
 62
    7
 10
1.886762162473417
 20
5.5433868885999829
 40
1.0382400499208526
 50
306.08507304283751
 51
346.53479190520608
  0
ARC
  8
_0-0_
  6
CONTINUOUS
 62
    7
 10
-1.2134446537822896
 20
17.57446471681201
 40
10.253525063554205
 50
286.02180478239598
 51
288.68624449012441
  0
ARC
  8
_0-0_
  6
CONTINUOUS
 62
    7
 10
2.2556227785108263
 20
7.0028305790450531
 40
0.1959058548840372
 50
18.517152180455263
 51
142.55820340348828
  0
ARC
  8
_0-0_
  6
CONTINUOUS
 62
    7
 10
8.8570864629240589
 20
4.2750847041983988
 40
2.7348011038049305
 50
141.31221582003403
 51
206.49606109077394
  0
ARC
  8
_0-0_
  6
CONTINUOUS
 62
    7
 10
7.0610407176814931
 20
3.7713802249604882
 40
0.9683354453350308
 50
227.71569804400133
 51
304.11306839604538
  0
ARC
  8
_0-0_
  6
CONTINUOUS
 62
    7
 10
8.5950386936042662
 20
4.1289705937422454
 40
1.8742833298510551
 50
137.82924723931799
 51
190.27996095883628
  0
ARC
  8
_0-0_
  6
CONTINUOUS
 62
    7
 10
6.9926015190430633
 20
4.0646910762681543
 40
0.3625691525734329
 50
228.17983011988423
 51
311.82016988012248
  0
ARC
  8
_0-0_
  6
CONTINUOUS
 62
    7
 10
6.9926015190437454
 20
3.8087106969446793
 40
1.0382400499208526
 50
306.08507304283751
 51
346.53479190520608
  0
ARC
  8
_0-0_
  6
CONTINUOUS
 62
    7
 10
3.8923947027880388
 20
15.839788525156713
 40
10.253525063554205
 50
286.02180478239598
 51
288.68624449012441
  0
ARC
  8
_0-0_
  6
CONTINUOUS
 62
    7
 10
7.3614621350811547
 20
5.2681543873897496
 40
0.1959058548840372
 50
18.517152180455263
 51
142.55820340348828
  0
ARC
  8
_0-0_
  6
CONTINUOUS
 62
    7
 10
3.4894091906321592
 20
1.6567055469828418
 40
2.7348011038049305
 50
141.31221582003403
 51
206.49606109077394
  0
ARC
  8
_0-0_
  6
CONTINUOUS
 62
    7
 10
1.6933634453895934
 20
1.1530010677449312
 40
0.9683354453350308
 50
227.71569804400133
 51
304.11306839604538
  0
ARC
  8
_0-0_
  6
CONTINUOUS
 62
    7
 10
3.2273614213123665
 20
1.5105914365266884
 40
1.8742833298510551
 50
137.82924723931799
 51
190.27996095883628
  0
ARC
  8
_0-0_
  6
CONTINUOUS
 62
    7
 10
1.6249242467511635
 20
1.4463119190525973
 40
0.3625691525734329
 50
228.17983011988423
 51
311.82016988012248
  0
ARC
  8
_0-0_
  6
CONTINUOUS
 62
    7
 10
1.6249242467518457
 20
1.1903315397291223
 40
1.0382400499208526
 50
306.08507304283751
 51
346.53479190520608
  0
ARC
  8
_0-0_
  6
CONTINUOUS
 62
    7
 10
-1.4752825695038609
 20
13.221409367941156
 40
10.253525063554205
 50
286.02180478239598
 51
288.68624449012441
  0
ARC
  8
_0-0_
  6
CONTINUOUS
 62
    7
 10
1.9937848627892549
 20
2.6497752301741926
 40
0.1959058548840372
 50
18.517152180455263
 51
142.55820340348828
  0
ARC
  8
_0-0_
  6
CONTINUOUS
 62
    7
 10
8.3334106314809446
 20
-0.2416193419984367
 40
2.7348011038049305
 50
141.31221582003403
 51
206.49606109077394
  0
ARC
  8
_0-0_
  6
CONTINUOUS
 62
    7
 10
6.5373648862383789
 20
-0.7453238212363473
 40
0.9683354453350308
 50
227.71569804400133
 51
304.11306839604538
  0
ARC
  8
_0-0_
  6
CONTINUOUS
 62
    7
 10
8.071362862161152
 20
-0.3877334524545901
 40
1.8742833298510551
 50
137.82924723931799
 51
190.27996095883628
  0
ARC
  8
_0-0_
  6
CONTINUOUS
 62
    7
 10
6.468925687599949
 20
-0.4520129699286812
 40
0.3625691525734329
 50
228.17983011988423
 51
311.82016988012248
  0
ARC
  8
_0-0_
  6
CONTINUOUS
 62
    7
 10
6.4689256876006311
 20
-0.7079933492521561
 40
1.0382400499208526
 50
306.08507304283751
 51
346.53479190520608
  0
ARC
  8
_0-0_
  6
CONTINUOUS
 62
    7
 10
3.3687188713449245
 20
11.323084478959878
 40
10.253525063554205
 50
286.02180478239598
 51
288.68624449012441
  0
ARC
  8
_0-0_
  6
CONTINUOUS
 62
    7
 10
6.8377863036380404
 20
0.7514503411929141
 40
0.1959058548840372
 50
18.517152180455263
 51
142.55820340348828
  0
ARC
  8
_0-0_
  6
CONTINUOUS
 62
    7
 10
7.9079240184334196
 20
-7.8021891584583543
 40
2.7348011038049305
 50
141.31221582003403
 51
206.49606109077394
  0
ARC
  8
_0-0_
  6
CONTINUOUS
 62
    7
 10
6.1118782731908539
 20
-8.3058936376962649
 40
0.9683354453350308
 50
227.71569804400133
 51
304.11306839604538
  0
ARC
  8
_0-0_
  6
CONTINUOUS
 62
    7
 10
7.645876249113627
 20
-7.9483032689145077
 40
1.8742833298510551
 50
137.82924723931799
 51
190.27996095883628
  0
ARC
  8
_0-0_
  6
CONTINUOUS
 62
    7
 10
6.043439074552424
 20
-8.0125827863885988
 40
0.3625691525734329
 50
228.17983011988423
 51
311.82016988012248
  0
ARC
  8
_0-0_
  6
CONTINUOUS
 62
    7
 10
6.0434390745531061
 20
-8.2685631657120737
 40
1.0382400499208526
 50
306.08507304283751
 51
346.53479190520608
  0
ARC
  8
_0-0_
  6
CONTINUOUS
 62
    7
 10
2.9432322582973995
 20
3.7625146624999601
 40
10.253525063554205
 50
286.02180478239598
 51
288.68624449012441
  0
ARC
  8
_0-0_
  6
CONTINUOUS
 62
    7
 10
6.4122996905905154
 20
-6.8091194752670035
 40
0.1959058548840372
 50
18.517152180455263
 51
142.55820340348828
  0
ARC
  8
_0-0_
  6
CONTINUOUS
 62
    7
 10
2.7366251829326984
 20
-6.4275401009201829
 40
2.7348011038049305
 50
141.31221582003403
 51
206.49606109077394
  0
ARC
  8
_0-0_
  6
CONTINUOUS
 62
    7
 10
0.9405794376901326
 20
-6.9312445801580935
 40
0.9683354453350308
 50
227.71569804400133
 51
304.11306839604538
  0
ARC
  8
_0-0_
  6
CONTINUOUS
 62
    7
 10
2.4745774136129057
 20
-6.5736542113763363
 40
1.8742833298510551
 50
137.82924723931799
 51
190.27996095883628
  0
ARC
  8
_0-0_
  6
CONTINUOUS
 62
    7
 10
0.8721402390517027
 20
-6.6379337288504274
 40
0.3625691525734329
 50
228.17983011988423
 51
311.82016988012248
  0
ARC
  8
_0-0_
  6
CONTINUOUS
 62
    7
 10
0.8721402390523849
 20
-6.8939141081739024
 40
1.0382400499208526
 50
306.08507304283751
 51
346.53479190520608
  0
ARC
  8
_0-0_
  6
CONTINUOUS
 62
    7
 10
-2.2280665772033217
 20
5.1371637200381315
 40
10.253525063554205
 50
286.02180478239598
 51
288.68624449012441
  0
ARC
  8
_0-0_
  6
CONTINUOUS
 62
    7
 10
1.2410008550897942
 20
-5.4344704177288321
 40
0.1959058548840372
 50
18.517152180455263
 51
142.55820340348828
  0
ARC
  8
_0-0_
  6
CONTINUOUS
 62
    7
 10
2.4420575277459307
 20
-10.584217012999879
 40
2.7348011038049305
 50
141.31221582003403
 51
206.49606109077394
  0
ARC
  8
_0-0_
  6
CONTINUOUS
 62
    7
 10
0.6460117825033648
 20
-11.08792149223779
 40
0.9683354453350308
 50
227.71569804400133
 51
304.11306839604538
  0
ARC
  8
_0-0_
  6
CONTINUOUS
 62
    7
 10
2.180009758426138
 20
-10.730331123456033
 40
1.8742833298510551
 50
137.82924723931799
 51
190.27996095883628
  0
ARC
  8
_0-0_
  6
CONTINUOUS
 62
    7
 10
0.577572583864935
 20
-10.794610640930124
 40
0.3625691525734329
 50
228.17983011988423
 51
311.82016988012248
  0
ARC
  8
_0-0_
  6
CONTINUOUS
 62
    7
 10
0.5775725838656171
 20
-11.050591020253599
 40
1.0382400499208526
 50
306.08507304283751
 51
346.53479190520608
  0
ARC
  8
_0-0_
  6
CONTINUOUS
 62
    7
 10
-2.5226342323900894
 20
0.9804868079584352
 40
10.253525063554205
 50
286.02180478239598
 51
288.68624449012441
  0
ARC
  8
_0-0_
  6
CONTINUOUS
 62
    7
 10
0.9464331999030264
 20
-9.5911473298085284
 40
0.1959058548840372
 50
18.517152180455263
 51
142.55820340348828
  0
ARC
  8
_0-0_
  6
CONTINUOUS
 62
    7
 10
7.2860589685947161
 20
-12.286163465189993
 40
2.7348011038049305
 50
141.31221582003403
 51
206.49606109077394
  0
ARC
  8
_0-0_
  6
CONTINUOUS
 62
    7
 10
5.4900132233521504
 20
-12.789867944427904
 40
0.9683354453350308
 50
227.71569804400133
 51
304.11306839604538
  0
ARC
  8
_0-0_
  6
CONTINUOUS
 62
    7
 10
7.0240111992749235
 20
-12.432277575646147
 40
1.8742833298510551
 50
137.82924723931799
 51
190.27996095883628
  0
ARC
  8
_0-0_
  6
CONTINUOUS
 62
    7
 10
5.4215740247137205
 20
-12.496557093120238
 40
0.3625691525734329
 50
228.17983011988423
 51
311.82016988012248
  0
ARC
  8
_0-0_
  6
CONTINUOUS
 62
    7
 10
5.4215740247144026
 20
-12.752537472443713
 40
1.0382400499208526
 50
306.08507304283751
 51
346.53479190520608
  0
ARC
  8
_0-0_
  6
CONTINUOUS
 62
    7
 10
2.321367208458696
 20
-0.7214596442316789
 40
10.253525063554205
 50
286.02180478239598
 51
288.68624449012441
  0
ARC
  8
_0-0_
  6
CONTINUOUS
 62
    7
 10
5.7904346407518119
 20
-11.293093781998643
 40
0.1959058548840372
 50
18.517152180455263
 51
142.55820340348828
  0
ARC
  8
_0-0_
  6
CONTINUOUS
 62
    7
 10
7.0896805318035661
 20
-16.802867511386829
 40
2.7348011038049305
 50
141.31221582003403
 51
206.49606109077394
  0
ARC
  8
_0-0_
  6
CONTINUOUS
 62
    7
 10
5.2936347865610003
 20
-17.306571990624739
 40
0.9683354453350308
 50
227.71569804400133
 51
304.11306839604538
  0
ARC
  8
_0-0_
  6
CONTINUOUS
 62
    7
 10
6.8276327624837734
 20
-16.948981621842982
 40
1.8742833298510551
 50
137.82924723931799
 51
190.27996095883628
  0
ARC
  8
_0-0_
  6
CONTINUOUS
 62
    7
 10
5.2251955879225704
 20
-17.013261139317073
 40
0.3625691525734329
 50
228.17983011988423
 51
311.82016988012248
  0
ARC
  8
_0-0_
  6
CONTINUOUS
 62
    7
 10
5.2251955879232526
 20
-17.269241518640548
 40
1.0382400499208526
 50
306.08507304283751
 51
346.53479190520608
  0
ARC
  8
_0-0_
  6
CONTINUOUS
 62
    7
 10
2.124988771667546
 20
-5.2381636904285145
 40
10.253525063554205
 50
286.02180478239598
 51
288.68624449012441
  0
ARC
  8
_0-0_
  6
CONTINUOUS
 62
    7
 10
5.5940562039606618
 20
-15.809797828195478
 40
0.1959058548840372
 50
18.517152180455263
 51
142.55820340348828
  0
ARC
  8
_0-0_
  6
CONTINUOUS
 62
    7
 10
2.0165709146984057
 20
-15.133650798661911
 40
2.7348011038049305
 50
141.31221582003403
 51
206.49606109077394
  0
ARC
  8
_0-0_
  6
CONTINUOUS
 62
    7
 10
0.2205251694558398
 20
-15.637355277899822
 40
0.9683354453350308
 50
227.71569804400133
 51
304.11306839604538
  0
ARC
  8
_0-0_
  6
CONTINUOUS
 62
    7
 10
1.754523145378613
 20
-15.279764909118065
 40
1.8742833298510551
 50
137.82924723931799
 51
190.27996095883628
  0
ARC
  8
_0-0_
  6
CONTINUOUS
 62
    7
 10
0.15208597081741
 20
-15.344044426592156
 40
0.3625691525734329
 50
228.17983011988423
 51
311.82016988012248
  0
ARC
  8
_0-0_
  6
CONTINUOUS
 62
    7
 10
0.1520859708180921
 20
-15.600024805915631
 40
1.0382400499208526
 50
306.08507304283751
 51
346.53479190520608
  0
ARC
  8
_0-0_
  6
CONTINUOUS
 62
    7
 10
-2.9481208454376144
 20
-3.5689469777035967
 40
10.253525063554205
 50
286.02180478239598
 51
288.68624449012441
  0
ARC
  8
_0-0_
  6
CONTINUOUS
 62
    7
 10
0.5209465868555014
 20
-14.14058111547056
 40
0.1959058548840372
 50
18.517152180455263
 51
142.55820340348828
  0
ARC
  8
_0-0_
  6
CONTINUOUS
 62
    7
 10
1.9183816963028448
 20
-19.323057450206797
 40
2.7348011038049305
 50
141.31221582003403
 51
206.49606109077394
  0
ARC
  8
_0-0_
  6
CONTINUOUS
 62
    7
 10
0.122335951060279
 20
-19.826761929444707
 40
0.9683354453350308
 50
227.71569804400133
 51
304.11306839604538
  0
ARC
  8
_0-0_
  6
CONTINUOUS
 62
    7
 10
1.6563339269830522
 20
-19.46917156066295
 40
1.8742833298510551
 50
137.82924723931799
 51
190.27996095883628
  0
ARC
  8
_0-0_
  6
CONTINUOUS
 62
    7
 10
0.0538967524218492
 20
-19.533451078137041
 40
0.3625691525734329
 50
228.17983011988423
 51
311.82016988012248
  0
ARC
  8
_0-0_
  6
CONTINUOUS
 62
    7
 10
0.0538967524225313
 20
-19.789431457460516
 40
1.0382400499208526
 50
306.08507304283751
 51
346.53479190520608
  0
ARC
  8
_0-0_
  6
CONTINUOUS
 62
    7
 10
-3.0463100638331753
 20
-7.7583536292484823
 40
10.253525063554205
 50
286.02180478239598
 51
288.68624449012441
  0
ARC
  8
_0-0_
  6
CONTINUOUS
 62
    7
 10
0.4227573684599406
 20
-18.329987767015446
 40
0.1959058548840372
 50
18.517152180455263
 51
142.55820340348828
  0
ARC
  8
_0-0_
  6
CONTINUOUS
 62
    7
 10
6.7296533976864055
 20
-21.352301297048854
 40
2.7348011038049305
 50
141.31221582003403
 51
206.49606109077394
  0
ARC
  8
_0-0_
  6
CONTINUOUS
 62
    7
 10
4.9336076524438397
 20
-21.856005776286764
 40
0.9683354453350308
 50
227.71569804400133
 51
304.11306839604538
  0
ARC
  8
_0-0_
  6
CONTINUOUS
 62
    7
 10
6.4676056283666128
 20
-21.498415407505007
 40
1.8742833298510551
 50
137.82924723931799
 51
190.27996095883628
  0
ARC
  8
_0-0_
  6
CONTINUOUS
 62
    7
 10
4.8651684538054099
 20
-21.562694924979098
 40
0.3625691525734329
 50
228.17983011988423
 51
311.82016988012248
  0
ARC
  8
_0-0_
  6
CONTINUOUS
 62
    7
 10
4.865168453806092
 20
-21.818675304302573
 40
1.0382400499208526
 50
306.08507304283751
 51
346.53479190520608
  0
ARC
  8
_0-0_
  6
CONTINUOUS
 62
    7
 10
1.7649616375503854
 20
-9.7875974760905393
 40
10.253525063554205
 50
286.02180478239598
 51
288.68624449012441
  0
ARC
  8
_0-0_
  6
CONTINUOUS
 62
    7
 10
5.2340290698435012
 20
-20.359231613857503
 40
0.1959058548840372
 50
18.517152180455263
 51
142.55820340348828
  0
ARC
  8
_0-0_
  6
CONTINUOUS
 62
    7
 10
4.0458147615404698
 20
-23.545193841216879
 40
2.7348011038049305
 50
141.31221582003403
 51
206.49606109077394
  0
ARC
  8
_0-0_
  6
CONTINUOUS
 62
    7
 10
2.249769016297904
 20
-24.048898320454789
 40
0.9683354453350308
 50
227.71569804400133
 51
304.11306839604538
  0
ARC
  8
_0-0_
  6
CONTINUOUS
 62
    7
 10
3.7837669922206771
 20
-23.691307951673032
 40
1.8742833298510551
 50
137.82924723931799
 51
190.27996095883628
  0
ARC
  8
_0-0_
  6
CONTINUOUS
 62
    7
 10
2.1813298176594742
 20
-23.755587469147123
 40
0.3625691525734329
 50
228.17983011988423
 51
311.82016988012248
  0
ARC
  8
_0-0_
  6
CONTINUOUS
 62
    7
 10
2.1813298176601563
 20
-24.011567848470598
 40
1.0382400499208526
 50
306.08507304283751
 51
346.53479190520608
  0
ARC
  8
_0-0_
  6
CONTINUOUS
 62
    7
 10
-0.9188769985955502
 20
-11.980490020258564
 40
10.253525063554205
 50
286.02180478239598
 51
288.68624449012441
  0
ARC
  8
_0-0_
  6
CONTINUOUS
 62
    7
 10
2.5501904336975656
 20
-22.552124158025528
 40
0.1959058548840372
 50
18.517152180455263
 51
142.55820340348828
  0
ARC
  8
_0-0_
  6
CONTINUOUS
 62
    7
 10
18.465371290818865
 20
-9.2382668432264907
 40
13.320393324611553
 50
274.21128378032279
 51
306.82735054132456
  0
ARC
  8
_0-0_
  6
CONTINUOUS
 62
    7
 10
21.382510842134792
 20
-13.262663286225241
 40
8.3508908911766824
 50
307.35727511861933
 51
347.09773317224938
  0
ARC
  8
_0-0_
  6
CONTINUOUS
 62
    7
 10
25.177557252927102
 20
-13.731363257662004
 40
4.5637445438152859
 50
342.1888687580331
 51
25.485655476621524
  0
ARC
  8
_0-0_
  6
CONTINUOUS
 62
    7
 10
22.423038247769654
 20
-14.73186718083096
 40
7.4860480225145896
 50
23.32619102447288
 51
57.64583205952507
  0
ARC
  8
_0-0_
  6
CONTINUOUS
 62
    7
 10
20.442120413682233
 20
-16.803818010023768
 40
11.409575188632887
 50
32.206230353360468
 51
51.16459800535263
  0
ARC
  8
_0-0_
  6
CONTINUOUS
 62
    7
 10
24.826020246672982
 20
-13.617140699231001
 40
6.0125850975049779
 50
350.24715192201126
 51
28.774768836569876
  0
ARC
  8
_0-0_
  6
CONTINUOUS
 62
    7
 10
23.695955325401201
 20
-14.226571092259142
 40
7.0676036089990157
 50
320.81728206446058
 51
356.6817069212733
  0
ARC
  8
_0-0_
  6
CONTINUOUS
 62
    7
 10
17.782802776094798
 20
-9.5365623487754689
 40
14.614567852041668
 50
301.24768337775697
 51
321.21134195322134
  0
ARC
  8
_0-0_
  6
CONTINUOUS
 62
    7
 10
17.22575078101633
 20
-7.3806516856026079
 40
16.758996728201289
 50
277.46323817771793
 51
299.05188797306141
  0
LINE
  8
_0-0_
  6
CONTINUOUS
 62
    7
 10
20.201523629916636
 20
-0.5619207360236302
 11
21.184841905810714
 21
-0.7258071153393075
  0
LINE
  8
_0-0_
  6
CONTINUOUS
 62
    7
 10
19.853265073870801
 20
-3.3479891843901655
 11
20.734154362692578
 21
-3.491389766291384
  0
LINE
  8
_0-0_
  6
CONTINUOUS
 62
    7
 10
24.093825138663988
 20
-3.5118755637058428
 11
25.322972983531571
 21
-3.6143045507781437
  0
LINE
  8
_0-0_
  6
CONTINUOUS
 62
    7
 10
23.909452961933852
 20
-6.2364866198290017
 11
25.282001388702668
 21
-6.4413445939735965
  0
LINE
  8
_0-0_
  6
CONTINUOUS
 62
    7
 10
19.361605935923791
 20
-9.3298420294124327
 11
20.262981022160005
 21
-9.5961573958004109
  0
LINE
  8
_0-0_
  6
CONTINUOUS
 62
    7
 10
19.709864491969597
 20
-6.7076599603615747
 11
20.877554944593811
 21
-6.871546339677252
  0
ARC
  8
_0-0_
  6
CONTINUOUS
 62
    7
 10
25.519447024251576
 20
-4.507741855257585
 40
0.9147853659259839
 50
102.4023924003013
 51
183.06480379774626
  0
ARC
  8
_0-0_
  6
CONTINUOUS
 62
    7
 10
26.599720181214906
 20
-4.9380485778243255
 40
2.0299023191866095
 50
169.17035620901837
 51
216.81887737481424
  0
ARC
  8
_0-0_
  6
CONTINUOUS
 62
    7
 10
25.414258597285027
 20
-5.7875625061586078
 40
0.5726028953765779
 50
219.85892760627877
 51
311.56276573608432
  0
ARC
  8
_0-0_
  6
CONTINUOUS
 62
    7
 10
24.543910158328828
 20
-5.3212534941653615
 40
1.5374209740736657
 50
324.41011650082021
 51
9.4512477066160958
  0
ARC
  8
_0-0_
  6
CONTINUOUS
 62
    7
 10
24.628429844331976
 20
-4.9466429943062522
 40
1.4372322727908287
 50
355.12443805929445
 51
57.298317976367997
  0
ARC
  8
_0-0_
  6
CONTINUOUS
 62
    7
 10
24.764495276570955
 20
-4.6855374083423413
 40
1.3517694179983926
 50
119.74511044614496
 51
184.96293882637696
  0
ARC
  8
_0-0_
  6
CONTINUOUS
 62
    7
 10
24.822534218121206
 20
-5.0570899972536623
 40
1.4276278989369371
 50
169.72666935837094
 51
230.23954368542937
  0
ARC
  8
_0-0_
  6
CONTINUOUS
 62
    7
 10
23.739305022631072
 20
-3.6462638425041973
 40
0.4566841651435694
 50
17.11374616819668
 51
142.5352321457159
  0
ARC
  8
_0-0_
  6
CONTINUOUS
 62
    7
 10
24.891064088043464
 20
-4.893813314289666
 40
2.1493220874846619
 50
134.79083352295245
 51
179.74970231715702
  0
ARC
  8
_0-0_
  6
CONTINUOUS
 62
    7
 10
26.652501235731904
 20
-4.4726594624434668
 40
3.9323564707289234
 50
186.01056829980851
 51
204.33526239124294
  0
ARC
  8
_0-0_
  6
CONTINUOUS
 62
    7
 10
23.406526635408852
 20
-5.9660740939581913
 40
0.3601322196899236
 50
200.65141094294904
 51
332.19592030705809
  0
ARC
  8
_0-0_
  6
CONTINUOUS
 62
    7
 10
24.963589967824078
 20
-4.9765261206535101
 40
1.9557548318023508
 50
133.28573603603994
 51
180.90272464712686
  0
ARC
  8
_0-0_
  6
CONTINUOUS
 62
    7
 10
16.995496334541087
 20
-9.01743361884904
 40
7.134686296966227
 50
26.197186058474937
 51
30.688671190256041
  0
ARC
  8
_0-0_
  6
CONTINUOUS
 62
    7
 10
21.768107345403536
 20
-1.803437364235819
 40
1.2253511849099346
 50
118.42438823015526
 51
186.13860851347638
  0
ARC
  8
_0-0_
  6
CONTINUOUS
 62
    7
 10
22.355253901569654
 20
-2.266151047017388
 40
1.8809522015704241
 50
172.99930986641081
 51
218.22266720094854
  0
ARC
  8
_0-0_
  6
CONTINUOUS
 62
    7
 10
21.178013306672511
 20
-2.5217286886735266
 40
0.9566133813985725
 50
251.6943868028051
 51
321.08469386526605
  0
ARC
  8
_0-0_
  6
CONTINUOUS
 62
    7
 10
20.004859974737883
 20
-2.1802987317659515
 40
2.1365184096752268
 50
333.8280526341573
 51
6.6071333022275347
  0
ARC
  8
_0-0_
  6
CONTINUOUS
 62
    7
 10
21.124347521138105
 20
-1.7927069444207007
 40
1.0128113001382439
 50
351.95394567034373
 51
83.08428197060951
  0
ARC
  8
_0-0_
  6
CONTINUOUS
 62
    7
 10
20.517244481477064
 20
-1.6089209955270007
 40
0.9730708524597264
 50
103.90113768751674
 51
183.48986806733262
  0
ARC
  8
_0-0_
  6
CONTINUOUS
 62
    7
 10
21.098440666974767
 20
-2.1943097434690912
 40
1.6392010441675189
 50
161.27760675787738
 51
217.14444632375523
  0
ARC
  8
_0-0_
  6
CONTINUOUS
 62
    7
 10
19.764383146379032
 20
-0.9792362543214068
 40
0.5325268014472177
 50
41.931721512391569
 51
146.43811073784391
  0
ARC
  8
_0-0_
  6
CONTINUOUS
 62
    7
 10
20.623300742955621
 20
-1.9512982251654094
 40
1.8168289784178822
 50
135.80734820143613
 51
192.48879548999048
  0
ARC
  8
_0-0_
  6
CONTINUOUS
 62
    7
 10
20.323501366887456
 20
-2.2406252045937833
 40
1.4776737311693153
 50
184.01875830003337
 51
236.36448762188206
  0
ARC
  8
_0-0_
  6
CONTINUOUS
 62
    7
 10
19.793573698645901
 20
-3.0219824427771442
 40
0.5336680189431268
 50
237.26705216189055
 51
316.55540207615934
  0
ARC
  8
_0-0_
  6
CONTINUOUS
 62
    7
 10
20.904596197180865
 20
-2.0778697446936576
 40
1.7284553807462144
 50
134.673477134747
 51
182.03765258382438
  0
ARC
  8
_0-0_
  6
CONTINUOUS
 62
    7
 10
19.712425216646437
 20
-2.7257330879259314
 40
0.4950219260065922
 50
183.26203347739872
 51
255.31678024759992
  0
ARC
  8
_0-0_
  6
CONTINUOUS
 62
    7
 10
21.28916772597691
 20
-8.6981966091332339
 40
1.8724519456321267
 50
102.69878699805915
 51
135.41042120009459
  0
ARC
  8
_0-0_
  6
CONTINUOUS
 62
    7
 10
21.605160152761755
 20
-8.3925269477122271
 40
1.933516951701763
 50
148.54948261278216
 51
200.30612177929078
  0
ARC
  8
_0-0_
  6
CONTINUOUS
 62
    7
 10
20.359466598871393
 20
-9.0360858109321924
 40
0.5683217809393915
 50
182.76754580472172
 51
260.22539090570803
  0
ARC
  8
_0-0_
  6
CONTINUOUS
 62
    7
 10
20.612345618911263
 20
-8.822457877956964
 40
0.848920823972614
 50
245.69840870385997
 51
333.0706226548524
  0
ARC
  8
_0-0_
  6
CONTINUOUS
 62
    7
 10
20.266543769536213
 20
-8.4244588523776684
 40
1.3520867592423269
 50
324.64002038394602
 51
14.750286678521276
  0
ARC
  8
_0-0_
  6
CONTINUOUS
 62
    7
 10
20.527792843783658
 20
-7.9736446519560857
 40
1.0516919800990707
 50
354.18446778874102
 51
60.764395463814928
  0
ARC
  8
_0-0_
  6
CONTINUOUS
 62
    7
 10
20.794645443737153
 20
-7.5176220071917541
 40
0.5235248989995485
 50
61.874013296429503
 51
112.92086229856652
  0
ARC
  8
_0-0_
  6
CONTINUOUS
 62
    7
 10
20.211766528623997
 20
-7.8855933116931283
 40
1.2312799329313175
 50
109.94238458170122
 51
171.8698976458397
  0
ARC
  8
_0-0_
  6
CONTINUOUS
 62
    7
 10
20.411937715168108
 20
-8.2196403182409625
 40
1.5073221973460511
 50
160.29737081817169
 51
218.88889770729017
  0
ARC
  8
_0-0_
  6
CONTINUOUS
 62
    7
 10
18.891064873089192
 20
-7.0259485535232713
 40
0.6844417032286136
 50
22.039264136752198
 51
150.33258619466775
  0
ARC
  8
_0-0_
  6
CONTINUOUS
 62
    7
 10
20.629261893653137
 20
-8.075411080140924
 40
2.6395869439057424
 50
162.49067532928228
 51
204.89209664361888
  0
ARC
  8
_0-0_
  6
CONTINUOUS
 62
    7
 10
18.893109311081247
 20
-8.7045969337609748
 40
0.815739323181451
 50
216.20559218941656
 51
293.48627170995798
  0
ARC
  8
_0-0_
  6
CONTINUOUS
 62
    7
 10
19.765833368523431
 20
-8.0784954108960676
 40
1.306968757252772
 50
128.51883507662578
 51
177.37997090920169
  0
ARC
  8
_0-0_
  6
CONTINUOUS
 62
    7
 10
19.084508570896645
 20
-8.6290121178650665
 40
0.5030527468773499
 50
197.07564303685797
 51
244.75312340319698
  0
ARC
  8
_0-0_
  6
CONTINUOUS
 62
    7
 10
18.049554629644348
 20
-3.5949997772447588
 40
8.7470585839279149
 50
342.42309042213981
 51
18.01595554837894
  0
ARC
  8
_0-0_
  6
CONTINUOUS
 62
    7
 10
21.715503545183992
 20
-3.9920272475497214
 40
4.6896259790028978
 50
337.24035685360241
 51
30.573275914604331
  0
ARC
  8
_0-0_
  6
CONTINUOUS
 62
    7
 10
25.988761399501527
 20
-6.4106158978519119
 40
0.2611437019195919
 50
138.17983011986198
 51
334.44003482817646
  0
ARC
  8
_0-0_
  6
CONTINUOUS
 62
    7
 10
25.979656600650657
 20
-1.0342321764125657
 40
0.3487305847857492
 50
40.499886291578775
 51
229.50011370842046
  0
ENDBLK
  0
ENDSEC
  0
SECTION
  2
ENTITIES
  0
INSERT
  2
-002-1
  8
_0-0_
 10
143.68705288128115
 20
110.14968986152294
 41
1
 42
1
 50
0
  0
ENDSEC
  0
EOF
