  0
SECTION
  2
HEADER
  9
$ACADVER
  1
AC1009
  9
$INSBASE
 10
0
 20
0
 30
0
  9
$EXTMIN
 10
0
 20
0
  9
$EXTMAX
 10
297
 20
210
  9
$LIMMIN
 10
0
 20
0
  9
$LIMMAX
 10
297
 20
210
  9
$LTSCALE
 40
1
  0
ENDSEC
  0
SECTION
  2
TABLES
  0
TABLE
  2
LTYPE
 70
     9
  0
LTYPE
  2
CONTINUOUS
 70
    64
  3
実線
 72
    65
 73
     0
 40
0.0
  0
LTYPE
  2
DASHED1
 70
    64
  3
--  --  --  --  --  --  --  --  
 72
    65
 73
     2
 40
2.5
 49
1.25
 49
-1.25
  0
LTYPE
  2
DASHED2
 70
    64
  3
----    ----    ----    ----    
 72
    65
 73
     2
 40
5.0
 49
2.5
 49
-2.5
  0
LTYPE
  2
DASHED3
 70
    64
  3
------  ------  ------  ------  
 72
    65
 73
     2
 40
5.0
 49
3.75
 49
-1.25
  0
LTYPE
  2
CENTER1
 70
    64
  3
----- - ----- - ----- - ----- - 
 72
    65
 73
     4
 40
10.0
 49
6.25
 49
-1.25
 49
1.25
 49
-1.25
  0
LTYPE
  2
CENTER2
 70
    64
  3
----------  --  ----------  --  
 72
    65
 73
     4
 40
20.0
 49
12.5
 49
-2.5
 49
2.5
 49
-2.5
  0
LTYPE
  2
PHANTOM1
 70
    64
  3
--- - - --- - - --- - - --- - - 
 72
    65
 73
     6
 40
10.0
 49
3.25
 49
-1.25
 49
1.25
 49
-1.25
 49
1.25
 49
-1.25
  0
LTYPE
  2
PHANTOM2
 70
    64
  3
--------  -  -  --------  -  -  
 72
    65
 73
     6
 40
20.0
 49
10.0
 49
-2.5
 49
1.25
 49
-2.5
 49
1.25
 49
-2.5
  0
LTYPE
  2
DOT
 70
    64
  3
-   -   -   -   -   -   -   -   
 72
    65
 73
     2
 40
2.5
 49
0.625
 49
-1.875
  0
LTYPE
  2
DUMMY
 70
    64
  3
ダミー
 72
    65
 73
     0
 40
0.0
  0
LTYPE
  2
RAND1
 70
    64
  3
ランダム線1
 72
    65
 73
     4
 40
10.0
 49
1.0
 49
-2.0
 49
3.0
 49
-4.0
  0
LTYPE
  2
RAND2
 70
    64
  3
ランダム線2
 72
    65
 73
     4
 40
14.0
 49
2.0
 49
-3.0
 49
4.0
 49
-5.0
  0
LTYPE
  2
RAND3
 70
    64
  3
ランダム線3
 72
    65
 73
     4
 40
18.0
 49
3.0
 49
-4.0
 49
5.0
 49
-6.0
  0
LTYPE
  2
RAND4
 70
    64
  3
ランダム線4
 72
    65
 73
     4
 40
22.0
 49
4.0
 49
-5.0
 49
6.0
 49
-7.0
  0
LTYPE
  2
RAND5
 70
    64
  3
ランダム線5
 72
    65
 73
     4
 40
26.0
 49
5.0
 49
-6.0
 49
7.0
 49
-8.0
  0
LTYPE
  2
LONG1
 70
    64
  3
----------  --  ----------  --  
 72
    65
 73
     4
 40
40.0
 49
32.5
 49
-2.5
 49
2.5
 49
-2.5
  0
LTYPE
  2
LONG2
 70
    64
  3
--------  -  -  --------  -  -  
 72
    65
 73
     6
 40
40.0
 49
30.0
 49
-2.5
 49
1.25
 49
-2.5
 49
1.25
 49
-2.5
  0
LTYPE
  2
LONG3
 70
    64
  3
+++++++++++++++..+++++++++++++++
 72
    65
 73
     2
 40
40.0
 49
37.5
 49
-2.5
  0
LTYPE
  2
LONG4
 70
    64
  3
+++++++++++++++..+++++++++++++++
 72
    65
 73
     2
 40
80.0
 49
75.0
 49
-5.0
  0
LTYPE
  2
LONG5
 70
    64
  3
----------  --  ----------  --  
 72
    65
 73
     4
 40
60.0
 49
37.5
 49
-7.5
 49
7.5
 49
-7.5
  0
LTYPE
  2
dashed
 70
   64
  3
-------   -------------   ------
 72
   65
 73
    2
 40
7.5
 49
6
 49
-1.5
  0
LTYPE
  2
dashed_spaced
 70
   64
  3
----        --------        ----
 72
   65
 73
    2
 40
12
 49
6
 49
-6
  0
LTYPE
  2
long_dashed_dotted
 70
   64
  3
------------- --- --------------
 72
   65
 73
    4
 40
15.25
 49
12
 49
-1.5
 49
0.25
 49
-1.5
  0
LTYPE
  2
long_dashed_double-dotted
 70
   64
  3
----------- --- --- ------------
 72
   65
 73
    6
 40
17
 49
12
 49
-1.5
 49
0.25
 49
-1.5
 49
0.25
 49
-1.5
  0
LTYPE
  2
long_dashed_triplicate-dotted
 70
   64
  3
--------- --- --- --- ----------
 72
   65
 73
    8
 40
18.75
 49
12
 49
-1.5
 49
0.25
 49
-1.5
 49
0.25
 49
-1.5
 49
0.25
 49
-1.5
  0
LTYPE
  2
dotted
 70
   64
  3
   -       -       -       -    
 72
   65
 73
    2
 40
1.75
 49
0.25
 49
-1.5
  0
LTYPE
  2
chain
 70
   64
  3
-------------- -- --------------
 72
   65
 73
    4
 40
18.5
 49
12
 49
-1.5
 49
3.5
 49
-1.5
  0
LTYPE
  2
chain_double_dash
 70
   64
  3
------------ -- -- -------------
 72
   65
 73
    6
 40
23.5
 49
12
 49
-1.5
 49
3.5
 49
-1.5
 49
3.5
 49
-1.5
  0
LTYPE
  2
dashed_dotted
 70
   64
  3
-----------     -     ----------
 72
   65
 73
    4
 40
9.25
 49
6
 49
-1.5
 49
0.25
 49
-1.5
  0
LTYPE
  2
double-dashed_dotted
 70
   64
  3
------   -----------   -   -----
 72
   65
 73
    6
 40
16.75
 49
6
 49
-1.5
 49
6
 49
-1.5
 49
0.25
 49
-1.5
  0
LTYPE
  2
dashed_double-dotted
 70
   64
  3
---------    -    -    ---------
 72
   65
 73
    6
 40
11
 49
6
 49
-1.5
 49
0.25
 49
-1.5
 49
0.25
 49
-1.5
  0
LTYPE
  2
double-dashed_double-dotted
 70
   64
  3
-----   ---------   -   -   ----
 72
   65
 73
    8
 40
18.5
 49
6
 49
-1.5
 49
6
 49
-1.5
 49
0.25
 49
-1.5
 49
0.25
 49
-1.5
  0
LTYPE
  2
dashed_triplicate-dotted
 70
   64
  3
-------    -    -    -    ------
 72
   65
 73
    8
 40
12.75
 49
6
 49
-1.5
 49
0.25
 49
-1.5
 49
0.25
 49
-1.5
 49
0.25
 49
-1.5
  0
LTYPE
  2
double-dashed_triplicate-dotted
 70
   64
  3
-----  ---------  -  -  -  -----
 72
   65
 73
   10
 40
20.25
 49
6
 49
-1.5
 49
6
 49
-1.5
 49
0.25
 49
-1.5
 49
0.25
 49
-1.5
 49
0.25
 49
-1.5
  0
LTYPE
  2
undefined
 70
   64
  3
--------------------------------
 72
   65
 73
    0
 40
0
  0
LTYPE
  2
_
 70
   64
  3
                                
 72
   65
 73
    0
 40
0
  0
LTYPE
  2
__18
 70
   64
  3
                                
 72
   65
 73
    0
 40
0
  0
LTYPE
  2
__19
 70
   64
  3
                                
 72
   65
 73
    0
 40
0
  0
LTYPE
  2
__20
 70
   64
  3
                                
 72
   65
 73
    0
 40
0
  0
LTYPE
  2
__21
 70
   64
  3
                                
 72
   65
 73
    0
 40
0
  0
LTYPE
  2
__22
 70
   64
  3
                                
 72
   65
 73
    0
 40
0
  0
LTYPE
  2
__23
 70
   64
  3
                                
 72
   65
 73
    0
 40
0
  0
LTYPE
  2
__24
 70
   64
  3
                                
 72
   65
 73
    0
 40
0
  0
LTYPE
  2
__25
 70
   64
  3
                                
 72
   65
 73
    0
 40
0
  0
LTYPE
  2
__26
 70
   64
  3
                                
 72
   65
 73
    0
 40
0
  0
LTYPE
  2
__27
 70
   64
  3
                                
 72
   65
 73
    0
 40
0
  0
LTYPE
  2
__28
 70
   64
  3
                                
 72
   65
 73
    0
 40
0
  0
LTYPE
  2
__29
 70
   64
  3
                                
 72
   65
 73
    0
 40
0
  0
LTYPE
  2
__30
 70
   64
  3
                                
 72
   65
 73
    0
 40
0
  0
LTYPE
  2
__31
 70
   64
  3
                                
 72
   65
 73
    0
 40
0
  0
LTYPE
  2
__32
 70
   64
  3
                                
 72
   65
 73
    0
 40
0
  0
ENDTAB
  0
TABLE
  2
STYLE
  5
3
100
AcDbSymbolTable
 70
     1
  0
STYLE
  5
10
100
AcDbSymbolTableRecord
100
AcDbTextStyleTableRecord
  2
STANDARD
 70
     0
 40
0.0
 41
1.0
 50
0.0
 71
     0
 42
0.2
  3
txt
  4
bigfont.shx
  0
STYLE
  5
26
100
AcDbSymbolTableRecord
100
AcDbTextStyleTableRecord
  2
TATEGAKI
 70
    68
 40
0.0
 41
1.0
 50
0.0
 71
     0
 42
1.0
  3
txt
  4
bigfont.shx
  0
ENDTAB
  0
TABLE
  2
LAYER
 70
    2
  0
LAYER
  2
_0-0_
 70
   64
 62
    7
  6
CONTINUOUS
  0
LAYER
  2
ADD_LINE
 70
   64
 62
    7
  6
CONTINUOUS
  0
ENDTAB
  0
ENDSEC
  0
SECTION
  2
BLOCKS
  0
BLOCK
  2
-001-3
 70
   64
 10
0
 20
0
 30
0
  0
LINE
  8
_0-0_
  6
CONTINUOUS
 62
    7
 10
-10.868146563570221
 20
30.382053188212296
 11
11.66101462138576
 21
27.141289967499389
  0
LINE
  8
_0-0_
  6
CONTINUOUS
 62
    7
 10
-16.568766204824257
 20
26.47751918735338
 11
4.9061707998998259
 21
21.635897026288319
  0
LINE
  8
_0-0_
  6
CONTINUOUS
 62
    7
 10
12.2857400615232
 20
26.399428507336197
 11
11.973377341454466
 21
22.49489450647728
  0
LINE
  8
_0-0_
  6
CONTINUOUS
 62
    7
 10
12.051468021471663
 20
22.065395766382792
 11
16.736908822502357
 21
22.533939846485865
  0
LINE
  8
_0-0_
  6
CONTINUOUS
 62
    7
 10
17.517815622674135
 20
21.870169066339841
 11
16.385500762425067
 21
14.256327764664945
  0
LINE
  8
_0-0_
  6
CONTINUOUS
 62
    7
 10
16.932135522545309
 20
21.831123726331256
 11
15.916956682321995
 21
14.451554464707897
  0
LINE
  8
_0-0_
  6
CONTINUOUS
 62
    7
 10
16.736908822502357
 20
22.104441106391377
 11
14.511324442012778
 21
21.870169066339841
  0
LINE
  8
_0-0_
  6
CONTINUOUS
 62
    7
 10
13.925644341883924
 20
21.831123726331256
 11
11.778150641411543
 21
21.59685168627972
  0
LINE
  8
_0-0_
  6
CONTINUOUS
 62
    7
 10
11.895286661437297
 20
26.360383167327612
 11
11.504833261351394
 21
22.377758486451512
  0
LINE
  8
_0-0_
  6
CONTINUOUS
 62
    7
 10
8.6935687807329884
 20
25.930884427233124
 11
8.6154781007157908
 21
24.290980146872386
  0
LINE
  8
_0-0_
  6
CONTINUOUS
 62
    7
 10
14.511324442012778
 20
21.870169066339841
 11
12.2857400615232
 21
3.0893605222084233
  0
LINE
  8
_0-0_
  6
CONTINUOUS
 62
    7
 10
13.925644341883924
 20
21.831123726331256
 11
14.277052401961242
 21
21.479715666253952
  0
LINE
  8
_0-0_
  6
CONTINUOUS
 62
    7
 10
14.277052401961242
 20
21.479715666253952
 11
12.051468021471663
 21
3.0503151821998387
  0
LINE
  8
_0-0_
  6
CONTINUOUS
 62
    7
 10
8.6154781007157908
 20
24.290980146872386
 11
9.63388999457041
 21
24.235769538707359
  0
LINE
  8
_0-0_
  6
CONTINUOUS
 62
    7
 10
9.63388999457041
 20
24.235769538707359
 11
9.8144436050559989
 21
24.038801963632181
  0
LINE
  8
_0-0_
  6
CONTINUOUS
 62
    7
 10
9.8144436050559989
 20
24.038801963632181
 11
9.8144436050559989
 21
23.382243380048266
  0
LINE
  8
_0-0_
  6
CONTINUOUS
 62
    7
 10
9.8144436050559989
 20
23.382243380048266
 11
10.126308932258354
 21
23.333001486279471
  0
LINE
  8
_0-0_
  6
CONTINUOUS
 62
    7
 10
10.126308932258354
 20
23.333001486279471
 11
10.241206684385531
 21
22.85699651318113
  0
LINE
  8
_0-0_
  6
CONTINUOUS
 62
    7
 10
10.241206684385531
 20
22.85699651318113
 11
7.86118181889384
 21
21.740846921088462
  0
LINE
  8
_0-0_
  6
CONTINUOUS
 62
    7
 10
7.86118181889384
 20
21.740846921088462
 11
7.8283538897146343
 21
20.641111293585396
  0
LINE
  8
_0-0_
  6
CONTINUOUS
 62
    7
 10
7.8283538897146343
 20
20.641111293585396
 11
9.4697503486744381
 21
20.903734727018957
  0
LINE
  8
_0-0_
  6
CONTINUOUS
 62
    7
 10
9.4697503486744381
 20
20.903734727018957
 11
10.930593197148653
 21
20.903734727018957
  0
LINE
  8
_0-0_
  6
CONTINUOUS
 62
    7
 10
10.930593197148653
 20
20.903734727018957
 11
10.963421126327859
 21
20.756009045712588
  0
LINE
  8
_0-0_
  6
CONTINUOUS
 62
    7
 10
10.963421126327859
 20
20.756009045712588
 11
7.1389673769515127
 21
20.017380639180672
  0
LINE
  8
_0-0_
  6
CONTINUOUS
 62
    7
 10
7.1389673769515127
 20
20.017380639180672
 11
5.8750921035524755
 21
19.180268445111167
  0
LINE
  8
_0-0_
  6
CONTINUOUS
 62
    7
 10
6.1048876078068304
 20
18.572951755296046
 11
10.700797692894298
 21
19.278752232648756
  0
LINE
  8
_0-0_
  6
CONTINUOUS
 62
    7
 10
10.700797692894298
 20
19.278752232648756
 11
10.832109409611064
 21
19.213096374290373
  0
LINE
  8
_0-0_
  6
CONTINUOUS
 62
    7
 10
10.832109409611064
 20
19.213096374290373
 11
10.832109409611064
 21
18.884817082498401
  0
LINE
  8
_0-0_
  6
CONTINUOUS
 62
    7
 10
10.832109409611064
 20
18.884817082498401
 11
5.9079200327316528
 21
18.080532817608102
  0
LINE
  8
_0-0_
  6
CONTINUOUS
 62
    7
 10
5.8750921035524755
 20
19.180268445111167
 11
5.7437803868356809
 21
18.704263472012826
  0
LINE
  8
_0-0_
  6
CONTINUOUS
 62
    7
 10
5.7437803868356809
 20
18.704263472012826
 11
6.1048876078068304
 21
18.572951755296046
  0
LINE
  8
_0-0_
  6
CONTINUOUS
 62
    7
 10
5.9079200327316528
 20
18.080532817608102
 11
5.809436245194064
 21
17.292662517307406
  0
LINE
  8
_0-0_
  6
CONTINUOUS
 62
    7
 10
5.809436245194064
 20
17.292662517307406
 11
5.4483290242229145
 21
16.997211154694639
  0
LINE
  8
_0-0_
  6
CONTINUOUS
 62
    7
 10
5.4483290242229145
 20
16.997211154694639
 11
5.513984882581326
 21
16.751001685850667
  0
LINE
  8
_0-0_
  6
CONTINUOUS
 62
    7
 10
5.513984882581326
 20
16.751001685850667
 11
5.5468128117605033
 21
16.488378252417093
  0
LINE
  8
_0-0_
  6
CONTINUOUS
 62
    7
 10
5.5468128117605033
 20
16.488378252417093
 11
5.3498452366853257
 21
15.240916943607644
  0
LINE
  8
_0-0_
  6
CONTINUOUS
 62
    7
 10
5.3498452366853257
 20
15.240916943607644
 11
5.8750921035524755
 21
14.764911970509303
  0
LINE
  8
_0-0_
  6
CONTINUOUS
 62
    7
 10
5.8750921035524755
 20
14.764911970509303
 11
6.3510970766508024
 21
14.732084041330111
  0
LINE
  8
_0-0_
  6
CONTINUOUS
 62
    7
 10
6.3510970766508024
 20
14.732084041330111
 11
6.3675110412404194
 21
13.057859653191116
  0
LINE
  8
_0-0_
  6
CONTINUOUS
 62
    7
 10
6.3675110412404194
 20
13.057859653191116
 11
5.1364636970205595
 21
12.549026750913569
  0
LINE
  8
_0-0_
  6
CONTINUOUS
 62
    7
 10
5.1364636970205595
 20
12.549026750913569
 11
5.0708078386621764
 21
11.301565442104121
  0
LINE
  8
_0-0_
  6
CONTINUOUS
 62
    7
 10
5.0708078386621764
 20
11.301565442104121
 11
4.8738402635869988
 21
9.6437550185547281
  0
LINE
  8
_0-0_
  6
CONTINUOUS
 62
    7
 10
4.8738402635869988
 20
9.6437550185547281
 11
5.8258502097836811
 21
9.5780991601963308
  0
LINE
  8
_0-0_
  6
CONTINUOUS
 62
    7
 10
5.8258502097836811
 20
9.5780991601963308
 11
5.760194351425298
 21
8.1008423471325131
  0
LINE
  8
_0-0_
  6
CONTINUOUS
 62
    7
 10
4.6440447593326155
 20
7.8053909845197467
 11
9.6831318883392044
 21
9.0200243641500037
  0
LINE
  8
_0-0_
  6
CONTINUOUS
 62
    7
 10
9.6831318883392044
 20
9.0200243641500037
 11
9.6995458529288214
 21
9.4139595143003447
  0
LINE
  8
_0-0_
  6
CONTINUOUS
 62
    7
 10
5.2349474845581483
 20
9.6765829477339196
 11
9.8472715342352046
 21
10.612178929341013
  0
LINE
  8
_0-0_
  6
CONTINUOUS
 62
    7
 10
5.1200497324309708
 20
11.17025372538734
 11
10.07706703848956
 21
12.286403317480008
  0
LINE
  8
_0-0_
  6
CONTINUOUS
 62
    7
 10
6.3675110412404194
 20
13.057859653191116
 11
10.208378755206354
 21
13.993455634798195
  0
LINE
  8
_0-0_
  6
CONTINUOUS
 62
    7
 10
5.8750921035524755
 20
14.764911970509303
 11
10.50383011781912
 21
15.569196235399616
  0
LINE
  8
_0-0_
  6
CONTINUOUS
 62
    7
 10
5.5796407409397091
 20
16.455550323237901
 11
6.6957903330323632
 21
16.504792217006695
  0
LINE
  8
_0-0_
  6
CONTINUOUS
 62
    7
 10
6.6957903330323632
 20
16.504792217006695
 11
10.667969763715092
 21
17.3419044110762
  0
LINE
  8
_0-0_
  6
CONTINUOUS
 62
    7
 10
4.6440447593326155
 20
7.8053909845197467
 11
4.3321794321302605
 21
4.9986030396984802
  0
LINE
  8
_0-0_
  6
CONTINUOUS
 62
    7
 10
4.3978352904886719
 20
4.4405282436521532
 11
9.4369224194952608
 21
5.901371092126368
  0
LINE
  8
_0-0_
  6
CONTINUOUS
 62
    7
 10
4.463491148847055
 20
6.3281341714559147
 11
9.6338899945704384
 21
7.4606977281381859
  0
LINE
  8
_0-0_
  6
CONTINUOUS
 62
    7
 10
5.2841893783269427
 20
3.2751367577906905
 11
9.1742989860617001
 21
4.3420444561145644
  0
LINE
  8
_0-0_
  6
CONTINUOUS
 62
    7
 10
5.2841893783269427
 20
4.7195656416753167
 11
5.2841893783269427
 21
2.8812016076403353
  0
LINE
  8
_0-0_
  6
CONTINUOUS
 62
    7
 10
4.2008677154134944
 20
5.0478449334672746
 11
4.5619749363846438
 21
4.5882539249585221
  0
LINE
  8
_0-0_
  6
CONTINUOUS
 62
    7
 10
5.2841893783269427
 20
2.8812016076403353
 11
4.0695559986966998
 21
2.5529223158483774
  0
LINE
  8
_0-0_
  6
CONTINUOUS
 62
    7
 10
4.0695559986966998
 20
2.5529223158483774
 11
4.0695559986966998
 21
1.765052015547667
  0
LINE
  8
_0-0_
  6
CONTINUOUS
 62
    7
 10
3.9218303173903166
 20
1.7486380509580641
 11
5.0051519803037934
 21
1.6337402988308867
  0
LINE
  8
_0-0_
  6
CONTINUOUS
 62
    7
 10
5.0051519803037934
 20
1.6337402988308867
 11
8.9280895172177281
 21
2.815545749281938
  0
LINE
  8
_0-0_
  6
CONTINUOUS
 62
    7
 10
5.0051519803037934
 20
1.6337402988308867
 11
4.9230821573557932
 21
0.140069521177466
  0
LINE
  8
_0-0_
  6
CONTINUOUS
 62
    7
 10
4.9230821573557932
 20
0.140069521177466
 11
8.7967778005009336
 21
1.3054610070389288
  0
LINE
  8
_0-0_
  6
CONTINUOUS
 62
    7
 10
4.9230821573557932
 20
0.140069521177466
 11
3.6263789547775644
 21
-0.0404840893081086
  0
LINE
  8
_0-0_
  6
CONTINUOUS
 62
    7
 10
4.9230821573557932
 20
0.140069521177466
 11
4.955910086534999
 21
-1.6818805482679124
  0
LINE
  8
_0-0_
  6
CONTINUOUS
 62
    7
 10
2.674369008580868
 20
-2.7159603174125806
 11
3.5278951672399756
 21
-2.7159603174125806
  0
LINE
  8
_0-0_
  6
CONTINUOUS
 62
    7
 10
3.5278951672399756
 20
-2.7159603174125806
 11
5.448329024222943
 21
-1.5833967607303236
  0
LINE
  8
_0-0_
  6
CONTINUOUS
 62
    7
 10
5.2185335199685596
 20
-1.714708477447104
 11
5.1036357678413822
 21
-4.4230126347307817
  0
LINE
  8
_0-0_
  6
CONTINUOUS
 62
    7
 10
5.448329024222943
 20
-1.5833967607303236
 11
5.1364636970205879
 21
-4.5871522806267677
  0
LINE
  8
_0-0_
  6
CONTINUOUS
 62
    7
 10
5.1364636970205879
 20
-4.5871522806267677
 11
4.0531420341071112
 21
-4.9154315724187256
  0
LINE
  8
_0-0_
  6
CONTINUOUS
 62
    7
 10
3.2652717338064008
 20
-5.1452270766730948
 11
4.4142492550782606
 21
-5.0795712183147117
  0
LINE
  8
_0-0_
  6
CONTINUOUS
 62
    7
 10
4.4142492550782606
 20
-5.0795712183147117
 11
4.3650073613094662
 21
-6.6224838897369267
  0
LINE
  8
_0-0_
  6
CONTINUOUS
 62
    7
 10
3.8561744590319336
 20
-7.1805586857832537
 11
4.3650073613094662
 21
-6.6224838897369267
  0
LINE
  8
_0-0_
  6
CONTINUOUS
 62
    7
 10
4.3650073613094662
 20
-6.6224838897369267
 11
7.8447678543042514
 21
-5.6212320497714501
  0
LINE
  8
_0-0_
  6
CONTINUOUS
 62
    7
 10
4.0531420341071112
 20
-6.9507631815288846
 11
4.0039001403383168
 21
-8.1982244903383332
  0
LINE
  8
_0-0_
  6
CONTINUOUS
 62
    7
 10
2.772852796118471
 20
-8.5100898175406883
 11
4.0039001403383168
 21
-8.1982244903383332
  0
LINE
  8
_0-0_
  6
CONTINUOUS
 62
    7
 10
4.0039001403383168
 20
-8.1982244903383332
 11
7.5164885625122793
 21
-7.0656609336560763
  0
LINE
  8
_0-0_
  6
CONTINUOUS
 62
    7
 10
3.2160298400376064
 20
-7.246214544141651
 11
3.8890023882111251
 21
-7.0984888628352678
  0
LINE
  8
_0-0_
  6
CONTINUOUS
 62
    7
 10
2.9369924420144429
 20
-9.8067930201189455
 11
4.0203141049279196
 21
-9.593411480454165
  0
LINE
  8
_0-0_
  6
CONTINUOUS
 62
    7
 10
4.0203141049279196
 20
-9.593411480454165
 11
7.5657304562810737
 21
-8.4280199945927023
  0
LINE
  8
_0-0_
  6
CONTINUOUS
 62
    7
 10
3.0518901941416345
 20
-8.4936758529510996
 11
3.0354762295520317
 21
-9.6918952679917538
  0
LINE
  8
_0-0_
  6
CONTINUOUS
 62
    7
 10
4.0203141049279196
 20
-9.7575511263501511
 11
4.0039001403383168
 21
-10.775216930905216
  0
LINE
  8
_0-0_
  6
CONTINUOUS
 62
    7
 10
3.3637555213439896
 20
-11.152738116465983
 11
7.4672466687434849
 21
-9.839620949298137
  0
LINE
  8
_0-0_
  6
CONTINUOUS
 62
    7
 10
4.0203141049279054
 20
-11.037840364338791
 11
3.9054163528007138
 21
-11.481017408257941
  0
LINE
  8
_0-0_
  6
CONTINUOUS
 62
    7
 10
3.9054163528007138
 20
-11.481017408257941
 11
2.9369924420144287
 21
-11.727226877101913
  0
LINE
  8
_0-0_
  6
CONTINUOUS
 62
    7
 10
2.9369924420144287
 20
-11.727226877101913
 11
2.6415410794016765
 21
-12.15398995643146
  0
LINE
  8
_0-0_
  6
CONTINUOUS
 62
    7
 10
2.6415410794016765
 20
-12.15398995643146
 11
2.6579550439912651
 21
-12.531511141992212
  0
LINE
  8
_0-0_
  6
CONTINUOUS
 62
    7
 10
2.5594712564536763
 20
-12.728478717067389
 11
2.9369924420144287
 21
-12.744892681656992
  0
LINE
  8
_0-0_
  6
CONTINUOUS
 62
    7
 10
2.9369924420144287
 20
-12.744892681656992
 11
7.2210371998995129
 21
-11.300463797772366
  0
LINE
  8
_0-0_
  6
CONTINUOUS
 62
    7
 10
6.991241695645158
 20
-12.679236823298595
 11
2.6087131502224707
 21
-14.172907600952016
  0
LINE
  8
_0-0_
  6
CONTINUOUS
 62
    7
 10
2.428159539736896
 20
-15.600922520247053
 11
6.7286182622115689
 21
-14.041595884235235
  0
LINE
  8
_0-0_
  6
CONTINUOUS
 62
    7
 10
3.5278951672399614
 20
-13.861042273749661
 11
3.4458253442919755
 21
-15.075675653379903
  0
LINE
  8
_0-0_
  6
CONTINUOUS
 62
    7
 10
2.674369008580868
 20
-12.81054854001539
 11
2.5758852210432792
 21
-13.959526061287249
  0
LINE
  8
_0-0_
  6
CONTINUOUS
 62
    7
 10
2.26401989384091
 20
-15.847131989091011
 11
2.2804338584305128
 21
-16.684244183160516
  0
LINE
  8
_0-0_
  6
CONTINUOUS
 62
    7
 10
2.0506383541761437
 20
-16.979695545773282
 11
6.7942741205699804
 21
-15.305471157634287
  0
LINE
  8
_0-0_
  6
CONTINUOUS
 62
    7
 10
6.6465484392635972
 20
-16.700658147750119
 11
2.2804338584305128
 21
-18.227156854582731
  0
LINE
  8
_0-0_
  6
CONTINUOUS
 62
    7
 10
2.2147780000721156
 20
-17.160249156258871
 11
2.1655361063033212
 21
-18.145087031634745
  0
LINE
  8
_0-0_
  6
CONTINUOUS
 62
    7
 10
1.5746333810778026
 20
-18.424124429657908
 11
3.1175460525000034
 21
-18.374882535889114
  0
LINE
  8
_0-0_
  6
CONTINUOUS
 62
    7
 10
2.9698203711936344
 20
-18.128673067045156
 11
3.0354762295520175
 21
-18.342054606709922
  0
LINE
  8
_0-0_
  6
CONTINUOUS
 62
    7
 10
3.0847181233208119
 20
-18.489780288016306
 11
2.9862343357832231
 21
-19.884967278132137
  0
LINE
  8
_0-0_
  6
CONTINUOUS
 62
    7
 10
2.9862343357832231
 20
-19.884967278132137
 11
1.3612518414130221
 21
-20.83697722432882
  0
LINE
  8
_0-0_
  6
CONTINUOUS
 62
    7
 10
1.0658004788002557
 20
-19.064269048652235
 11
1.9029126728697605
 21
-18.506194252605908
  0
LINE
  8
_0-0_
  6
CONTINUOUS
 62
    7
 10
1.935740602048952
 20
-18.686747863091483
 11
1.9029126728697605
 21
-19.868553313542535
  0
LINE
  8
_0-0_
  6
CONTINUOUS
 62
    7
 10
1.9193266374593492
 20
-12.629994929529815
 11
1.7223590623841716
 21
-17.915291527380376
  0
LINE
  8
_0-0_
  6
CONTINUOUS
 62
    7
 10
2.2311919646617184
 20
-12.564339071171418
 11
1.9849824958177464
 21
-18.112259102455553
  0
LINE
  8
_0-0_
  6
CONTINUOUS
 62
    7
 10
3.068304158731209
 20
-19.458204198802591
 11
6.318269147471625
 21
-18.112259102455553
  0
LINE
  8
_0-0_
  6
CONTINUOUS
 62
    7
 10
6.1377155369860361
 20
-19.491032127981782
 11
1.9029126728697605
 21
-21.083186693172792
  0
LINE
  8
_0-0_
  6
CONTINUOUS
 62
    7
 10
1.7551869915633773
 20
-22.41271782493024
 11
6.2033713953444476
 21
-20.771321365970437
  0
LINE
  8
_0-0_
  6
CONTINUOUS
 62
    7
 10
6.1048876078068588
 20
-22.035196639369474
 11
3.1503739816792091
 21
-23.151346231462142
  0
LINE
  8
_0-0_
  6
CONTINUOUS
 62
    7
 10
1.7551869915633773
 20
-22.41271782493024
 11
1.8044288853321717
 21
-23.184174160641334
  0
LINE
  8
_0-0_
  6
CONTINUOUS
 62
    7
 10
1.9521545666385549
 20
-21.132428586941586
 11
2.0013964604073493
 21
-22.215750249855063
  0
LINE
  8
_0-0_
  6
CONTINUOUS
 62
    7
 10
1.9685685312281436
 20
-20.590767755484848
 11
1.9685685312281436
 21
-20.820563259739231
  0
LINE
  8
_0-0_
  6
CONTINUOUS
 62
    7
 10
1.9193266374593492
 20
-23.052862443924553
 11
3.1667879462687978
 21
-23.151346231462142
  0
LINE
  8
_0-0_
  6
CONTINUOUS
 62
    7
 10
3.232443804627195
 20
-23.233416054410128
 11
3.1832019108584007
 21
-24.13618410683803
  0
LINE
  8
_0-0_
  6
CONTINUOUS
 62
    7
 10
3.1832019108584007
 20
-24.13618410683803
 11
4.5948028655638211
 21
-24.05411428389003
  0
LINE
  8
_0-0_
  6
CONTINUOUS
 62
    7
 10
4.5948028655638211
 20
-24.05411428389003
 11
3.7576906714943306
 21
-23.151346231462142
  0
LINE
  8
_0-0_
  6
CONTINUOUS
 62
    7
 10
5.8258502097836811
 20
-21.641261489219133
 11
5.3498452366853542
 21
-21.263740303658366
  0
ARC
  8
_0-0_
  6
CONTINUOUS
 62
    7
 10
5.7593071100961595
 20
-21.927840438540215
 40
0.3618718478335604
 50
342.74234816511478
 51
76.747414428776324
  0
ARC
  8
_0-0_
  6
CONTINUOUS
 62
    7
 10
5.7495953843410348
 20
-20.481190107458332
 40
0.5385989373624768
 50
327.40632781172195
 51
80.092661174013656
  0
ARC
  8
_0-0_
  6
CONTINUOUS
 62
    7
 10
5.8488686098294522
 20
-19.083159676537889
 40
0.4997924408938721
 50
305.30534553047426
 51
59.186139601312803
  0
ARC
  8
_0-0_
  6
CONTINUOUS
 62
    7
 10
5.9925815342990916
 20
-17.711412809320109
 40
0.516478626948358
 50
309.09385888622819
 51
57.639062440632173
  0
ARC
  8
_0-0_
  6
CONTINUOUS
 62
    7
 10
6.3397991529722617
 20
-16.443950136619947
 40
0.3999926594559583
 50
320.07518708298625
 51
66.573875440795121
  0
ARC
  8
_0-0_
  6
CONTINUOUS
 62
    7
 10
6.3630640860762355
 20
-15.162481664348277
 40
0.4542995587036038
 50
341.65444959280347
 51
61.348419055295707
  0
ARC
  8
_0-0_
  6
CONTINUOUS
 62
    7
 10
6.6690739864131388
 20
-13.732175190056864
 40
0.3150979002884495
 50
280.89272245569356
 51
63.292952138387982
  0
ARC
  8
_0-0_
  6
CONTINUOUS
 62
    7
 10
6.7389782751224914
 20
-12.325271644747602
 40
0.4346586947944632
 50
305.47666032328715
 51
73.843125833598677
  0
ARC
  8
_0-0_
  6
CONTINUOUS
 62
    7
 10
7.038525578409633
 20
-10.951923952396456
 40
0.3934342585407745
 50
297.63863906902805
 51
82.522556906058156
  0
ARC
  8
_0-0_
  6
CONTINUOUS
 62
    7
 10
6.9934014278279903
 20
-9.6168229773161755
 40
0.523610779737706
 50
334.81749243825902
 51
55.935010059394806
  0
ARC
  8
_0-0_
  6
CONTINUOUS
 62
    7
 10
7.1391419935960982
 20
-8.0545149918570758
 40
0.5669953294026856
 50
318.79581561265235
 51
35.87818285521621
  0
ARC
  8
_0-0_
  6
CONTINUOUS
 62
    7
 10
7.4525555439485629
 20
-6.6962840816703135
 40
0.3748688966099817
 50
279.81966352694189
 51
58.611740737936323
  0
ARC
  8
_0-0_
  6
CONTINUOUS
 62
    7
 10
7.5913251129292121
 20
-5.3024812035251614
 40
0.4072288363296664
 50
308.48864428899259
 51
48.496484193464454
  0
LINE
  8
_0-0_
  6
CONTINUOUS
 62
    7
 10
7.8611818188938116
 20
-4.9975013953667258
 11
5.4155010950437088
 21
-3.7828680157364687
  0
LINE
  8
_0-0_
  6
CONTINUOUS
 62
    7
 10
11.93184503711413
 20
2.7827178201027465
 11
19.51509667750841
 21
5.0478449334672746
  0
LINE
  8
_0-0_
  6
CONTINUOUS
 62
    7
 10
19.51509667750841
 20
5.0478449334672746
 11
20.089585438144326
 21
4.9329471813400971
  0
LINE
  8
_0-0_
  6
CONTINUOUS
 62
    7
 10
20.089585438144326
 20
4.9329471813400971
 11
20.368622836167503
 21
4.6374958187273307
  0
LINE
  8
_0-0_
  6
CONTINUOUS
 62
    7
 10
20.368622836167503
 20
4.6374958187273307
 11
20.30296697780912
 21
3.9316953413746063
  0
LINE
  8
_0-0_
  6
CONTINUOUS
 62
    7
 10
20.30296697780912
 20
3.9316953413746063
 11
19.826962004710765
 21
0.1236555565878774
  0
LINE
  8
_0-0_
  6
CONTINUOUS
 62
    7
 10
11.012663020096625
 20
1.6009123696516951
 11
10.290448578154326
 21
-5.6376460143610387
  0
LINE
  8
_0-0_
  6
CONTINUOUS
 62
    7
 10
11.04549094927583
 20
2.4708524929003914
 11
7.9268376772522231
 21
3.5213462266346625
  0
LINE
  8
_0-0_
  6
CONTINUOUS
 62
    7
 10
10.553072011587886
 20
-0.9104242125568049
 11
6.9419998018763351
 21
0.3042091670734521
  0
LINE
  8
_0-0_
  6
CONTINUOUS
 62
    7
 10
5.3334312720957371
 20
-0.9104242125568049
 11
9.4040944903160266
 21
-2.518992742337403
  0
LINE
  8
_0-0_
  6
CONTINUOUS
 62
    7
 10
9.699545852928793
 20
-2.5846486006958003
 11
10.487416153229503
 21
-2.2563693089038424
  0
LINE
  8
_0-0_
  6
CONTINUOUS
 62
    7
 10
9.9949972155415594
 20
-4.718463997343548
 11
5.9571619265004472
 21
-2.9457558216669497
  0
ARC
  8
_0-0_
  6
CONTINUOUS
 62
    7
 10
8.5470605944817635
 20
4.232581259539117
 40
0.636718298210678
 50
9.8993416161870798
 51
84.785087288830354
  0
ARC
  8
_0-0_
  6
CONTINUOUS
 62
    7
 10
8.3983522193557008
 20
2.8413747455633711
 40
0.5303666107468337
 50
357.20857600758666
 51
60.423396878294945
  0
ARC
  8
_0-0_
  6
CONTINUOUS
 62
    7
 10
9.2814865234363992
 20
7.5075053481587304
 40
0.355498466606116
 50
352.43403442844578
 51
64.782328216718383
  0
ARC
  8
_0-0_
  6
CONTINUOUS
 62
    7
 10
9.4820638086622466
 20
10.746665903655028
 40
0.3891830277367177
 50
339.78387681416842
 51
66.804108948461561
  0
ARC
  8
_0-0_
  6
CONTINUOUS
 62
    7
 10
9.5674542584367543
 20
12.310002786019496
 40
0.5101589169155921
 50
357.34860528657288
 51
82.351545217649928
  0
ARC
  8
_0-0_
  6
CONTINUOUS
 62
    7
 10
10.019956714724714
 20
14.273328431404181
 40
0.33738945985213
 50
303.95008442302753
 51
48.715486554400542
  0
ARC
  8
_0-0_
  6
CONTINUOUS
 62
    7
 10
9.9380301239556559
 20
15.499711702526866
 40
0.5700506410525794
 50
7.0012997901251497
 51
70.089322119819258
  0
ARC
  8
_0-0_
  6
CONTINUOUS
 62
    7
 10
10.295818505554905
 20
17.560969520776993
 40
0.4318403423007501
 50
329.51700320814058
 51
58.947575159792798
  0
LINE
  8
_0-0_
  6
CONTINUOUS
 62
    7
 10
10.700797692894298
 20
19.278752232648756
 11
8.4761304795054002
 21
19.844563547036685
  0
LINE
  8
_0-0_
  6
CONTINUOUS
 62
    7
 10
10.930593197148653
 20
20.903734727018957
 11
9.0833426217753583
 21
21.334993350790242
  0
LINE
  8
_0-0_
  6
CONTINUOUS
 62
    7
 10
10.51857132168621
 20
17.930925280488893
 11
9.3041470371462651
 21
18.317333007387973
  0
LINE
  8
_0-0_
  6
CONTINUOUS
 62
    7
 10
10.13216359478713
 20
16.035687381888707
 11
9.1017429897229363
 21
16.495696580578056
  0
LINE
  8
_0-0_
  6
CONTINUOUS
 62
    7
 10
10.242565802472569
 20
14.526857210187544
 11
9.3225474050938431
 21
14.913264937086623
  0
LINE
  8
_0-0_
  6
CONTINUOUS
 62
    7
 10
9.6353536602026111
 20
12.815622991063094
 11
8.696934894876307
 21
13.165229982067004
  0
LINE
  8
_0-0_
  6
CONTINUOUS
 62
    7
 10
9.6353536602026111
 20
11.10438877193863
 11
8.7153352628238849
 21
11.527597234732852
  0
ARC
  8
_0-0_
  6
CONTINUOUS
 62
    7
 10
12.205155173741161
 20
22.184587214191524
 40
0.7264749970919861
 50
164.57943371337282
 51
234.00065872500738
  0
ARC
  8
_0-0_
  6
CONTINUOUS
 62
    7
 10
13.154448620741363
 20
22.487786216298872
 40
1.1810926697535848
 50
179.6551688991818
 51
200.95452403835549
  0
ARC
  8
_0-0_
  6
CONTINUOUS
 62
    7
 10
16.708457868500574
 20
21.538320647402898
 40
0.9960256253561978
 50
44.513481941671863
 51
88.363153211659281
  0
ARC
  8
_0-0_
  6
CONTINUOUS
 62
    7
 10
16.899017118640955
 20
21.899434718079533
 40
0.619490166964294
 50
357.29225297177408
 51
32.975536160288094
  0
ARC
  8
_0-0_
  6
CONTINUOUS
 62
    7
 10
16.390816146008603
 20
14.928950931410554
 40
0.6726441687441613
 50
225.21303878856503
 51
269.54723131535155
  0
ARC
  8
_0-0_
  6
CONTINUOUS
 62
    7
 10
16.051919695325836
 20
15.427574248809194
 40
1.2178237372244427
 50
239.37116764645248
 51
285.89740864306327
  0
LINE
  8
_0-0_
  6
CONTINUOUS
 62
    7
 10
15.431469563688694
 20
14.379654266606948
 11
13.775436448406964
 21
15.078868248614796
  0
LINE
  8
_0-0_
  6
CONTINUOUS
 62
    7
 10
16.736908822502357
 20
22.533939846485865
 11
12.101002965177628
 21
23.69024044807982
  0
ARC
  8
_0-0_
  6
CONTINUOUS
 62
    7
 10
11.769666762065299
 20
26.646350264897023
 40
0.450505895117626
 50
52.197286466357717
 51
119.32992393552126
  0
ARC
  8
_0-0_
  6
CONTINUOUS
 62
    7
 10
11.76376699877963
 20
26.540874891549677
 40
0.540798444743492
 50
344.83788596526978
 51
58.56602542276817
  0
ARC
  8
_0-0_
  6
CONTINUOUS
 62
    7
 10
13.368794694709749
 20
10.865869617579804
 40
16.275297322975216
 50
96.419883516779038
 51
107.63067570249142
  0
ARC
  8
_0-0_
  6
CONTINUOUS
 62
    7
 10
11.061382176139745
 20
20.350573665594879
 40
6.5718556948226334
 50
113.51455668293708
 51
136.1344216309769
  0
ARC
  8
_0-0_
  6
CONTINUOUS
 62
    7
 10
11.618376647551372
 20
20.521543751108666
 40
6.8738431291536859
 50
140.38303037976905
 51
159.43759714267802
  0
ARC
  8
_0-0_
  6
CONTINUOUS
 62
    7
 10
7.3261074827815946
 20
22.411414875723381
 40
2.2068554766561963
 50
166.2534192791677
 51
193.74658072083267
  0
ARC
  8
_0-0_
  6
CONTINUOUS
 62
    7
 10
4.9130306576576572
 20
31.803488400957391
 40
9.9201436387524335
 50
271.55636126831013
 51
276.24462621645296
  0
ARC
  8
_0-0_
  6
CONTINUOUS
 62
    7
 10
6.0344016528622433
 20
21.771082071147788
 40
0.1762789821754939
 50
306.51105611947986
 51
103.8911911714703
  0
ARC
  8
_0-0_
  6
CONTINUOUS
 62
    7
 10
5.5475954794508198
 20
26.351993135267506
 40
4.7595155350797684
 50
262.25486470033508
 51
277.14130999391
  0
ARC
  8
_0-0_
  6
CONTINUOUS
 62
    7
 10
8.1249110851248076
 20
22.219633721135693
 40
2.7174403450315734
 50
134.17415170135115
 51
185.85963525484914
  0
ARC
  8
_0-0_
  6
CONTINUOUS
 62
    7
 10
13.540482042482864
 20
17.821437710973001
 40
9.6804677991938188
 50
126.67545822321325
 51
139.02937092018951
  0
ARC
  8
_0-0_
  6
CONTINUOUS
 62
    7
 10
7.9021088743560028
 20
25.464478458720933
 40
0.1877760614323697
 50
334.30901911624022
 51
139.88049503778711
  0
ARC
  8
_0-0_
  6
CONTINUOUS
 62
    7
 10
-3.3621798114623545
 20
25.193888906969008
 40
11.435067274894411
 50
345.39354853400243
 51
0.9479628596012696
  0
ARC
  8
_0-0_
  6
CONTINUOUS
 62
    7
 10
4.4003585596183541
 20
23.487226069042009
 40
3.5064057851227748
 50
310.00557395434663
 51
340.38640254022692
  0
ARC
  8
_0-0_
  6
CONTINUOUS
 62
    7
 10
4.8436440484755394
 20
23.051938028932895
 40
2.888628933420812
 50
292.23843440824265
 51
308.82097739162504
  0
LINE
  8
_0-0_
  6
CONTINUOUS
 62
    7
 10
5.9368797027400433
 20
20.378174217516346
 11
5.9184793347924654
 21
20.838183416205723
  0
LINE
  8
_0-0_
  6
CONTINUOUS
 62
    7
 10
5.9184793347924654
 20
20.838183416205723
 11
4.4648502669340644
 21
20.911784887996021
  0
ARC
  8
_0-0_
  6
CONTINUOUS
 62
    7
 10
9.1068490967492153
 20
25.664231882128561
 40
0.4918375742226435
 50
88.451119100311843
 51
147.16949228977742
  0
ARC
  8
_0-0_
  6
CONTINUOUS
 62
    7
 10
11.661316560937763
 20
17.167447326843458
 40
9.3407525659510195
 50
93.852174152048889
 51
105.78642712546686
  0
ARC
  8
_0-0_
  6
CONTINUOUS
 62
    7
 10
10.673087408696745
 20
21.042806286648045
 40
5.4562253339957758
 50
77.055866975656059
 51
86.209588679519328
  0
ARC
  8
_0-0_
  6
CONTINUOUS
 62
    7
 10
-16.135404233360404
 20
26.841342850340126
 40
0.5658358914562899
 50
164.11542600882123
 51
220.0147219489584
  0
ARC
  8
_0-0_
  6
CONTINUOUS
 62
    7
 10
-12.246940032576177
 20
26.126244373116521
 40
4.5172577222407702
 50
140.46445961601674
 51
168.89616656336401
  0
ARC
  8
_0-0_
  6
CONTINUOUS
 62
    7
 10
-12.615804822829261
 20
26.165573192264191
 40
4.2127082903763915
 50
106.79536271568287
 51
137.68240695925709
  0
ARC
  8
_0-0_
  6
CONTINUOUS
 62
    7
 10
-12.107904064242817
 20
24.717760358197012
 40
5.7459227326596602
 50
87.311085622410587
 51
107.47228159749569
  0
ARC
  8
_0-0_
  6
CONTINUOUS
 62
    7
 10
-11.781982086526469
 20
27.788717308758692
 40
2.6692344807430106
 50
78.401218365881888
 51
91.209923818647056
  0
ARC
  8
_0-0_
  6
CONTINUOUS
 62
    7
 10
-11.15886218541074
 20
28.591998805784144
 40
1.8135077239516686
 50
80.775359524330852
 51
92.732371751760326
  0
LINE
  8
_0-0_
  6
CONTINUOUS
 62
    7
 10
-14.329074595086382
 20
28.462616134864831
 11
-10.274899257236001
 21
27.68628468719136
  0
LINE
  8
_0-0_
  6
CONTINUOUS
 62
    7
 10
-9.0672725608550309
 20
27.60002563744986
 11
4.5616572983015544
 21
24.839736045721949
  0
ARC
  8
_0-0_
  6
CONTINUOUS
 62
    7
 10
12.634054545059769
 20
1.2881924709682266
 40
1.6512735122489384
 50
115.16669743823377
 51
169.08333525956846
  0
ARC
  8
_0-0_
  6
CONTINUOUS
 62
    7
 10
10.973387798656233
 20
-5.6023195056612565
 40
0.6838522801867892
 50
182.96110902227525
 51
292.71766957276901
  0
LINE
  8
_0-0_
  6
CONTINUOUS
 62
    7
 10
11.237485071501254
 20
-6.2331178661477793
 11
12.552798224884356
 21
-5.6972495443991136
  0
LINE
  8
_0-0_
  6
CONTINUOUS
 62
    7
 10
11.846426346215651
 20
-5.9408260542848694
 11
10.823405004695474
 21
-7.1587086037136487
  0
LINE
  8
_0-0_
  6
CONTINUOUS
 62
    7
 10
10.823405004695474
 20
-7.1587086037136487
 11
9.2158000394494763
 21
-22.041233357733404
  0
LINE
  8
_0-0_
  6
CONTINUOUS
 62
    7
 10
10.09267547503822
 20
-13.832704974583393
 11
11.67592278929564
 21
-14.612149806217815
  0
LINE
  8
_0-0_
  6
CONTINUOUS
 62
    7
 10
3.1751025942826914
 20
-28.569083822671701
 11
7.8761292350777978
 21
-32.003512612060874
  0
LINE
  8
_0-0_
  6
CONTINUOUS
 62
    7
 10
7.8761292350777978
 20
-32.003512612060874
 11
8.7286470196779646
 21
-31.930439659095143
  0
LINE
  8
_0-0_
  6
CONTINUOUS
 62
    7
 10
8.7286470196779646
 20
-31.930439659095143
 11
9.410661247358064
 21
-32.441950329855239
  0
LINE
  8
_0-0_
  6
CONTINUOUS
 62
    7
 10
9.410661247358064
 20
-32.441950329855239
 11
9.9221719181181527
 21
-32.295804423923784
  0
LINE
  8
_0-0_
  6
CONTINUOUS
 62
    7
 10
9.9221719181181527
 20
-32.295804423923784
 11
16.133372920204977
 21
-29.324171003317545
  0
LINE
  8
_0-0_
  6
CONTINUOUS
 62
    7
 10
8.4607128588036176
 20
-31.150994827460721
 11
9.3132306434037844
 21
-31.833009055140842
  0
LINE
  8
_0-0_
  6
CONTINUOUS
 62
    7
 10
9.3132306434037844
 20
-31.833009055140842
 11
9.581164804278103
 21
-31.686863149209387
  0
LINE
  8
_0-0_
  6
CONTINUOUS
 62
    7
 10
5.5865100421517013
 20
-27.546062481151523
 11
8.1197057449635679
 21
-29.056236842443212
  0
LINE
  8
_0-0_
  6
CONTINUOUS
 62
    7
 10
8.3876399058378865
 20
-29.786966372100487
 11
8.3632822548493095
 21
-31.321498384380753
  0
LINE
  8
_0-0_
  6
CONTINUOUS
 62
    7
 10
7.7786986311235182
 20
-29.543389862214731
 11
7.7299833291463642
 21
-31.63814784723224
  0
LINE
  8
_0-0_
  6
CONTINUOUS
 62
    7
 10
7.4620491682720171
 20
-29.251098050351821
 11
5.1237146733687382
 21
-27.862711944003003
  0
LINE
  8
_0-0_
  6
CONTINUOUS
 62
    7
 10
9.581164804278103
 20
-31.686863149209387
 11
12.723301781804366
 21
-6.866416791850753
  0
LINE
  8
_0-0_
  6
CONTINUOUS
 62
    7
 10
13.039951244655839
 20
-6.817701489873599
 11
10.368728852908731
 21
-31.410809771338876
  0
LINE
  8
_0-0_
  6
CONTINUOUS
 62
    7
 10
16.133372920204977
 20
-29.324171003317545
 11
19.96564334240756
 21
-1.4427798383945856
  0
ARC
  8
_0-0_
  6
CONTINUOUS
 62
    7
 10
20.332621328601562
 20
-4.1920144287697951
 40
6.7516074982573322
 50
133.95684672741308
 51
175.68209633177733
  0
ARC
  8
_0-0_
  6
CONTINUOUS
 62
    7
 10
17.98341084364705
 20
-1.2147556314872929
 40
3.0013406765294328
 50
95.566792471769148
 51
141.14313109887925
  0
ARC
  8
_0-0_
  6
CONTINUOUS
 62
    7
 10
17.793653781084743
 20
-0.2229169921375131
 40
1.997921460297629
 50
22.396197787596144
 51
92.908915213519037
  0
ARC
  8
_0-0_
  6
CONTINUOUS
 62
    7
 10
11.44005439681186
 20
-1.8232525133300328
 40
8.5340744270035582
 50
2.5552515006303325
 51
16.064628849342633
  0
ARC
  8
_0-0_
  6
CONTINUOUS
 62
    7
 10
17.336408901412057
 20
-0.1253788863556479
 40
2.1669516525741042
 50
53.212293391589071
 51
101.27264228665696
  0
ARC
  8
_0-0_
  6
CONTINUOUS
 62
    7
 10
9.2390916810506951
 20
-31.352769527459998
 40
1.1311272297813992
 50
303.40396575259302
 51
357.05875525588675
  0
ARC
  8
_0-0_
  6
CONTINUOUS
 62
    7
 10
7.4165672619030545
 20
-29.618034480560908
 40
0.3697444355518314
 50
11.647014668710057
 51
82.934205416572411
  0
ARC
  8
_0-0_
  6
CONTINUOUS
 62
    7
 10
7.3561477853748443
 20
-29.750694121947987
 40
1.0321296772733939
 50
357.986033231428
 51
42.286573625066062
  0
LINE
  8
_0-0_
  6
CONTINUOUS
 62
    7
 10
7.8852827472327363
 20
-29.392744772342724
 11
8.0869703031891049
 21
-29.325515587023936
  0
LINE
  8
_0-0_
  6
CONTINUOUS
 62
    7
 10
7.7239327024676641
 20
-28.222956947795836
 11
9.7408082620312655
 21
-29.648215676554109
  0
LINE
  8
_0-0_
  6
CONTINUOUS
 62
    7
 10
9.9021583067963377
 20
-28.881802963919945
 11
8.3962245556555217
 21
-27.873365184138144
  0
LINE
  8
_0-0_
  6
CONTINUOUS
 62
    7
 10
10.72235436768554
 20
-21.553821764172227
 11
6.3390114849006522
 21
-23.51691397548079
  0
LINE
  8
_0-0_
  6
CONTINUOUS
 62
    7
 10
6.3390114849006522
 20
-23.51691397548079
 11
6.0163113953704794
 21
-27.066614960312705
  0
LINE
  8
_0-0_
  6
CONTINUOUS
 62
    7
 10
6.0163113953704794
 20
-27.066614960312705
 11
3.1751025942826914
 21
-28.569083822671701
  0
LINE
  8
_0-0_
  6
CONTINUOUS
 62
    7
 10
3.1751025942826914
 20
-28.569083822671701
 11
1.3102684230554331
 21
-28.545657037326009
  0
LINE
  8
_0-0_
  6
CONTINUOUS
 62
    7
 10
1.3102684230554331
 20
-28.545657037326009
 11
0.6648682439950874
 21
-27.658231791118027
  0
LINE
  8
_0-0_
  6
CONTINUOUS
 62
    7
 10
0.6648682439950874
 20
-27.658231791118027
 11
0.6917599181225995
 21
-26.501889803634896
  0
LINE
  8
_0-0_
  6
CONTINUOUS
 62
    7
 10
0.6917599181225995
 20
-26.501889803634896
 11
1.3909434454379834
 21
-26.313648084742297
  0
LINE
  8
_0-0_
  6
CONTINUOUS
 62
    7
 10
1.5254018160755436
 20
-24.592580940581371
 11
2.8699855224512731
 21
-25.345547816151779
  0
LINE
  8
_0-0_
  6
CONTINUOUS
 62
    7
 10
2.8699855224512731
 20
-25.345547816151779
 11
4.8599694078873483
 21
-25.103522749004142
  0
LINE
  8
_0-0_
  6
CONTINUOUS
 62
    7
 10
4.8599694078873483
 20
-25.103522749004142
 11
4.5372693183571755
 21
-24.753930985346457
  0
LINE
  8
_0-0_
  6
CONTINUOUS
 62
    7
 10
4.5372693183571755
 20
-24.753930985346457
 11
4.5948028655638211
 21
-24.05411428389003
  0
LINE
  8
_0-0_
  6
CONTINUOUS
 62
    7
 10
1.659860186713118
 20
-23.974072435648537
 11
2.4935020846660763
 21
-24.135422480413624
  0
LINE
  8
_0-0_
  6
CONTINUOUS
 62
    7
 10
2.4935020846660763
 20
-24.135422480413624
 11
2.8968771965787994
 21
-24.915281030111544
  0
LINE
  8
_0-0_
  6
CONTINUOUS
 62
    7
 10
2.8968771965787994
 20
-24.915281030111544
 11
4.4297026218471274
 21
-24.86149768185652
  0
LINE
  8
_0-0_
  6
CONTINUOUS
 62
    7
 10
6.0163113953704794
 20
-23.328672256588177
 11
5.101994475034985
 21
-22.87151379642043
  0
LINE
  8
_0-0_
  6
CONTINUOUS
 62
    7
 10
8.6248037857394024
 20
-21.849630179574874
 11
6.4196865072832168
 21
-20.854638236856843
  0
LINE
  8
_0-0_
  6
CONTINUOUS
 62
    7
 10
8.7861538305044746
 20
-22.925297144675469
 11
8.4903454151018138
 21
-25.237981119641717
  0
LINE
  8
_0-0_
  6
CONTINUOUS
 62
    7
 10
8.4903454151018138
 20
-25.237981119641717
 11
9.9156041438600937
 21
-27.362423375715366
  0
LINE
  8
_0-0_
  6
CONTINUOUS
 62
    7
 10
1.3102684230554331
 20
-28.545657037326009
 11
-17.278901065549036
 21
-15.866204138778116
  0
LINE
  8
_0-0_
  6
CONTINUOUS
 62
    7
 10
-0.0688005724349807
 20
-27.233217731234333
 11
-15.633998450657955
 21
-16.897337121247148
  0
LINE
  8
_0-0_
  6
CONTINUOUS
 62
    7
 10
0.3731135629088839
 20
-26.34938946054659
 11
-17.229799494955273
 21
-14.736868015121559
  0
LINE
  8
_0-0_
  6
CONTINUOUS
 62
    7
 10
-16.566928291939462
 20
-14.098547597402643
 11
1.3909434454379834
 21
-26.313648084742297
  0
LINE
  8
_0-0_
  6
CONTINUOUS
 62
    7
 10
2.8699855224512731
 20
-25.345547816151779
 11
2.852742877893931
 21
-27.871538148953256
  0
LINE
  8
_0-0_
  6
CONTINUOUS
 62
    7
 10
2.65633659551888
 20
-27.994292075437663
 11
0.9132308394402883
 21
-27.085913019453045
  0
LINE
  8
_0-0_
  6
CONTINUOUS
 62
    7
 10
1.0359847659246952
 20
-22.789525592498748
 11
5.0623135546132971
 21
19.486926688731486
  0
LINE
  8
_0-0_
  6
CONTINUOUS
 62
    7
 10
3.5647156515035192
 20
21.107278518325685
 11
-4.266984858201738
 21
22.89948584499804
  0
LINE
  8
_0-0_
  6
CONTINUOUS
 62
    7
 10
-7.6304424438745286
 20
23.464153906826326
 11
-14.381908400516991
 21
25.280912018795561
  0
LINE
  8
_0-0_
  6
CONTINUOUS
 62
    7
 10
-6.1082937554678551
 20
21.205481659513211
 11
-8.4651691439685095
 21
-17.977571674309942
  0
LINE
  8
_0-0_
  6
CONTINUOUS
 62
    7
 10
-7.7040947997651728
 20
-19.818880571576074
 11
-1.0508319843102356
 21
-23.894310930858424
  0
LINE
  8
_0-0_
  6
CONTINUOUS
 62
    7
 10
-7.8759502968433424
 20
-18.984153871482093
 11
-0.9035272725289473
 21
-23.305092083733271
  0
LINE
  8
_0-0_
  6
CONTINUOUS
 62
    7
 10
0.0785041393463217
 20
-22.814076377795629
 11
3.9575282162536212
 21
18.848606271012571
  0
LINE
  8
_0-0_
  6
CONTINUOUS
 62
    7
 10
2.9509460190814707
 20
20.37075495941923
 11
-4.0951293611235684
 21
21.917454433122771
  0
LINE
  8
_0-0_
  6
CONTINUOUS
 62
    7
 10
-5.1017115582957189
 20
20.665364382981807
 11
-8.1460089351090375
 21
-17.830266962528654
  0
LINE
  8
_0-0_
  6
CONTINUOUS
 62
    7
 10
-7.2376298791244267
 20
-18.566790521435109
 11
-3.0394455933576552
 21
-21.095521407013919
  0
LINE
  8
_0-0_
  6
CONTINUOUS
 62
    7
 10
-2.0083126108886233
 20
-20.457200989294989
 11
1.0850863365184722
 21
17.694719362059132
  0
LINE
  8
_0-0_
  6
CONTINUOUS
 62
    7
 10
2.116219318987504
 20
17.817473288543539
 11
-1.3454414078728121
 21
-20.604505701076278
  0
LINE
  8
_0-0_
  6
CONTINUOUS
 62
    7
 10
-5.0771607729988375
 20
19.609680615215893
 11
0.4222151335026609
 21
18.136633497402997
  0
LINE
  8
_0-0_
  6
CONTINUOUS
 62
    7
 10
-4.1442309317173311
 20
20.19889946234106
 11
1.3060434041904045
 21
18.701301559231283
  0
LINE
  8
_0-0_
  6
CONTINUOUS
 62
    7
 10
-6.6484110319992595
 20
21.352786371294499
 11
-8.7352277822342046
 21
-15.915305709371879
  0
LINE
  8
_0-0_
  6
CONTINUOUS
 62
    7
 10
-9.5208529117344085
 20
-15.964407279965641
 11
-7.6058916585776473
 21
21.18093087421633
  0
LINE
  8
_0-0_
  6
CONTINUOUS
 62
    7
 10
-8.4160675733747325
 20
22.973138200888684
 11
-14.406459185813873
 21
24.274329821623411
  0
LINE
  8
_0-0_
  6
CONTINUOUS
 62
    7
 10
-15.118431959423432
 20
22.678528777326108
 11
-16.149564941892464
 21
-12.797355976667916
  0
LINE
  8
_0-0_
  6
CONTINUOUS
 62
    7
 10
-16.787885359611394
 20
-13.018313044339848
 11
-15.977709444814295
 21
22.752181133216752
  0
LINE
  8
_0-0_
  6
CONTINUOUS
 62
    7
 10
-14.995678032939026
 20
22.113860715497822
 11
-10.748392176578506
 21
21.156380088919448
  0
LINE
  8
_0-0_
  6
CONTINUOUS
 62
    7
 10
-14.062748191657519
 20
22.948587415591803
 11
-9.5454036970313041
 21
21.966556003716533
  0
LINE
  8
_0-0_
  6
CONTINUOUS
 62
    7
 10
-9.6436068382188296
 20
20.616262812388044
 11
-11.681322017859998
 21
-14.76141880041844
  0
LINE
  8
_0-0_
  6
CONTINUOUS
 62
    7
 10
-10.674739820687847
 20
-14.76141880041844
 11
-8.7352277822342046
 21
20.812669094763095
  0
LINE
  8
_0-0_
  6
CONTINUOUS
 62
    7
 10
-12.71245500032903
 20
-14.957825082793491
 11
-16.026811015408057
 21
-12.944660688449204
  0
LINE
  8
_0-0_
  6
CONTINUOUS
 62
    7
 10
-10.625638250094084
 20
-17.339251256591012
 11
-16.493275936048803
 21
-13.607531891465001
  0
LINE
  8
_0-0_
  6
CONTINUOUS
 62
    7
 10
-10.822044532469135
 20
-17.388352827184775
 11
-16.493275936048803
 21
-13.607531891465001
  0
ARC
  8
_0-0_
  6
CONTINUOUS
 62
    7
 10
-13.173776600027708
 20
22.750603848127852
 40
2.8039332884184827
 50
115.52280930774498
 51
179.96776963852091
  0
ARC
  8
_0-0_
  6
CONTINUOUS
 62
    7
 10
-14.004505371219182
 20
23.164582090490981
 40
1.117799169780473
 50
108.4010810689162
 51
167.05154091889708
  0
ARC
  8
_0-0_
  6
CONTINUOUS
 62
    7
 10
-14.413824421402921
 20
23.023712818600274
 40
0.7846169797969552
 50
150.08167085899035
 51
206.10002427501786
  0
ARC
  8
_0-0_
  6
CONTINUOUS
 62
    7
 10
-14.160951332845059
 20
22.003382181661863
 40
0.9464797401335839
 50
87.026268917519062
 51
146.10383343663574
  0
ARC
  8
_0-0_
  6
CONTINUOUS
 62
    7
 10
-9.6127067118968768
 20
21.095003125677238
 40
0.8306480485950807
 50
355.7625267733502
 51
81.944221907358113
  0
ARC
  8
_0-0_
  6
CONTINUOUS
 62
    7
 10
-10.468513224194069
 20
20.439497158250489
 40
0.7540728842569205
 50
15.484169713915763
 51
79.494936130081058
  0
ARC
  8
_0-0_
  6
CONTINUOUS
 62
    7
 10
-9.2189898470614082
 20
21.622845009560194
 40
1.6466415739925859
 50
354.00928609117796
 51
48.200391078680923
  0
ARC
  8
_0-0_
  6
CONTINUOUS
 62
    7
 10
-8.8638525486809385
 20
21.900909338683576
 40
2.1909053580549642
 50
351.41195174252385
 51
41.10845767409949
  0
ARC
  8
_0-0_
  6
CONTINUOUS
 62
    7
 10
-3.1499241271930458
 20
19.904290038777816
 40
3.4091353418425805
 50
116.74957800934307
 51
147.79780000284384
  0
ARC
  8
_0-0_
  6
CONTINUOUS
 62
    7
 10
-3.8957045395726908
 20
20.727143818114143
 40
1.2269563009357916
 50
104.03852262698065
 51
164.34761846281404
  0
ARC
  8
_0-0_
  6
CONTINUOUS
 62
    7
 10
-4.4025987198416487
 20
19.261293281002935
 40
0.9660385111093314
 50
84.862069596536898
 51
119.66747785924721
  0
ARC
  8
_0-0_
  6
CONTINUOUS
 62
    7
 10
1.167046281373004
 20
17.534891269898935
 40
4.3024143293253463
 50
25.886392722761315
 51
56.131781080379263
  0
ARC
  8
_0-0_
  6
CONTINUOUS
 62
    7
 10
2.3214753030393354
 20
18.860596189413371
 40
1.6360968470662733
 50
359.58011173273883
 51
67.372444859466725
  0
ARC
  8
_0-0_
  6
CONTINUOUS
 62
    7
 10
1.1295115670556015
 20
17.432844318892293
 40
1.2525724367473603
 50
25.129966479486722
 51
69.112226313836672
  0
ARC
  8
_0-0_
  6
CONTINUOUS
 62
    7
 10
0.6462410493366945
 20
17.707433161587858
 40
0.4472631204152361
 50
324.7365250758283
 51
106.33883050812069
  0
ARC
  8
_0-0_
  6
CONTINUOUS
 62
    7
 10
-2.9114307843096157
 20
-20.150316173083993
 40
0.9538347475239794
 50
262.28702023646798
 51
341.23193993315783
  0
ARC
  8
_0-0_
  6
CONTINUOUS
 62
    7
 10
-2.4445381496393139
 20
-20.468278782660647
 40
1.1075068492170905
 50
285.12198667804296
 51
352.93454065492699
  0
ARC
  8
_0-0_
  6
CONTINUOUS
 62
    7
 10
-0.7071209901539248
 20
-22.470365383639233
 40
0.8575220647926505
 50
256.75948008481572
 51
336.37062226934086
  0
ARC
  8
_0-0_
  6
CONTINUOUS
 62
    7
 10
-0.593262275733565
 20
-22.361932748578056
 40
1.6853758673409605
 50
265.28934669434392
 51
337.36803904126401
  0
ARC
  8
_0-0_
  6
CONTINUOUS
 62
    7
 10
-6.2352736367984249
 20
-17.025256103654655
 40
1.9203951028232085
 50
196.93866774700945
 51
235.92304849331543
  0
ARC
  8
_0-0_
  6
CONTINUOUS
 62
    7
 10
-6.6997444921654363
 20
-18.100325600794349
 40
1.4712622155907134
 50
169.42305893046043
 51
216.92204791619307
  0
ARC
  8
_0-0_
  6
CONTINUOUS
 62
    7
 10
-6.9191157435622159
 20
-18.349063820249583
 40
1.5793089627997767
 50
168.22119404614418
 51
228.08421772715852
  0
LINE
  8
_0-0_
  6
CONTINUOUS
 62
    7
 10
-2.4256759609356067
 20
-21.439232401170258
 11
-3.6041136551859267
 21
-20.874564339341973
  0
LINE
  8
_0-0_
  6
CONTINUOUS
 62
    7
 10
-2.3520236050449626
 20
-21.095521407013919
 11
-2.1065157520761488
 21
-21.414681615873377
  0
ARC
  8
_0-0_
  6
CONTINUOUS
 62
    7
 10
-10.711379442514001
 20
-15.968735381932817
 40
2.0029035919696949
 50
299.7581199989686
 51
357.31359273929996
  0
ARC
  8
_0-0_
  6
CONTINUOUS
 62
    7
 10
-10.623448273940838
 20
-16.329787511848821
 40
1.0094661202558921
 50
269.87570014810512
 51
354.25295295905232
  0
ARC
  8
_0-0_
  6
CONTINUOUS
 62
    7
 10
-12.01275761936779
 20
-14.307229272426255
 40
1.4022990779385649
 50
293.19859051364534
 51
336.80140948635466
  0
ARC
  8
_0-0_
  6
CONTINUOUS
 62
    7
 10
-12.194488292654881
 20
-14.4137988823461
 40
0.619821936549097
 50
241.36778545407483
 51
325.88620426570844
  0
ARC
  8
_0-0_
  6
CONTINUOUS
 62
    7
 10
-23.748032991277171
 20
-51.18250878834187
 40
37.693191732652821
 50
71.211013791094729
 51
72.780662997078508
  0
ARC
  8
_0-0_
  6
CONTINUOUS
 62
    7
 10
-16.170023929639925
 20
-13.077644108807334
 40
0.6207035700374415
 50
174.51490565035436
 51
238.61519670380275
  0
ARC
  8
_0-0_
  6
CONTINUOUS
 62
    7
 10
-17.227633249193786
 20
-14.413375314739127
 40
0.3387056849792192
 50
111.64263298994118
 51
252.76256333358978
  0
ARC
  8
_0-0_
  6
CONTINUOUS
 62
    7
 10
-16.358246616915977
 20
-15.019202046035701
 40
1.3203895305064868
 50
185.86960044301497
 51
222.73949808885874
  0
ARC
  8
_0-0_
  6
CONTINUOUS
 62
    7
 10
-14.369633007869353
 20
-14.749143407769949
 40
3.3268352364154645
 50
173.00609504584469
 51
186.9939049541573
  0
ARC
  8
_0-0_
  6
CONTINUOUS
 62
    7
 10
-16.972016249338012
 20
-16.344944452067338
 40
2.2784001773171019
 50
80.385430729099085
 51
99.614569270900915
  0
ARC
  8
_0-0_
  6
CONTINUOUS
 62
    7
 10
-13.394890547084884
 20
20.213808992472906
 40
1.4426215864765826
 50
120.69462539135445
 51
209.10317828587432
  0
ARC
  8
_0-0_
  6
CONTINUOUS
 62
    7
 10
-13.328589795458939
 20
19.940419384829653
 40
1.3941948780739499
 50
197.8897741900245
 51
247.86803301665242
  0
ARC
  8
_0-0_
  6
CONTINUOUS
 62
    7
 10
-13.722081363391851
 20
19.642633241247921
 40
1.0023798175498952
 50
262.4468302249719
 51
332.06382652491362
  0
ARC
  8
_0-0_
  6
CONTINUOUS
 62
    7
 10
-13.186990414793257
 20
19.960161221723894
 40
0.8327983080868821
 50
130.74271885880296
 51
198.41295850372114
  0
ARC
  8
_0-0_
  6
CONTINUOUS
 62
    7
 10
-13.631436720030678
 20
19.734544798093609
 40
0.3477373487968195
 50
186.17992424917963
 51
295.10456866523668
  0
ARC
  8
_0-0_
  6
CONTINUOUS
 62
    7
 10
-13.88466859391329
 20
20.067049258582955
 40
0.7614010678238367
 50
301.75948008481475
 51
338.629377730653
  0
ARC
  8
_0-0_
  6
CONTINUOUS
 62
    7
 10
-13.853840365788372
 20
20.949507288656193
 40
0.5760348468188714
 50
41.47438480282252
 51
118.79400131100765
  0
ARC
  8
_0-0_
  6
CONTINUOUS
 62
    7
 10
-11.395656631569892
 20
19.499219834812223
 40
1.4426215864765826
 50
120.69462539135445
 51
209.10317828587432
  0
ARC
  8
_0-0_
  6
CONTINUOUS
 62
    7
 10
-11.329355879943947
 20
19.22583022716897
 40
1.3941948780739499
 50
197.8897741900245
 51
247.86803301665242
  0
ARC
  8
_0-0_
  6
CONTINUOUS
 62
    7
 10
-11.722847447876859
 20
18.928044083587238
 40
1.0023798175498952
 50
262.4468302249719
 51
332.06382652491362
  0
ARC
  8
_0-0_
  6
CONTINUOUS
 62
    7
 10
-11.187756499278265
 20
19.245572064063211
 40
0.8327983080868821
 50
130.74271885880296
 51
198.41295850372114
  0
ARC
  8
_0-0_
  6
CONTINUOUS
 62
    7
 10
-11.632202804515686
 20
19.019955640432926
 40
0.3477373487968195
 50
186.17992424917963
 51
295.10456866523668
  0
ARC
  8
_0-0_
  6
CONTINUOUS
 62
    7
 10
-11.885434678398298
 20
19.352460100922272
 40
0.7614010678238367
 50
301.75948008481475
 51
338.629377730653
  0
ARC
  8
_0-0_
  6
CONTINUOUS
 62
    7
 10
-11.85460645027338
 20
20.23491813099551
 40
0.5760348468188714
 50
41.47438480282252
 51
118.79400131100765
  0
ARC
  8
_0-0_
  6
CONTINUOUS
 62
    7
 10
-13.787119682479954
 20
16.09399275877081
 40
1.2983594278289243
 50
120.69462539135445
 51
209.10317828587432
  0
ARC
  8
_0-0_
  6
CONTINUOUS
 62
    7
 10
-13.727449006016599
 20
15.847942111891882
 40
1.254775390266555
 50
197.8897741900245
 51
247.86803301665242
  0
ARC
  8
_0-0_
  6
CONTINUOUS
 62
    7
 10
-14.081591417156218
 20
15.579934582668315
 40
0.9021418357949057
 50
262.4468302249719
 51
332.06382652491362
  0
ARC
  8
_0-0_
  6
CONTINUOUS
 62
    7
 10
-13.600009563417487
 20
15.865709765096696
 40
0.7495184772781939
 50
130.74271885880296
 51
198.41295850372114
  0
ARC
  8
_0-0_
  6
CONTINUOUS
 62
    7
 10
-14.000011238131165
 20
15.662654983829441
 40
0.3129636139171376
 50
186.17992424917963
 51
295.10456866523668
  0
ARC
  8
_0-0_
  6
CONTINUOUS
 62
    7
 10
-14.22791992462551
 20
15.961908998269848
 40
0.685260961041453
 50
301.75948008481475
 51
338.629377730653
  0
ARC
  8
_0-0_
  6
CONTINUOUS
 62
    7
 10
-14.200174519313094
 20
16.756121225335761
 40
0.5184313621369842
 50
41.47438480282252
 51
118.79400131100765
  0
ARC
  8
_0-0_
  6
CONTINUOUS
 62
    7
 10
-11.721628398116295
 20
15.384943511899706
 40
1.2983594278289243
 50
120.69462539135445
 51
209.10317828587432
  0
ARC
  8
_0-0_
  6
CONTINUOUS
 62
    7
 10
-11.661957721652939
 20
15.138892865020779
 40
1.254775390266555
 50
197.8897741900245
 51
247.86803301665242
  0
ARC
  8
_0-0_
  6
CONTINUOUS
 62
    7
 10
-12.016100132792559
 20
14.870885335797212
 40
0.9021418357949057
 50
262.4468302249719
 51
332.06382652491362
  0
ARC
  8
_0-0_
  6
CONTINUOUS
 62
    7
 10
-11.534518279053827
 20
15.156660518225593
 40
0.7495184772781939
 50
130.74271885880296
 51
198.41295850372114
  0
ARC
  8
_0-0_
  6
CONTINUOUS
 62
    7
 10
-11.934519953767506
 20
14.953605736958338
 40
0.3129636139171376
 50
186.17992424917963
 51
295.10456866523668
  0
ARC
  8
_0-0_
  6
CONTINUOUS
 62
    7
 10
-12.162428640261851
 20
15.252859751398745
 40
0.685260961041453
 50
301.75948008481475
 51
338.629377730653
  0
ARC
  8
_0-0_
  6
CONTINUOUS
 62
    7
 10
-12.134683234949435
 20
16.047071978464658
 40
0.5184313621369842
 50
41.47438480282252
 51
118.79400131100765
  0
ARC
  8
_0-0_
  6
CONTINUOUS
 62
    7
 10
-13.91043259497927
 20
12.209636015042165
 40
1.2983594278289243
 50
120.69462539135445
 51
209.10317828587432
  0
ARC
  8
_0-0_
  6
CONTINUOUS
 62
    7
 10
-13.850761918515914
 20
11.963585368163237
 40
1.254775390266555
 50
197.8897741900245
 51
247.86803301665242
  0
ARC
  8
_0-0_
  6
CONTINUOUS
 62
    7
 10
-14.204904329655534
 20
11.69557783893967
 40
0.9021418357949057
 50
262.4468302249719
 51
332.06382652491362
  0
ARC
  8
_0-0_
  6
CONTINUOUS
 62
    7
 10
-13.723322475916802
 20
11.981353021368051
 40
0.7495184772781939
 50
130.74271885880296
 51
198.41295850372114
  0
ARC
  8
_0-0_
  6
CONTINUOUS
 62
    7
 10
-14.123324150630481
 20
11.778298240100796
 40
0.3129636139171376
 50
186.17992424917963
 51
295.10456866523668
  0
ARC
  8
_0-0_
  6
CONTINUOUS
 62
    7
 10
-14.351232837124826
 20
12.077552254541203
 40
0.685260961041453
 50
301.75948008481475
 51
338.629377730653
  0
ARC
  8
_0-0_
  6
CONTINUOUS
 62
    7
 10
-14.32348743181241
 20
12.871764481607116
 40
0.5184313621369842
 50
41.47438480282252
 51
118.79400131100765
  0
ARC
  8
_0-0_
  6
CONTINUOUS
 62
    7
 10
-11.875769538740457
 20
11.500586768171061
 40
1.2983594278289243
 50
120.69462539135445
 51
209.10317828587432
  0
ARC
  8
_0-0_
  6
CONTINUOUS
 62
    7
 10
-11.816098862277101
 20
11.254536121292134
 40
1.254775390266555
 50
197.8897741900245
 51
247.86803301665242
  0
ARC
  8
_0-0_
  6
CONTINUOUS
 62
    7
 10
-12.170241273416721
 20
10.986528592068566
 40
0.9021418357949057
 50
262.4468302249719
 51
332.06382652491362
  0
ARC
  8
_0-0_
  6
CONTINUOUS
 62
    7
 10
-11.68865941967799
 20
11.272303774496947
 40
0.7495184772781939
 50
130.74271885880296
 51
198.41295850372114
  0
ARC
  8
_0-0_
  6
CONTINUOUS
 62
    7
 10
-12.088661094391668
 20
11.069248993229692
 40
0.3129636139171376
 50
186.17992424917963
 51
295.10456866523668
  0
ARC
  8
_0-0_
  6
CONTINUOUS
 62
    7
 10
-12.316569780886013
 20
11.3685030076701
 40
0.685260961041453
 50
301.75948008481475
 51
338.629377730653
  0
ARC
  8
_0-0_
  6
CONTINUOUS
 62
    7
 10
-12.288824375573597
 20
12.162715234736012
 40
0.5184313621369842
 50
41.47438480282252
 51
118.79400131100765
  0
ARC
  8
_0-0_
  6
CONTINUOUS
 62
    7
 10
-14.157058419977915
 20
8.3561074994383375
 40
1.2983594278289243
 50
120.69462539135445
 51
209.10317828587432
  0
ARC
  8
_0-0_
  6
CONTINUOUS
 62
    7
 10
-14.09738774351456
 20
8.1100568525594099
 40
1.254775390266555
 50
197.8897741900245
 51
247.86803301665242
  0
ARC
  8
_0-0_
  6
CONTINUOUS
 62
    7
 10
-14.451530154654179
 20
7.8420493233358428
 40
0.9021418357949057
 50
262.4468302249719
 51
332.06382652491362
  0
ARC
  8
_0-0_
  6
CONTINUOUS
 62
    7
 10
-13.969948300915448
 20
8.1278245057642238
 40
0.7495184772781939
 50
130.74271885880296
 51
198.41295850372114
  0
ARC
  8
_0-0_
  6
CONTINUOUS
 62
    7
 10
-14.369949975629126
 20
7.9247697244969686
 40
0.3129636139171376
 50
186.17992424917963
 51
295.10456866523668
  0
ARC
  8
_0-0_
  6
CONTINUOUS
 62
    7
 10
-14.597858662123471
 20
8.224023738937376
 40
0.685260961041453
 50
301.75948008481475
 51
338.629377730653
  0
ARC
  8
_0-0_
  6
CONTINUOUS
 62
    7
 10
-14.570113256811055
 20
9.0182359660032887
 40
0.5184313621369842
 50
41.47438480282252
 51
118.79400131100765
  0
ARC
  8
_0-0_
  6
CONTINUOUS
 62
    7
 10
-12.27653650436325
 20
7.7395429369417172
 40
1.2983594278289243
 50
120.69462539135445
 51
209.10317828587432
  0
ARC
  8
_0-0_
  6
CONTINUOUS
 62
    7
 10
-12.216865827899895
 20
7.4934922900627896
 40
1.254775390266555
 50
197.8897741900245
 51
247.86803301665242
  0
ARC
  8
_0-0_
  6
CONTINUOUS
 62
    7
 10
-12.571008239039514
 20
7.2254847608392225
 40
0.9021418357949057
 50
262.4468302249719
 51
332.06382652491362
  0
ARC
  8
_0-0_
  6
CONTINUOUS
 62
    7
 10
-12.089426385300783
 20
7.5112599432676035
 40
0.7495184772781939
 50
130.74271885880296
 51
198.41295850372114
  0
ARC
  8
_0-0_
  6
CONTINUOUS
 62
    7
 10
-12.489428060014461
 20
7.3082051620003483
 40
0.3129636139171376
 50
186.17992424917963
 51
295.10456866523668
  0
ARC
  8
_0-0_
  6
CONTINUOUS
 62
    7
 10
-12.717336746508806
 20
7.6074591764407558
 40
0.685260961041453
 50
301.75948008481475
 51
338.629377730653
  0
ARC
  8
_0-0_
  6
CONTINUOUS
 62
    7
 10
-12.68959134119639
 20
8.4016714035066684
 40
0.5184313621369842
 50
41.47438480282252
 51
118.79400131100765
  0
ARC
  8
_0-0_
  6
CONTINUOUS
 62
    7
 10
-14.187886648102747
 20
4.8108612650828206
 40
1.2983594278289243
 50
120.69462539135445
 51
209.10317828587432
  0
ARC
  8
_0-0_
  6
CONTINUOUS
 62
    7
 10
-14.128215971639392
 20
4.564810618203893
 40
1.254775390266555
 50
197.8897741900245
 51
247.86803301665242
  0
ARC
  8
_0-0_
  6
CONTINUOUS
 62
    7
 10
-14.482358382779012
 20
4.2968030889803259
 40
0.9021418357949057
 50
262.4468302249719
 51
332.06382652491362
  0
ARC
  8
_0-0_
  6
CONTINUOUS
 62
    7
 10
-14.00077652904028
 20
4.5825782714087069
 40
0.7495184772781939
 50
130.74271885880296
 51
198.41295850372114
  0
ARC
  8
_0-0_
  6
CONTINUOUS
 62
    7
 10
-14.400778203753958
 20
4.3795234901414517
 40
0.3129636139171376
 50
186.17992424917963
 51
295.10456866523668
  0
ARC
  8
_0-0_
  6
CONTINUOUS
 62
    7
 10
-14.628686890248304
 20
4.6787775045818591
 40
0.685260961041453
 50
301.75948008481475
 51
338.629377730653
  0
ARC
  8
_0-0_
  6
CONTINUOUS
 62
    7
 10
-14.600941484935888
 20
5.4729897316477718
 40
0.5184313621369842
 50
41.47438480282252
 51
118.79400131100765
  0
ARC
  8
_0-0_
  6
CONTINUOUS
 62
    7
 10
-14.311199560602077
 20
1.4814126276011166
 40
1.2983594278289243
 50
120.69462539135445
 51
209.10317828587432
  0
ARC
  8
_0-0_
  6
CONTINUOUS
 62
    7
 10
-14.251528884138722
 20
1.2353619807221889
 40
1.254775390266555
 50
197.8897741900245
 51
247.86803301665242
  0
ARC
  8
_0-0_
  6
CONTINUOUS
 62
    7
 10
-14.605671295278341
 20
0.9673544514986218
 40
0.9021418357949057
 50
262.4468302249719
 51
332.06382652491362
  0
ARC
  8
_0-0_
  6
CONTINUOUS
 62
    7
 10
-14.12408944153961
 20
1.2531296339270028
 40
0.7495184772781939
 50
130.74271885880296
 51
198.41295850372114
  0
ARC
  8
_0-0_
  6
CONTINUOUS
 62
    7
 10
-14.524091116253288
 20
1.0500748526597476
 40
0.3129636139171376
 50
186.17992424917963
 51
295.10456866523668
  0
ARC
  8
_0-0_
  6
CONTINUOUS
 62
    7
 10
-14.751999802747633
 20
1.3493288671001551
 40
0.685260961041453
 50
301.75948008481475
 51
338.629377730653
  0
ARC
  8
_0-0_
  6
CONTINUOUS
 62
    7
 10
-14.724254397435217
 20
2.1435410941660678
 40
0.5184313621369842
 50
41.47438480282252
 51
118.79400131100765
  0
ARC
  8
_0-0_
  6
CONTINUOUS
 62
    7
 10
-14.372856016851742
 20
-2.2796312036282131
 40
1.2983594278289243
 50
120.69462539135445
 51
209.10317828587432
  0
ARC
  8
_0-0_
  6
CONTINUOUS
 62
    7
 10
-14.313185340388387
 20
-2.5256818505071408
 40
1.254775390266555
 50
197.8897741900245
 51
247.86803301665242
  0
ARC
  8
_0-0_
  6
CONTINUOUS
 62
    7
 10
-14.667327751528006
 20
-2.7936893797307079
 40
0.9021418357949057
 50
262.4468302249719
 51
332.06382652491362
  0
ARC
  8
_0-0_
  6
CONTINUOUS
 62
    7
 10
-14.185745897789275
 20
-2.5079141973023269
 40
0.7495184772781939
 50
130.74271885880296
 51
198.41295850372114
  0
ARC
  8
_0-0_
  6
CONTINUOUS
 62
    7
 10
-14.585747572502953
 20
-2.7109689785695821
 40
0.3129636139171376
 50
186.17992424917963
 51
295.10456866523668
  0
ARC
  8
_0-0_
  6
CONTINUOUS
 62
    7
 10
-14.813656258997298
 20
-2.4117149641291746
 40
0.685260961041453
 50
301.75948008481475
 51
338.629377730653
  0
ARC
  8
_0-0_
  6
CONTINUOUS
 62
    7
 10
-14.785910853684882
 20
-1.617502737063262
 40
0.5184313621369842
 50
41.47438480282252
 51
118.79400131100765
  0
ARC
  8
_0-0_
  6
CONTINUOUS
 62
    7
 10
-12.58481878561156
 20
-3.1119933629986463
 40
1.2983594278289243
 50
120.69462539135445
 51
209.10317828587432
  0
ARC
  8
_0-0_
  6
CONTINUOUS
 62
    7
 10
-12.525148109148205
 20
-3.3580440098775739
 40
1.254775390266555
 50
197.8897741900245
 51
247.86803301665242
  0
ARC
  8
_0-0_
  6
CONTINUOUS
 62
    7
 10
-12.879290520287825
 20
-3.626051539101141
 40
0.9021418357949057
 50
262.4468302249719
 51
332.06382652491362
  0
ARC
  8
_0-0_
  6
CONTINUOUS
 62
    7
 10
-12.397708666549093
 20
-3.34027635667276
 40
0.7495184772781939
 50
130.74271885880296
 51
198.41295850372114
  0
ARC
  8
_0-0_
  6
CONTINUOUS
 62
    7
 10
-12.797710341262771
 20
-3.5433311379400152
 40
0.3129636139171376
 50
186.17992424917963
 51
295.10456866523668
  0
ARC
  8
_0-0_
  6
CONTINUOUS
 62
    7
 10
-13.025619027757116
 20
-3.2440771234996078
 40
0.685260961041453
 50
301.75948008481475
 51
338.629377730653
  0
ARC
  8
_0-0_
  6
CONTINUOUS
 62
    7
 10
-12.9978736224447
 20
-2.4498648964336951
 40
0.5184313621369842
 50
41.47438480282252
 51
118.79400131100765
  0
ARC
  8
_0-0_
  6
CONTINUOUS
 62
    7
 10
-14.588653613725555
 20
-5.6399080692347496
 40
1.2983594278289243
 50
120.69462539135445
 51
209.10317828587432
  0
ARC
  8
_0-0_
  6
CONTINUOUS
 62
    7
 10
-14.528982937262199
 20
-5.8859587161136773
 40
1.254775390266555
 50
197.8897741900245
 51
247.86803301665242
  0
ARC
  8
_0-0_
  6
CONTINUOUS
 62
    7
 10
-14.883125348401819
 20
-6.1539662453372443
 40
0.9021418357949057
 50
262.4468302249719
 51
332.06382652491362
  0
ARC
  8
_0-0_
  6
CONTINUOUS
 62
    7
 10
-14.401543494663088
 20
-5.8681910629088634
 40
0.7495184772781939
 50
130.74271885880296
 51
198.41295850372114
  0
ARC
  8
_0-0_
  6
CONTINUOUS
 62
    7
 10
-14.801545169376766
 20
-6.0712458441761186
 40
0.3129636139171376
 50
186.17992424917963
 51
295.10456866523668
  0
ARC
  8
_0-0_
  6
CONTINUOUS
 62
    7
 10
-15.029453855871111
 20
-5.7719918297357111
 40
0.685260961041453
 50
301.75948008481475
 51
338.629377730653
  0
ARC
  8
_0-0_
  6
CONTINUOUS
 62
    7
 10
-15.001708450558695
 20
-4.9777796026697985
 40
0.5184313621369842
 50
41.47438480282252
 51
118.79400131100765
  0
ARC
  8
_0-0_
  6
CONTINUOUS
 62
    7
 10
-12.862272838735038
 20
-6.5955831411044983
 40
1.2983594278289243
 50
120.69462539135445
 51
209.10317828587432
  0
ARC
  8
_0-0_
  6
CONTINUOUS
 62
    7
 10
-12.802602162271683
 20
-6.8416337879834259
 40
1.254775390266555
 50
197.8897741900245
 51
247.86803301665242
  0
ARC
  8
_0-0_
  6
CONTINUOUS
 62
    7
 10
-13.156744573411302
 20
-7.109641317206993
 40
0.9021418357949057
 50
262.4468302249719
 51
332.06382652491362
  0
ARC
  8
_0-0_
  6
CONTINUOUS
 62
    7
 10
-12.675162719672571
 20
-6.823866134778612
 40
0.7495184772781939
 50
130.74271885880296
 51
198.41295850372114
  0
ARC
  8
_0-0_
  6
CONTINUOUS
 62
    7
 10
-13.075164394386249
 20
-7.0269209160458672
 40
0.3129636139171376
 50
186.17992424917963
 51
295.10456866523668
  0
ARC
  8
_0-0_
  6
CONTINUOUS
 62
    7
 10
-13.303073080880594
 20
-6.7276669016054598
 40
0.685260961041453
 50
301.75948008481475
 51
338.629377730653
  0
ARC
  8
_0-0_
  6
CONTINUOUS
 62
    7
 10
-13.275327675568178
 20
-5.9334546745395471
 40
0.5184313621369842
 50
41.47438480282252
 51
118.79400131100765
  0
ARC
  8
_0-0_
  6
CONTINUOUS
 62
    7
 10
-14.760484239647795
 20
-8.7985093202775175
 40
1.1540972691812661
 50
120.69462539135445
 51
209.10317828587432
  0
ARC
  8
_0-0_
  6
CONTINUOUS
 62
    7
 10
-14.707443638347044
 20
-9.0172210063921199
 40
1.1153559024591599
 50
197.8897741900245
 51
247.86803301665242
  0
ARC
  8
_0-0_
  6
CONTINUOUS
 62
    7
 10
-15.022236892693371
 20
-9.2554499212575081
 40
0.8019038540399162
 50
262.4468302249719
 51
332.06382652491362
  0
ARC
  8
_0-0_
  6
CONTINUOUS
 62
    7
 10
-14.594164133814502
 20
-9.0014275368767329
 40
0.6662386464695058
 50
130.74271885880296
 51
198.41295850372114
  0
ARC
  8
_0-0_
  6
CONTINUOUS
 62
    7
 10
-14.949721178004438
 20
-9.1819206757809582
 40
0.2781898790374556
 50
186.17992424917963
 51
295.10456866523668
  0
ARC
  8
_0-0_
  6
CONTINUOUS
 62
    7
 10
-15.152306677110531
 20
-8.9159171073894754
 40
0.6091208542590694
 50
301.75948008481475
 51
338.629377730653
  0
ARC
  8
_0-0_
  6
CONTINUOUS
 62
    7
 10
-15.127644094610588
 20
-8.209950683330888
 40
0.4608278774550971
 50
41.47438480282252
 51
118.79400131100765
  0
ARC
  8
_0-0_
  6
CONTINUOUS
 62
    7
 10
-12.941618780282795
 20
-10.154951357770059
 40
1.1540972691812661
 50
120.69462539135445
 51
209.10317828587432
  0
ARC
  8
_0-0_
  6
CONTINUOUS
 62
    7
 10
-12.888578178982044
 20
-10.373663043884662
 40
1.1153559024591599
 50
197.8897741900245
 51
247.86803301665242
  0
ARC
  8
_0-0_
  6
CONTINUOUS
 62
    7
 10
-13.203371433328371
 20
-10.61189195875005
 40
0.8019038540399162
 50
262.4468302249719
 51
332.06382652491362
  0
ARC
  8
_0-0_
  6
CONTINUOUS
 62
    7
 10
-12.775298674449502
 20
-10.357869574369275
 40
0.6662386464695058
 50
130.74271885880296
 51
198.41295850372114
  0
ARC
  8
_0-0_
  6
CONTINUOUS
 62
    7
 10
-13.130855718639438
 20
-10.5383627132735
 40
0.2781898790374556
 50
186.17992424917963
 51
295.10456866523668
  0
ARC
  8
_0-0_
  6
CONTINUOUS
 62
    7
 10
-13.333441217745531
 20
-10.272359144882017
 40
0.6091208542590694
 50
301.75948008481475
 51
338.629377730653
  0
ARC
  8
_0-0_
  6
CONTINUOUS
 62
    7
 10
-13.308778635245588
 20
-9.5663927208234298
 40
0.4608278774550971
 50
41.47438480282252
 51
118.79400131100765
  0
ARC
  8
_0-0_
  6
CONTINUOUS
 62
    7
 10
-14.945453608396775
 20
-11.973816817135074
 40
1.1540972691812661
 50
120.69462539135445
 51
209.10317828587432
  0
ARC
  8
_0-0_
  6
CONTINUOUS
 62
    7
 10
-14.892413007096025
 20
-12.192528503249676
 40
1.1153559024591599
 50
197.8897741900245
 51
247.86803301665242
  0
ARC
  8
_0-0_
  6
CONTINUOUS
 62
    7
 10
-15.207206261442352
 20
-12.430757418115064
 40
0.8019038540399162
 50
262.4468302249719
 51
332.06382652491362
  0
ARC
  8
_0-0_
  6
CONTINUOUS
 62
    7
 10
-14.779133502563482
 20
-12.176735033734289
 40
0.6662386464695058
 50
130.74271885880296
 51
198.41295850372114
  0
ARC
  8
_0-0_
  6
CONTINUOUS
 62
    7
 10
-15.134690546753419
 20
-12.357228172638514
 40
0.2781898790374556
 50
186.17992424917963
 51
295.10456866523668
  0
ARC
  8
_0-0_
  6
CONTINUOUS
 62
    7
 10
-15.337276045859511
 20
-12.091224604247031
 40
0.6091208542590694
 50
301.75948008481475
 51
338.629377730653
  0
ARC
  8
_0-0_
  6
CONTINUOUS
 62
    7
 10
-15.312613463359568
 20
-11.385258180188444
 40
0.4608278774550971
 50
41.47438480282252
 51
118.79400131100765
  0
ARC
  8
_0-0_
  6
CONTINUOUS
 62
    7
 10
-13.095759920906943
 20
-13.08363302962897
 40
1.1540972691812661
 50
120.69462539135445
 51
209.10317828587432
  0
ARC
  8
_0-0_
  6
CONTINUOUS
 62
    7
 10
-13.042719319606192
 20
-13.302344715743573
 40
1.1153559024591599
 50
197.8897741900245
 51
247.86803301665242
  0
ARC
  8
_0-0_
  6
CONTINUOUS
 62
    7
 10
-13.357512573952519
 20
-13.540573630608961
 40
0.8019038540399162
 50
262.4468302249719
 51
332.06382652491362
  0
ARC
  8
_0-0_
  6
CONTINUOUS
 62
    7
 10
-12.92943981507365
 20
-13.286551246228186
 40
0.6662386464695058
 50
130.74271885880296
 51
198.41295850372114
  0
ARC
  8
_0-0_
  6
CONTINUOUS
 62
    7
 10
-13.284996859263586
 20
-13.467044385132411
 40
0.2781898790374556
 50
186.17992424917963
 51
295.10456866523668
  0
ARC
  8
_0-0_
  6
CONTINUOUS
 62
    7
 10
-13.487582358369679
 20
-13.201040816740928
 40
0.6091208542590694
 50
301.75948008481475
 51
338.629377730653
  0
ARC
  8
_0-0_
  6
CONTINUOUS
 62
    7
 10
-13.462919775869736
 20
-12.495074392682341
 40
0.4608278774550971
 50
41.47438480282252
 51
118.79400131100765
  0
ARC
  8
_0-0_
  6
CONTINUOUS
 62
    7
 10
-6.0977521365704064
 20
-17.615382563979068
 40
1.1540972691812661
 50
120.69462539135445
 51
209.10317828587432
  0
ARC
  8
_0-0_
  6
CONTINUOUS
 62
    7
 10
-6.0447115352696557
 20
-17.834094250093671
 40
1.1153559024591599
 50
197.8897741900245
 51
247.86803301665242
  0
ARC
  8
_0-0_
  6
CONTINUOUS
 62
    7
 10
-6.3595047896159826
 20
-18.072323164959059
 40
0.8019038540399162
 50
262.4468302249719
 51
332.06382652491362
  0
ARC
  8
_0-0_
  6
CONTINUOUS
 62
    7
 10
-5.9314320307371133
 20
-17.818300780578284
 40
0.6662386464695058
 50
130.74271885880296
 51
198.41295850372114
  0
ARC
  8
_0-0_
  6
CONTINUOUS
 62
    7
 10
-6.2869890749270496
 20
-17.998793919482509
 40
0.2781898790374556
 50
186.17992424917963
 51
295.10456866523668
  0
ARC
  8
_0-0_
  6
CONTINUOUS
 62
    7
 10
-6.4895745740331421
 20
-17.732790351091026
 40
0.6091208542590694
 50
301.75948008481475
 51
338.629377730653
  0
ARC
  8
_0-0_
  6
CONTINUOUS
 62
    7
 10
-6.4649119915331994
 20
-17.026823927032439
 40
0.4608278774550971
 50
41.47438480282252
 51
118.79400131100765
  0
ARC
  8
_0-0_
  6
CONTINUOUS
 62
    7
 10
-3.8604302262845067
 20
-18.83438970666225
 40
1.2983594278289243
 50
120.69462539135445
 51
209.10317828587432
  0
ARC
  8
_0-0_
  6
CONTINUOUS
 62
    7
 10
-3.8007595498211515
 20
-19.080440353541178
 40
1.254775390266555
 50
197.8897741900245
 51
247.86803301665242
  0
ARC
  8
_0-0_
  6
CONTINUOUS
 62
    7
 10
-4.1549019609607711
 20
-19.348447882764745
 40
0.9021418357949057
 50
262.4468302249719
 51
332.06382652491362
  0
ARC
  8
_0-0_
  6
CONTINUOUS
 62
    7
 10
-3.6733201072220396
 20
-19.062672700336364
 40
0.7495184772781939
 50
130.74271885880296
 51
198.41295850372114
  0
ARC
  8
_0-0_
  6
CONTINUOUS
 62
    7
 10
-4.0733217819357179
 20
-19.265727481603619
 40
0.3129636139171376
 50
186.17992424917963
 51
295.10456866523668
  0
ARC
  8
_0-0_
  6
CONTINUOUS
 62
    7
 10
-4.3012304684300631
 20
-18.966473467163212
 40
0.685260961041453
 50
301.75948008481475
 51
338.629377730653
  0
ARC
  8
_0-0_
  6
CONTINUOUS
 62
    7
 10
-4.2734850631176471
 20
-18.172261240097299
 40
0.5184313621369842
 50
41.47438480282252
 51
118.79400131100765
  0
ARC
  8
_0-0_
  6
CONTINUOUS
 62
    7
 10
-3.428835032536881
 20
-15.474112841055714
 40
1.2983594278289243
 50
120.69462539135445
 51
209.10317828587432
  0
ARC
  8
_0-0_
  6
CONTINUOUS
 62
    7
 10
-3.3691643560735258
 20
-15.720163487934641
 40
1.254775390266555
 50
197.8897741900245
 51
247.86803301665242
  0
ARC
  8
_0-0_
  6
CONTINUOUS
 62
    7
 10
-3.7233067672131455
 20
-15.988171017158209
 40
0.9021418357949057
 50
262.4468302249719
 51
332.06382652491362
  0
ARC
  8
_0-0_
  6
CONTINUOUS
 62
    7
 10
-3.2417249134744139
 20
-15.702395834729828
 40
0.7495184772781939
 50
130.74271885880296
 51
198.41295850372114
  0
ARC
  8
_0-0_
  6
CONTINUOUS
 62
    7
 10
-3.6417265881880923
 20
-15.905450615997083
 40
0.3129636139171376
 50
186.17992424917963
 51
295.10456866523668
  0
ARC
  8
_0-0_
  6
CONTINUOUS
 62
    7
 10
-3.8696352746824374
 20
-15.606196601556675
 40
0.685260961041453
 50
301.75948008481475
 51
338.629377730653
  0
ARC
  8
_0-0_
  6
CONTINUOUS
 62
    7
 10
-3.8418898693700214
 20
-14.811984374490763
 40
0.5184313621369842
 50
41.47438480282252
 51
118.79400131100765
  0
ARC
  8
_0-0_
  6
CONTINUOUS
 62
    7
 10
-5.5868110012750236
 20
-14.179327259812837
 40
1.2983594278289243
 50
120.69462539135445
 51
209.10317828587432
  0
ARC
  8
_0-0_
  6
CONTINUOUS
 62
    7
 10
-5.5271403248116684
 20
-14.425377906691764
 40
1.254775390266555
 50
197.8897741900245
 51
247.86803301665242
  0
ARC
  8
_0-0_
  6
CONTINUOUS
 62
    7
 10
-5.881282735951288
 20
-14.693385435915332
 40
0.9021418357949057
 50
262.4468302249719
 51
332.06382652491362
  0
ARC
  8
_0-0_
  6
CONTINUOUS
 62
    7
 10
-5.3997008822125565
 20
-14.407610253486951
 40
0.7495184772781939
 50
130.74271885880296
 51
198.41295850372114
  0
ARC
  8
_0-0_
  6
CONTINUOUS
 62
    7
 10
-5.7997025569262348
 20
-14.610665034754206
 40
0.3129636139171376
 50
186.17992424917963
 51
295.10456866523668
  0
ARC
  8
_0-0_
  6
CONTINUOUS
 62
    7
 10
-6.02761124342058
 20
-14.311411020313798
 40
0.685260961041453
 50
301.75948008481475
 51
338.629377730653
  0
ARC
  8
_0-0_
  6
CONTINUOUS
 62
    7
 10
-5.999865838108164
 20
-13.517198793247886
 40
0.5184313621369842
 50
41.47438480282252
 51
118.79400131100765
  0
ARC
  8
_0-0_
  6
CONTINUOUS
 62
    7
 10
-5.4943263169005263
 20
-10.634081025457306
 40
1.2983594278289243
 50
120.69462539135445
 51
209.10317828587432
  0
ARC
  8
_0-0_
  6
CONTINUOUS
 62
    7
 10
-5.4346556404371711
 20
-10.880131672336233
 40
1.254775390266555
 50
197.8897741900245
 51
247.86803301665242
  0
ARC
  8
_0-0_
  6
CONTINUOUS
 62
    7
 10
-5.7887980515767907
 20
-11.1481392015598
 40
0.9021418357949057
 50
262.4468302249719
 51
332.06382652491362
  0
ARC
  8
_0-0_
  6
CONTINUOUS
 62
    7
 10
-5.3072161978380592
 20
-10.862364019131419
 40
0.7495184772781939
 50
130.74271885880296
 51
198.41295850372114
  0
ARC
  8
_0-0_
  6
CONTINUOUS
 62
    7
 10
-5.7072178725517375
 20
-11.065418800398675
 40
0.3129636139171376
 50
186.17992424917963
 51
295.10456866523668
  0
ARC
  8
_0-0_
  6
CONTINUOUS
 62
    7
 10
-5.9351265590460827
 20
-10.766164785958267
 40
0.685260961041453
 50
301.75948008481475
 51
338.629377730653
  0
ARC
  8
_0-0_
  6
CONTINUOUS
 62
    7
 10
-5.9073811537336667
 20
-9.9719525588923545
 40
0.5184313621369842
 50
41.47438480282252
 51
118.79400131100765
  0
ARC
  8
_0-0_
  6
CONTINUOUS
 62
    7
 10
-3.2746938919127189
 20
-11.928866606700197
 40
1.2983594278289243
 50
120.69462539135445
 51
209.10317828587432
  0
ARC
  8
_0-0_
  6
CONTINUOUS
 62
    7
 10
-3.2150232154493636
 20
-12.174917253579125
 40
1.254775390266555
 50
197.8897741900245
 51
247.86803301665242
  0
ARC
  8
_0-0_
  6
CONTINUOUS
 62
    7
 10
-3.5691656265889833
 20
-12.442924782802692
 40
0.9021418357949057
 50
262.4468302249719
 51
332.06382652491362
  0
ARC
  8
_0-0_
  6
CONTINUOUS
 62
    7
 10
-3.0875837728502518
 20
-12.157149600374311
 40
0.7495184772781939
 50
130.74271885880296
 51
198.41295850372114
  0
ARC
  8
_0-0_
  6
CONTINUOUS
 62
    7
 10
-3.4875854475639301
 20
-12.360204381641566
 40
0.3129636139171376
 50
186.17992424917963
 51
295.10456866523668
  0
ARC
  8
_0-0_
  6
CONTINUOUS
 62
    7
 10
-3.7154941340582752
 20
-12.060950367201158
 40
0.685260961041453
 50
301.75948008481475
 51
338.629377730653
  0
ARC
  8
_0-0_
  6
CONTINUOUS
 62
    7
 10
-3.6877487287458592
 20
-11.266738140135246
 40
0.5184313621369842
 50
41.47438480282252
 51
118.79400131100765
  0
ARC
  8
_0-0_
  6
CONTINUOUS
 62
    7
 10
-2.8739269262899256
 20
-8.1369945473460348
 40
1.2983594278289243
 50
120.69462539135445
 51
209.10317828587432
  0
ARC
  8
_0-0_
  6
CONTINUOUS
 62
    7
 10
-2.8142562498265704
 20
-8.3830451942249624
 40
1.254775390266555
 50
197.8897741900245
 51
247.86803301665242
  0
ARC
  8
_0-0_
  6
CONTINUOUS
 62
    7
 10
-3.1683986609661901
 20
-8.6510527234485295
 40
0.9021418357949057
 50
262.4468302249719
 51
332.06382652491362
  0
ARC
  8
_0-0_
  6
CONTINUOUS
 62
    7
 10
-2.6868168072274585
 20
-8.3652775410201485
 40
0.7495184772781939
 50
130.74271885880296
 51
198.41295850372114
  0
ARC
  8
_0-0_
  6
CONTINUOUS
 62
    7
 10
-3.0868184819411368
 20
-8.5683323222874037
 40
0.3129636139171376
 50
186.17992424917963
 51
295.10456866523668
  0
ARC
  8
_0-0_
  6
CONTINUOUS
 62
    7
 10
-3.314727168435482
 20
-8.2690783078469963
 40
0.685260961041453
 50
301.75948008481475
 51
338.629377730653
  0
ARC
  8
_0-0_
  6
CONTINUOUS
 62
    7
 10
-3.286981763123066
 20
-7.4748660807810836
 40
0.5184313621369842
 50
41.47438480282252
 51
118.79400131100765
  0
ARC
  8
_0-0_
  6
CONTINUOUS
 62
    7
 10
-5.0627311231529006
 20
-7.0580065629769564
 40
1.2983594278289243
 50
120.69462539135445
 51
209.10317828587432
  0
ARC
  8
_0-0_
  6
CONTINUOUS
 62
    7
 10
-5.0030604466895454
 20
-7.304057209855884
 40
1.254775390266555
 50
197.8897741900245
 51
247.86803301665242
  0
ARC
  8
_0-0_
  6
CONTINUOUS
 62
    7
 10
-5.3572028578291651
 20
-7.5720647390794511
 40
0.9021418357949057
 50
262.4468302249719
 51
332.06382652491362
  0
ARC
  8
_0-0_
  6
CONTINUOUS
 62
    7
 10
-4.8756210040904335
 20
-7.2862895566510701
 40
0.7495184772781939
 50
130.74271885880296
 51
198.41295850372114
  0
ARC
  8
_0-0_
  6
CONTINUOUS
 62
    7
 10
-5.2756226788041118
 20
-7.4893443379183253
 40
0.3129636139171376
 50
186.17992424917963
 51
295.10456866523668
  0
ARC
  8
_0-0_
  6
CONTINUOUS
 62
    7
 10
-5.503531365298457
 20
-7.1900903234779179
 40
0.685260961041453
 50
301.75948008481475
 51
338.629377730653
  0
ARC
  8
_0-0_
  6
CONTINUOUS
 62
    7
 10
-5.475785959986041
 20
-6.3958780964120052
 40
0.5184313621369842
 50
41.47438480282252
 51
118.79400131100765
  0
ARC
  8
_0-0_
  6
CONTINUOUS
 62
    7
 10
-4.9394182106535709
 20
-3.1428215911234787
 40
1.2983594278289243
 50
120.69462539135445
 51
209.10317828587432
  0
ARC
  8
_0-0_
  6
CONTINUOUS
 62
    7
 10
-4.8797475341902157
 20
-3.3888722380024063
 40
1.254775390266555
 50
197.8897741900245
 51
247.86803301665242
  0
ARC
  8
_0-0_
  6
CONTINUOUS
 62
    7
 10
-5.2338899453298353
 20
-3.6568797672259734
 40
0.9021418357949057
 50
262.4468302249719
 51
332.06382652491362
  0
ARC
  8
_0-0_
  6
CONTINUOUS
 62
    7
 10
-4.7523080915911038
 20
-3.3711045847975925
 40
0.7495184772781939
 50
130.74271885880296
 51
198.41295850372114
  0
ARC
  8
_0-0_
  6
CONTINUOUS
 62
    7
 10
-5.1523097663047821
 20
-3.5741593660648476
 40
0.3129636139171376
 50
186.17992424917963
 51
295.10456866523668
  0
ARC
  8
_0-0_
  6
CONTINUOUS
 62
    7
 10
-5.3802184527991272
 20
-3.2749053516244402
 40
0.685260961041453
 50
301.75948008481475
 51
338.629377730653
  0
ARC
  8
_0-0_
  6
CONTINUOUS
 62
    7
 10
-5.3524730474867113
 20
-2.4806931245585275
 40
0.5184313621369842
 50
41.47438480282252
 51
118.79400131100765
  0
ARC
  8
_0-0_
  6
CONTINUOUS
 62
    7
 10
-4.7236206137797581
 20
0.6490504682306834
 40
1.2983594278289243
 50
120.69462539135445
 51
209.10317828587432
  0
ARC
  8
_0-0_
  6
CONTINUOUS
 62
    7
 10
-4.6639499373164028
 20
0.4029998213517558
 40
1.254775390266555
 50
197.8897741900245
 51
247.86803301665242
  0
ARC
  8
_0-0_
  6
CONTINUOUS
 62
    7
 10
-5.0180923484560225
 20
0.1349922921281887
 40
0.9021418357949057
 50
262.4468302249719
 51
332.06382652491362
  0
ARC
  8
_0-0_
  6
CONTINUOUS
 62
    7
 10
-4.536510494717291
 20
0.4207674745565697
 40
0.7495184772781939
 50
130.74271885880296
 51
198.41295850372114
  0
ARC
  8
_0-0_
  6
CONTINUOUS
 62
    7
 10
-4.9365121694309693
 20
0.2177126932893145
 40
0.3129636139171376
 50
186.17992424917963
 51
295.10456866523668
  0
ARC
  8
_0-0_
  6
CONTINUOUS
 62
    7
 10
-5.1644208559253144
 20
0.5169667077297219
 40
0.685260961041453
 50
301.75948008481475
 51
338.629377730653
  0
ARC
  8
_0-0_
  6
CONTINUOUS
 62
    7
 10
-5.1366754506128984
 20
1.3111789347956346
 40
0.5184313621369842
 50
41.47438480282252
 51
118.79400131100765
  0
ARC
  8
_0-0_
  6
CONTINUOUS
 62
    7
 10
-4.3051641628588584
 20
4.4242162817700574
 40
1.4426215864765826
 50
120.69462539135445
 51
209.10317828587432
  0
ARC
  8
_0-0_
  6
CONTINUOUS
 62
    7
 10
-4.2388634112329129
 20
4.1508266741268045
 40
1.3941948780739499
 50
197.8897741900245
 51
247.86803301665242
  0
ARC
  8
_0-0_
  6
CONTINUOUS
 62
    7
 10
-4.6323549791658252
 20
3.8530405305450728
 40
1.0023798175498952
 50
262.4468302249719
 51
332.06382652491362
  0
ARC
  8
_0-0_
  6
CONTINUOUS
 62
    7
 10
-4.0972640305672314
 20
4.1705685110210453
 40
0.8327983080868821
 50
130.74271885880296
 51
198.41295850372114
  0
ARC
  8
_0-0_
  6
CONTINUOUS
 62
    7
 10
-4.5417103358046518
 20
3.9449520873907602
 40
0.3477373487968195
 50
186.17992424917963
 51
295.10456866523668
  0
ARC
  8
_0-0_
  6
CONTINUOUS
 62
    7
 10
-4.7949422096872638
 20
4.2774565478801065
 40
0.7614010678238367
 50
301.75948008481475
 51
338.629377730653
  0
ARC
  8
_0-0_
  6
CONTINUOUS
 62
    7
 10
-4.7641139815623461
 20
5.1599145779533444
 40
0.5760348468188714
 50
41.47438480282252
 51
118.79400131100765
  0
ARC
  8
_0-0_
  6
CONTINUOUS
 62
    7
 10
-1.8697341409972381
 20
3.7151670348989541
 40
1.4426215864765826
 50
120.69462539135445
 51
209.10317828587432
  0
ARC
  8
_0-0_
  6
CONTINUOUS
 62
    7
 10
-1.8034333893712926
 20
3.4417774272557011
 40
1.3941948780739499
 50
197.8897741900245
 51
247.86803301665242
  0
ARC
  8
_0-0_
  6
CONTINUOUS
 62
    7
 10
-2.1969249573042049
 20
3.1439912836739694
 40
1.0023798175498952
 50
262.4468302249719
 51
332.06382652491362
  0
ARC
  8
_0-0_
  6
CONTINUOUS
 62
    7
 10
-1.6618340087056112
 20
3.4615192641499419
 40
0.8327983080868821
 50
130.74271885880296
 51
198.41295850372114
  0
ARC
  8
_0-0_
  6
CONTINUOUS
 62
    7
 10
-2.1062803139430315
 20
3.2359028405196568
 40
0.3477373487968195
 50
186.17992424917963
 51
295.10456866523668
  0
ARC
  8
_0-0_
  6
CONTINUOUS
 62
    7
 10
-2.3595121878256435
 20
3.5684073010090032
 40
0.7614010678238367
 50
301.75948008481475
 51
338.629377730653
  0
ARC
  8
_0-0_
  6
CONTINUOUS
 62
    7
 10
-2.3286839597007258
 20
4.450865331082241
 40
0.5760348468188714
 50
41.47438480282252
 51
118.79400131100765
  0
ARC
  8
_0-0_
  6
CONTINUOUS
 62
    7
 10
-4.1818512503595286
 20
8.7093399911215101
 40
1.4426215864765826
 50
120.69462539135445
 51
209.10317828587432
  0
ARC
  8
_0-0_
  6
CONTINUOUS
 62
    7
 10
-4.1155504987335831
 20
8.4359503834782572
 40
1.3941948780739499
 50
197.8897741900245
 51
247.86803301665242
  0
ARC
  8
_0-0_
  6
CONTINUOUS
 62
    7
 10
-4.5090420666664954
 20
8.1381642398965255
 40
1.0023798175498952
 50
262.4468302249719
 51
332.06382652491362
  0
ARC
  8
_0-0_
  6
CONTINUOUS
 62
    7
 10
-3.9739511180679017
 20
8.455692220372498
 40
0.8327983080868821
 50
130.74271885880296
 51
198.41295850372114
  0
ARC
  8
_0-0_
  6
CONTINUOUS
 62
    7
 10
-4.418397423305322
 20
8.2300757967422129
 40
0.3477373487968195
 50
186.17992424917963
 51
295.10456866523668
  0
ARC
  8
_0-0_
  6
CONTINUOUS
 62
    7
 10
-4.6716292971879341
 20
8.5625802572315592
 40
0.7614010678238367
 50
301.75948008481475
 51
338.629377730653
  0
ARC
  8
_0-0_
  6
CONTINUOUS
 62
    7
 10
-4.6408010690630164
 20
9.4450382873047971
 40
0.5760348468188714
 50
41.47438480282252
 51
118.79400131100765
  0
ARC
  8
_0-0_
  6
CONTINUOUS
 62
    7
 10
-1.7464212284979084
 20
7.7536649192517615
 40
1.4426215864765826
 50
120.69462539135445
 51
209.10317828587432
  0
ARC
  8
_0-0_
  6
CONTINUOUS
 62
    7
 10
-1.6801204768719629
 20
7.4802753116085086
 40
1.3941948780739499
 50
197.8897741900245
 51
247.86803301665242
  0
ARC
  8
_0-0_
  6
CONTINUOUS
 62
    7
 10
-2.0736120448048752
 20
7.1824891680267768
 40
1.0023798175498952
 50
262.4468302249719
 51
332.06382652491362
  0
ARC
  8
_0-0_
  6
CONTINUOUS
 62
    7
 10
-1.5385210962062814
 20
7.5000171485027494
 40
0.8327983080868821
 50
130.74271885880296
 51
198.41295850372114
  0
ARC
  8
_0-0_
  6
CONTINUOUS
 62
    7
 10
-1.9829674014437018
 20
7.2744007248724643
 40
0.3477373487968195
 50
186.17992424917963
 51
295.10456866523668
  0
ARC
  8
_0-0_
  6
CONTINUOUS
 62
    7
 10
-2.2361992753263138
 20
7.6069051853618106
 40
0.7614010678238367
 50
301.75948008481475
 51
338.629377730653
  0
ARC
  8
_0-0_
  6
CONTINUOUS
 62
    7
 10
-2.2053710472013961
 20
8.4893632154350485
 40
0.5760348468188714
 50
41.47438480282252
 51
118.79400131100765
  0
ARC
  8
_0-0_
  6
CONTINUOUS
 62
    7
 10
-1.3148260347502827
 20
12.223757997352209
 40
1.4426215864765826
 50
120.69462539135445
 51
209.10317828587432
  0
ARC
  8
_0-0_
  6
CONTINUOUS
 62
    7
 10
-1.2485252831243372
 20
11.950368389708956
 40
1.3941948780739499
 50
197.8897741900245
 51
247.86803301665242
  0
ARC
  8
_0-0_
  6
CONTINUOUS
 62
    7
 10
-1.6420168510572495
 20
11.652582246127224
 40
1.0023798175498952
 50
262.4468302249719
 51
332.06382652491362
  0
ARC
  8
_0-0_
  6
CONTINUOUS
 62
    7
 10
-1.1069259024586557
 20
11.970110226603197
 40
0.8327983080868821
 50
130.74271885880296
 51
198.41295850372114
  0
ARC
  8
_0-0_
  6
CONTINUOUS
 62
    7
 10
-1.5513722076960761
 20
11.744493802972912
 40
0.3477373487968195
 50
186.17992424917963
 51
295.10456866523668
  0
ARC
  8
_0-0_
  6
CONTINUOUS
 62
    7
 10
-1.8046040815786881
 20
12.076998263462258
 40
0.7614010678238367
 50
301.75948008481475
 51
338.629377730653
  0
ARC
  8
_0-0_
  6
CONTINUOUS
 62
    7
 10
-1.7737758534537704
 20
12.959456293535496
 40
0.5760348468188714
 50
41.47438480282252
 51
118.79400131100765
  0
ARC
  8
_0-0_
  6
CONTINUOUS
 62
    7
 10
-3.6269431441125732
 20
12.871150787973647
 40
1.4426215864765826
 50
120.69462539135445
 51
209.10317828587432
  0
ARC
  8
_0-0_
  6
CONTINUOUS
 62
    7
 10
-3.5606423924866277
 20
12.597761180330394
 40
1.3941948780739499
 50
197.8897741900245
 51
247.86803301665242
  0
ARC
  8
_0-0_
  6
CONTINUOUS
 62
    7
 10
-3.95413396041954
 20
12.299975036748663
 40
1.0023798175498952
 50
262.4468302249719
 51
332.06382652491362
  0
ARC
  8
_0-0_
  6
CONTINUOUS
 62
    7
 10
-3.4190430118209463
 20
12.617503017224635
 40
0.8327983080868821
 50
130.74271885880296
 51
198.41295850372114
  0
ARC
  8
_0-0_
  6
CONTINUOUS
 62
    7
 10
-3.8634893170583666
 20
12.39188659359435
 40
0.3477373487968195
 50
186.17992424917963
 51
295.10456866523668
  0
ARC
  8
_0-0_
  6
CONTINUOUS
 62
    7
 10
-4.1167211909409787
 20
12.724391054083696
 40
0.7614010678238367
 50
301.75948008481475
 51
338.629377730653
  0
ARC
  8
_0-0_
  6
CONTINUOUS
 62
    7
 10
-4.085892962816061
 20
13.606849084156934
 40
0.5760348468188714
 50
41.47438480282252
 51
118.79400131100765
  0
ARC
  8
_0-0_
  6
CONTINUOUS
 62
    7
 10
-3.380317319113928
 20
17.217930953574765
 40
1.4426215864765826
 50
120.69462539135445
 51
209.10317828587432
  0
ARC
  8
_0-0_
  6
CONTINUOUS
 62
    7
 10
-3.3140165674879825
 20
16.944541345931512
 40
1.3941948780739499
 50
197.8897741900245
 51
247.86803301665242
  0
ARC
  8
_0-0_
  6
CONTINUOUS
 62
    7
 10
-3.7075081354208947
 20
16.64675520234978
 40
1.0023798175498952
 50
262.4468302249719
 51
332.06382652491362
  0
ARC
  8
_0-0_
  6
CONTINUOUS
 62
    7
 10
-3.172417186822301
 20
16.964283182825753
 40
0.8327983080868821
 50
130.74271885880296
 51
198.41295850372114
  0
ARC
  8
_0-0_
  6
CONTINUOUS
 62
    7
 10
-3.6168634920597214
 20
16.738666759195468
 40
0.3477373487968195
 50
186.17992424917963
 51
295.10456866523668
  0
ARC
  8
_0-0_
  6
CONTINUOUS
 62
    7
 10
-3.8700953659423334
 20
17.071171219684814
 40
0.7614010678238367
 50
301.75948008481475
 51
338.629377730653
  0
ARC
  8
_0-0_
  6
CONTINUOUS
 62
    7
 10
-3.8392671378174157
 20
17.953629249758052
 40
0.5760348468188714
 50
41.47438480282252
 51
118.79400131100765
  0
ARC
  8
_0-0_
  6
CONTINUOUS
 62
    7
 10
-0.9140590691274894
 20
16.632194619202977
 40
1.4426215864765826
 50
120.69462539135445
 51
209.10317828587432
  0
ARC
  8
_0-0_
  6
CONTINUOUS
 62
    7
 10
-0.8477583175015439
 20
16.358805011559724
 40
1.3941948780739499
 50
197.8897741900245
 51
247.86803301665242
  0
ARC
  8
_0-0_
  6
CONTINUOUS
 62
    7
 10
-1.2412498854344562
 20
16.061018867977992
 40
1.0023798175498952
 50
262.4468302249719
 51
332.06382652491362
  0
ARC
  8
_0-0_
  6
CONTINUOUS
 62
    7
 10
-0.7061589368358625
 20
16.378546848453965
 40
0.8327983080868821
 50
130.74271885880296
 51
198.41295850372114
  0
ARC
  8
_0-0_
  6
CONTINUOUS
 62
    7
 10
-1.1506052420732829
 20
16.15293042482368
 40
0.3477373487968195
 50
186.17992424917963
 51
295.10456866523668
  0
ARC
  8
_0-0_
  6
CONTINUOUS
 62
    7
 10
-1.4038371159558949
 20
16.485434885313026
 40
0.7614010678238367
 50
301.75948008481475
 51
338.629377730653
  0
ARC
  8
_0-0_
  6
CONTINUOUS
 62
    7
 10
-1.3730088878309772
 20
17.367892915386264
 40
0.5760348468188714
 50
41.47438480282252
 51
118.79400131100765
  0
ARC
  8
_0-0_
  6
CONTINUOUS
 62
    7
 10
15.138505103490274
 20
-0.3779106353602657
 40
4.5400157717414782
 50
265.81907828225826
 51
311.57888732610411
  0
ARC
  8
_0-0_
  6
CONTINUOUS
 62
    7
 10
15.524779806937801
 20
-2.5249492940911864
 40
3.5651654270108231
 50
256.13301388434252
 51
324.46212566011462
  0
ARC
  8
_0-0_
  6
CONTINUOUS
 62
    7
 10
15.329625116833427
 20
-3.0418115206843623
 40
3.0136993979609943
 50
280.6749302107815
 51
339.4466387049668
  0
ARC
  8
_0-0_
  6
CONTINUOUS
 62
    7
 10
18.242028214012578
 20
-4.2011529073949276
 40
0.436607304056714
 50
294.90167992031786
 51
101.96821772552603
  0
ARC
  8
_0-0_
  6
CONTINUOUS
 62
    7
 10
15.275257781768289
 20
-5.5185874621977007
 40
0.7646019771935251
 50
132.76847339715633
 51
217.70424322139198
  0
ARC
  8
_0-0_
  6
CONTINUOUS
 62
    7
 10
19.601822504971921
 20
2.3665128748272224
 40
0.9075834537187008
 50
90.621831862090801
 51
186.59510584304289
  0
ARC
  8
_0-0_
  6
CONTINUOUS
 62
    7
 10
19.382291939694539
 20
2.9053477419574278
 40
0.4241486972323568
 50
339.89994511897356
 51
60.372661737525085
  0
ARC
  8
_0-0_
  6
CONTINUOUS
 62
    7
 10
18.732636733052146
 20
2.7462467401440307
 40
1.0480555441535111
 50
312.27368900609144
 51
0.7291796420029605
  0
ARC
  8
_0-0_
  6
CONTINUOUS
 62
    7
 10
19.119977580922807
 20
2.6460770760427295
 40
0.7463076539466269
 50
251.96155543221562
 51
295.19111331777742
  0
ARC
  8
_0-0_
  6
CONTINUOUS
 62
    7
 10
19.220639299185251
 20
2.3460391994240979
 40
0.5270927692437287
 50
189.14408107693578
 51
230.99308456678673
  0
ARC
  8
_0-0_
  6
CONTINUOUS
 62
    7
 10
18.384383358171448
 20
2.9205138545528513
 40
0.7376817626505556
 50
296.83533664495877
 51
15.665674369307441
  0
LINE
  8
_0-0_
  6
CONTINUOUS
 62
    7
 10
12.835419959250743
 20
1.9021539999844492
 11
14.344497724953698
 21
1.6106276134281927
  0
LINE
  8
_0-0_
  6
CONTINUOUS
 62
    7
 10
12.149475520294857
 20
-0.618691813178458
 11
13.315581066519854
 21
-0.8587723668130138
  0
LINE
  8
_0-0_
  6
CONTINUOUS
 62
    7
 10
12.149475520294857
 20
-3.7054417884799591
 11
13.692850507945593
 21
-3.7740362323755505
  0
LINE
  8
_0-0_
  6
CONTINUOUS
 62
    7
 10
11.566422747182344
 20
-5.9519098260605006
 11
12.681082460485669
 21
-6.34632787846013
  0
LINE
  8
_0-0_
  6
CONTINUOUS
 62
    7
 10
18.065746306289412
 20
0.1358470696730336
 11
19.609121293940149
 21
-0.3271654266221872
  0
LINE
  8
_0-0_
  6
CONTINUOUS
 62
    7
 10
16.951086592986087
 20
-2.539336242254933
 11
18.37442130381956
 21
-3.2081320702369283
  0
ARC
  8
_0-0_
  6
CONTINUOUS
 62
    7
 10
13.797400472751207
 20
-5.0224782503305505
 40
1.2528121037635371
 50
94.787027980942838
 51
170.70382208718681
  0
ARC
  8
_0-0_
  6
CONTINUOUS
 62
    7
 10
15.898535630966649
 20
-5.325435890546089
 40
3.3755333438177191
 50
171.39016581981522
 51
197.60413740952134
  0
ARC
  8
_0-0_
  6
CONTINUOUS
 62
    7
 10
13.191201984516425
 20
-6.0458139668753859
 40
0.5920561965331753
 50
210.50254721362251
 51
283.83014443053975
  0
ARC
  8
_0-0_
  6
CONTINUOUS
 62
    7
 10
13.023427291757258
 20
-5.5310369042926055
 40
1.1327161824586853
 50
285.8465888774852
 51
349.93595031495516
  0
ARC
  8
_0-0_
  6
CONTINUOUS
 62
    7
 10
12.815413246448344
 20
-4.9365691513144014
 40
1.542412890200479
 50
329.0863152415107
 51
16.663652060686186
  0
ARC
  8
_0-0_
  6
CONTINUOUS
 62
    7
 10
13.195540789702733
 20
-4.7986657380657789
 40
1.13893923445888
 50
15.501021826324349
 51
64.110120358206245
  0
ARC
  8
_0-0_
  6
CONTINUOUS
 62
    7
 10
11.831531003319355
 20
-3.768822127687514
 40
0.5298827901354409
 50
8.741399521125528
 51
111.76883788498952
  0
ARC
  8
_0-0_
  6
CONTINUOUS
 62
    7
 10
12.001485234682491
 20
-4.8914055746856064
 40
1.6557437288336494
 50
102.78724335178842
 51
153.44930938693807
  0
ARC
  8
_0-0_
  6
CONTINUOUS
 62
    7
 10
11.627750830495728
 20
-4.6477434287744614
 40
1.2135775550881587
 50
155.85359446203006
 51
219.5385089820025
  0
ARC
  8
_0-0_
  6
CONTINUOUS
 62
    7
 10
11.352065110008624
 20
-4.7643685161180827
 40
0.9306676937484794
 50
224.81336945643577
 51
271.58381157086126
  0
ARC
  8
_0-0_
  6
CONTINUOUS
 62
    7
 10
12.522128027996843
 20
-5.4130477043037928
 40
1.0971531205993388
 50
154.46705476463811
 51
209.41591801719227
  0
ARC
  8
_0-0_
  6
CONTINUOUS
 62
    7
 10
14.070119949370877
 20
-5.6518091340170713
 40
2.6358843149335556
 50
140.14670232192537
 51
164.33621647595419
  0
ARC
  8
_0-0_
  6
CONTINUOUS
 62
    7
 10
12.389556073929384
 20
-4.1770285902621254
 40
0.4044491809218102
 50
85.135485562237179
 51
147.99461679191651
  0
ARC
  8
_0-0_
  6
CONTINUOUS
 62
    7
 10
12.017685269291775
 20
-4.7098480585016489
 40
1.057741638268032
 50
86.574767862163185
 51
140.0933146912565
  0
ARC
  8
_0-0_
  6
CONTINUOUS
 62
    7
 10
11.346920526716445
 20
-4.8299619530932745
 40
0.546223134640754
 50
148.64291477598834
 51
260.60421479633874
  0
ARC
  8
_0-0_
  6
CONTINUOUS
 62
    7
 10
14.617347406488676
 20
0.3302545901199351
 40
1.3091226174538733
 50
102.02988122775226
 51
156.31743471313624
  0
ARC
  8
_0-0_
  6
CONTINUOUS
 62
    7
 10
14.838256849735188
 20
-0.0896156151357843
 40
1.7059143148004448
 50
146.3328032134699
 51
206.79993606162776
  0
ARC
  8
_0-0_
  6
CONTINUOUS
 62
    7
 10
13.683362962820979
 20
-0.3797274413232116
 40
0.603943344929283
 50
232.48511284415065
 51
321.47700196950848
  0
ARC
  8
_0-0_
  6
CONTINUOUS
 62
    7
 10
11.860398935307501
 20
1.5322339632609783
 40
3.2410837706592854
 50
315.09186915618676
 51
336.14744139612338
  0
ARC
  8
_0-0_
  6
CONTINUOUS
 62
    7
 10
13.36299670537997
 20
0.8475685216543666
 40
1.5900645039423595
 50
336.81625487519045
 51
17.898654536678801
  0
ARC
  8
_0-0_
  6
CONTINUOUS
 62
    7
 10
14.340144616014243
 20
0.9500103537569657
 40
0.6606316018273478
 50
35.778398180851362
 51
89.622457396483711
  0
ARC
  8
_0-0_
  6
CONTINUOUS
 62
    7
 10
13.360619055483312
 20
0.7920408045372369
 40
0.9749096787086308
 50
93.657210952169081
 51
168.08760564280814
  0
ARC
  8
_0-0_
  6
CONTINUOUS
 62
    7
 10
13.921572890675435
 20
0.2750403405650558
 40
1.6765113981374899
 50
154.63318841175001
 51
199.17869547041582
  0
ARC
  8
_0-0_
  6
CONTINUOUS
 62
    7
 10
18.280103943486324
 20
1.4305671982094736
 40
6.1821277709654234
 50
196.0218047823964
 51
198.68624449012518
  0
ARC
  8
_0-0_
  6
CONTINUOUS
 62
    7
 10
12.66393384951175
 20
1.5296480616070056
 40
0.7593239020453503
 50
22.188537240503159
 51
99.095955673913338
  0
ARC
  8
_0-0_
  6
CONTINUOUS
 62
    7
 10
13.076718720222175
 20
0.6694687373827008
 40
1.6958351296214393
 50
108.31230285253469
 51
168.99214270807792
  0
ARC
  8
_0-0_
  6
CONTINUOUS
 62
    7
 10
13.551430630983873
 20
0.6368635837378917
 40
2.1688313973175108
 50
170.54141792703223
 51
211.57140803346397
  0
ARC
  8
_0-0_
  6
CONTINUOUS
 62
    7
 10
12.051650489511957
 20
-0.3139142272332406
 40
0.3940290822417036
 50
207.95914231711768
 51
313.11621326682825
  0
ARC
  8
_0-0_
  6
CONTINUOUS
 62
    7
 10
12.965538984011516
 20
0.8747062059760253
 40
1.1541062673921858
 50
101.64791733777257
 51
192.9531604202231
  0
ARC
  8
_0-0_
  6
CONTINUOUS
 62
    7
 10
12.70509051584898
 20
0.2627467908797456
 40
0.9695443085087391
 50
195.80619360067388
 51
228.58527426874852
  0
ARC
  8
_0-0_
  6
CONTINUOUS
 62
    7
 10
19.524000953994346
 20
-1.5763794645782809
 40
1.2521106919514142
 50
86.101941611668906
 51
149.69260045022821
  0
ARC
  8
_0-0_
  6
CONTINUOUS
 62
    7
 10
20.46465283537907
 20
-2.1514592148463834
 40
2.3545126531991896
 50
149.16224582016949
 51
190.75370690877156
  0
ARC
  8
_0-0_
  6
CONTINUOUS
 62
    7
 10
18.933525154709855
 20
-2.6573068591271038
 40
0.784860197280081
 50
175.13777345823692
 51
224.57265528040602
  0
ARC
  8
_0-0_
  6
CONTINUOUS
 62
    7
 10
18.708819217810571
 20
-2.7022480465069663
 40
0.6064162022462305
 50
236.53462065364613
 51
326.53462065364351
  0
ARC
  8
_0-0_
  6
CONTINUOUS
 62
    7
 10
17.767486833529745
 20
-1.5729668859522405
 40
2.0583468524227464
 50
314.67596526179432
 51
354.09306609692197
  0
ARC
  8
_0-0_
  6
CONTINUOUS
 62
    7
 10
15.345099235038532
 20
-1.4751253496071968
 40
4.4805197224634936
 50
356.03683126347141
 51
10.796345120071434
  0
ARC
  8
_0-0_
  6
CONTINUOUS
 62
    7
 10
17.05397825883901
 20
-1.6476084716080379
 40
2.8761651143279825
 50
20.596028311136056
 51
27.328949638020344
  0
ARC
  8
_0-0_
  6
CONTINUOUS
 62
    7
 10
18.902044905240786
 20
-1.7583993007782368
 40
2.0706435373032859
 50
113.82117556707063
 51
153.19015725039594
  0
ARC
  8
_0-0_
  6
CONTINUOUS
 62
    7
 10
19.105336188740893
 20
-1.6501986263947828
 40
2.2113092557486875
 50
158.07396693745088
 51
204.19487632450412
  0
ARC
  8
_0-0_
  6
CONTINUOUS
 62
    7
 10
17.599666760773005
 20
0.2238064593811799
 40
0.3239135038101057
 50
344.24335371761759
 51
132.74811284397305
  0
ARC
  8
_0-0_
  6
CONTINUOUS
 62
    7
 10
18.392656798587325
 20
-1.4930052901418236
 40
2.2015070412988922
 50
117.39184695077017
 51
175.98689140010737
  0
ARC
  8
_0-0_
  6
CONTINUOUS
 62
    7
 10
18.185786583107074
 20
-1.2188931972647339
 40
1.9928574865762863
 50
183.45331625053362
 51
217.65877418863161
  0
ARC
  8
_0-0_
  6
CONTINUOUS
 62
    7
 10
16.864708404376813
 20
-2.0969655925023147
 40
0.4255425680158169
 50
232.91631312428365
 51
286.47399393818688
  0
ARC
  8
_0-0_
  6
CONTINUOUS
 62
    7
 10
18.438891398240145
 20
-1.4787272141729488
 40
1.8978037549039328
 50
124.54801310360676
 51
172.65307192971244
  0
ARC
  8
_0-0_
  6
CONTINUOUS
 62
    7
 10
19.00891990985977
 20
-1.265194446892437
 40
2.5307590998351763
 50
192.64250637271158
 51
202.84683687740269
  0
ARC
  8
_0-0_
  6
CONTINUOUS
 62
    7
 10
18.325145139074408
 20
-3.4721677173401702
 40
5.3509546420239795
 50
152.20150574999903
 51
183.30991156012573
  0
ARC
  8
_0-0_
  6
CONTINUOUS
 62
    7
 10
19.421559528362707
 20
-4.011725769403597
 40
6.5139730319216822
 50
112.65195728977254
 51
133.37202444189427
  0
ENDBLK
  0
ENDSEC
  0
SECTION
  2
ENTITIES
  0
INSERT
  2
-001-3
  8
_0-0_
 10
145.13265306122449
 20
109.20918367346938
 41
1
 42
1
 50
0
  0
ENDSEC
  0
EOF
