  0
SECTION
  2
HEADER
  9
$ACADVER
  1
AC1009
  9
$INSBASE
 10
0
 20
0
 30
0
  9
$EXTMIN
 10
0
 20
0
  9
$EXTMAX
 10
297
 20
210
  9
$LIMMIN
 10
0
 20
0
  9
$LIMMAX
 10
297
 20
210
  9
$LTSCALE
 40
1
  0
ENDSEC
  0
SECTION
  2
TABLES
  0
TABLE
  2
LTYPE
 70
     9
  0
LTYPE
  2
CONTINUOUS
 70
    64
  3
実線
 72
    65
 73
     0
 40
0.0
  0
LTYPE
  2
DASHED1
 70
    64
  3
--  --  --  --  --  --  --  --  
 72
    65
 73
     2
 40
2.5
 49
1.25
 49
-1.25
  0
LTYPE
  2
DASHED2
 70
    64
  3
----    ----    ----    ----    
 72
    65
 73
     2
 40
5.0
 49
2.5
 49
-2.5
  0
LTYPE
  2
DASHED3
 70
    64
  3
------  ------  ------  ------  
 72
    65
 73
     2
 40
5.0
 49
3.75
 49
-1.25
  0
LTYPE
  2
CENTER1
 70
    64
  3
----- - ----- - ----- - ----- - 
 72
    65
 73
     4
 40
10.0
 49
6.25
 49
-1.25
 49
1.25
 49
-1.25
  0
LTYPE
  2
CENTER2
 70
    64
  3
----------  --  ----------  --  
 72
    65
 73
     4
 40
20.0
 49
12.5
 49
-2.5
 49
2.5
 49
-2.5
  0
LTYPE
  2
PHANTOM1
 70
    64
  3
--- - - --- - - --- - - --- - - 
 72
    65
 73
     6
 40
10.0
 49
3.25
 49
-1.25
 49
1.25
 49
-1.25
 49
1.25
 49
-1.25
  0
LTYPE
  2
PHANTOM2
 70
    64
  3
--------  -  -  --------  -  -  
 72
    65
 73
     6
 40
20.0
 49
10.0
 49
-2.5
 49
1.25
 49
-2.5
 49
1.25
 49
-2.5
  0
LTYPE
  2
DOT
 70
    64
  3
-   -   -   -   -   -   -   -   
 72
    65
 73
     2
 40
2.5
 49
0.625
 49
-1.875
  0
LTYPE
  2
DUMMY
 70
    64
  3
ダミー
 72
    65
 73
     0
 40
0.0
  0
LTYPE
  2
RAND1
 70
    64
  3
ランダム線1
 72
    65
 73
     4
 40
10.0
 49
1.0
 49
-2.0
 49
3.0
 49
-4.0
  0
LTYPE
  2
RAND2
 70
    64
  3
ランダム線2
 72
    65
 73
     4
 40
14.0
 49
2.0
 49
-3.0
 49
4.0
 49
-5.0
  0
LTYPE
  2
RAND3
 70
    64
  3
ランダム線3
 72
    65
 73
     4
 40
18.0
 49
3.0
 49
-4.0
 49
5.0
 49
-6.0
  0
LTYPE
  2
RAND4
 70
    64
  3
ランダム線4
 72
    65
 73
     4
 40
22.0
 49
4.0
 49
-5.0
 49
6.0
 49
-7.0
  0
LTYPE
  2
RAND5
 70
    64
  3
ランダム線5
 72
    65
 73
     4
 40
26.0
 49
5.0
 49
-6.0
 49
7.0
 49
-8.0
  0
LTYPE
  2
LONG1
 70
    64
  3
----------  --  ----------  --  
 72
    65
 73
     4
 40
40.0
 49
32.5
 49
-2.5
 49
2.5
 49
-2.5
  0
LTYPE
  2
LONG2
 70
    64
  3
--------  -  -  --------  -  -  
 72
    65
 73
     6
 40
40.0
 49
30.0
 49
-2.5
 49
1.25
 49
-2.5
 49
1.25
 49
-2.5
  0
LTYPE
  2
LONG3
 70
    64
  3
+++++++++++++++..+++++++++++++++
 72
    65
 73
     2
 40
40.0
 49
37.5
 49
-2.5
  0
LTYPE
  2
LONG4
 70
    64
  3
+++++++++++++++..+++++++++++++++
 72
    65
 73
     2
 40
80.0
 49
75.0
 49
-5.0
  0
LTYPE
  2
LONG5
 70
    64
  3
----------  --  ----------  --  
 72
    65
 73
     4
 40
60.0
 49
37.5
 49
-7.5
 49
7.5
 49
-7.5
  0
LTYPE
  2
dashed
 70
   64
  3
-------   -------------   ------
 72
   65
 73
    2
 40
7.5
 49
6
 49
-1.5
  0
LTYPE
  2
dashed_spaced
 70
   64
  3
----        --------        ----
 72
   65
 73
    2
 40
12
 49
6
 49
-6
  0
LTYPE
  2
long_dashed_dotted
 70
   64
  3
------------- --- --------------
 72
   65
 73
    4
 40
15.25
 49
12
 49
-1.5
 49
0.25
 49
-1.5
  0
LTYPE
  2
long_dashed_double-dotted
 70
   64
  3
----------- --- --- ------------
 72
   65
 73
    6
 40
17
 49
12
 49
-1.5
 49
0.25
 49
-1.5
 49
0.25
 49
-1.5
  0
LTYPE
  2
long_dashed_triplicate-dotted
 70
   64
  3
--------- --- --- --- ----------
 72
   65
 73
    8
 40
18.75
 49
12
 49
-1.5
 49
0.25
 49
-1.5
 49
0.25
 49
-1.5
 49
0.25
 49
-1.5
  0
LTYPE
  2
dotted
 70
   64
  3
   -       -       -       -    
 72
   65
 73
    2
 40
1.75
 49
0.25
 49
-1.5
  0
LTYPE
  2
chain
 70
   64
  3
-------------- -- --------------
 72
   65
 73
    4
 40
18.5
 49
12
 49
-1.5
 49
3.5
 49
-1.5
  0
LTYPE
  2
chain_double_dash
 70
   64
  3
------------ -- -- -------------
 72
   65
 73
    6
 40
23.5
 49
12
 49
-1.5
 49
3.5
 49
-1.5
 49
3.5
 49
-1.5
  0
LTYPE
  2
dashed_dotted
 70
   64
  3
-----------     -     ----------
 72
   65
 73
    4
 40
9.25
 49
6
 49
-1.5
 49
0.25
 49
-1.5
  0
LTYPE
  2
double-dashed_dotted
 70
   64
  3
------   -----------   -   -----
 72
   65
 73
    6
 40
16.75
 49
6
 49
-1.5
 49
6
 49
-1.5
 49
0.25
 49
-1.5
  0
LTYPE
  2
dashed_double-dotted
 70
   64
  3
---------    -    -    ---------
 72
   65
 73
    6
 40
11
 49
6
 49
-1.5
 49
0.25
 49
-1.5
 49
0.25
 49
-1.5
  0
LTYPE
  2
double-dashed_double-dotted
 70
   64
  3
-----   ---------   -   -   ----
 72
   65
 73
    8
 40
18.5
 49
6
 49
-1.5
 49
6
 49
-1.5
 49
0.25
 49
-1.5
 49
0.25
 49
-1.5
  0
LTYPE
  2
dashed_triplicate-dotted
 70
   64
  3
-------    -    -    -    ------
 72
   65
 73
    8
 40
12.75
 49
6
 49
-1.5
 49
0.25
 49
-1.5
 49
0.25
 49
-1.5
 49
0.25
 49
-1.5
  0
LTYPE
  2
double-dashed_triplicate-dotted
 70
   64
  3
-----  ---------  -  -  -  -----
 72
   65
 73
   10
 40
20.25
 49
6
 49
-1.5
 49
6
 49
-1.5
 49
0.25
 49
-1.5
 49
0.25
 49
-1.5
 49
0.25
 49
-1.5
  0
LTYPE
  2
undefined
 70
   64
  3
--------------------------------
 72
   65
 73
    0
 40
0
  0
LTYPE
  2
_
 70
   64
  3
                                
 72
   65
 73
    0
 40
0
  0
LTYPE
  2
__18
 70
   64
  3
                                
 72
   65
 73
    0
 40
0
  0
LTYPE
  2
__19
 70
   64
  3
                                
 72
   65
 73
    0
 40
0
  0
LTYPE
  2
__20
 70
   64
  3
                                
 72
   65
 73
    0
 40
0
  0
LTYPE
  2
__21
 70
   64
  3
                                
 72
   65
 73
    0
 40
0
  0
LTYPE
  2
__22
 70
   64
  3
                                
 72
   65
 73
    0
 40
0
  0
LTYPE
  2
__23
 70
   64
  3
                                
 72
   65
 73
    0
 40
0
  0
LTYPE
  2
__24
 70
   64
  3
                                
 72
   65
 73
    0
 40
0
  0
LTYPE
  2
__25
 70
   64
  3
                                
 72
   65
 73
    0
 40
0
  0
LTYPE
  2
__26
 70
   64
  3
                                
 72
   65
 73
    0
 40
0
  0
LTYPE
  2
__27
 70
   64
  3
                                
 72
   65
 73
    0
 40
0
  0
LTYPE
  2
__28
 70
   64
  3
                                
 72
   65
 73
    0
 40
0
  0
LTYPE
  2
__29
 70
   64
  3
                                
 72
   65
 73
    0
 40
0
  0
LTYPE
  2
__30
 70
   64
  3
                                
 72
   65
 73
    0
 40
0
  0
LTYPE
  2
__31
 70
   64
  3
                                
 72
   65
 73
    0
 40
0
  0
LTYPE
  2
__32
 70
   64
  3
                                
 72
   65
 73
    0
 40
0
  0
ENDTAB
  0
TABLE
  2
STYLE
  5
3
100
AcDbSymbolTable
 70
     1
  0
STYLE
  5
10
100
AcDbSymbolTableRecord
100
AcDbTextStyleTableRecord
  2
STANDARD
 70
     0
 40
0.0
 41
1.0
 50
0.0
 71
     0
 42
0.2
  3
txt
  4
bigfont.shx
  0
STYLE
  5
26
100
AcDbSymbolTableRecord
100
AcDbTextStyleTableRecord
  2
TATEGAKI
 70
    68
 40
0.0
 41
1.0
 50
0.0
 71
     0
 42
1.0
  3
txt
  4
bigfont.shx
  0
ENDTAB
  0
TABLE
  2
LAYER
 70
    2
  0
LAYER
  2
_0-0_
 70
   64
 62
    7
  6
CONTINUOUS
  0
LAYER
  2
ADD_LINE
 70
   64
 62
    7
  6
CONTINUOUS
  0
ENDTAB
  0
ENDSEC
  0
SECTION
  2
BLOCKS
  0
BLOCK
  2
-000-2
 70
   64
 10
0
 20
0
 30
0
  0
LINE
  8
_0-0_
  6
CONTINUOUS
 62
    7
 10
1.7774656323786502
 20
27.06279606956862
 11
4.7492437495858582
 21
27.06279606956862
  0
LINE
  8
_0-0_
  6
CONTINUOUS
 62
    7
 10
5.1207160142367485
 20
26.611722605349669
 11
4.8288449491539041
 21
22.764331292893914
  0
LINE
  8
_0-0_
  6
CONTINUOUS
 62
    7
 10
5.4391208125089605
 20
27.06279606956862
 11
5.2268509469941478
 21
22.578595160568469
  0
LINE
  8
_0-0_
  6
CONTINUOUS
 62
    7
 10
1.5651957668638516
 20
26.983194870000574
 11
1.4059933677277456
 21
26.479053939402917
  0
LINE
  8
_0-0_
  6
CONTINUOUS
 62
    7
 10
1.4059933677277456
 20
26.479053939402917
 11
1.6447969664318975
 21
26.319851540266825
  0
LINE
  8
_0-0_
  6
CONTINUOUS
 62
    7
 10
1.6447969664318975
 20
26.319851540266825
 11
1.5386620336744983
 21
25.258502212692818
  0
LINE
  8
_0-0_
  6
CONTINUOUS
 62
    7
 10
1.5386620336744983
 20
25.258502212692818
 11
3.581759489254452
 21
24.568625149769716
  0
LINE
  8
_0-0_
  6
CONTINUOUS
 62
    7
 10
3.581759489254452
 20
24.568625149769716
 11
3.4490908233076993
 21
22.896999958840667
  0
LINE
  8
_0-0_
  6
CONTINUOUS
 62
    7
 10
3.4490908233076993
 20
22.896999958840667
 11
1.4059933677277456
 21
22.392859028243024
  0
LINE
  8
_0-0_
  6
CONTINUOUS
 62
    7
 10
1.4059933677277456
 20
22.392859028243024
 11
1.3794596345384065
 21
21.251908501100971
  0
LINE
  8
_0-0_
  6
CONTINUOUS
 62
    7
 10
1.3794596345384065
 20
21.251908501100971
 11
1.5386620336744983
 21
21.145773568343571
  0
LINE
  8
_0-0_
  6
CONTINUOUS
 62
    7
 10
1.5386620336744983
 20
21.145773568343571
 11
5.2003172138048086
 21
21.145773568343571
  0
LINE
  8
_0-0_
  6
CONTINUOUS
 62
    7
 10
5.2003172138048086
 20
21.145773568343571
 11
1.3794596345384065
 21
21.35804343385837
  0
ARC
  8
_0-0_
  6
CONTINUOUS
 62
    7
 10
1.7299497273370292
 20
26.866678062542505
 40
0.2017920561167347
 50
76.380691294922656
 51
144.73139914424101
  0
ARC
  8
_0-0_
  6
CONTINUOUS
 62
    7
 10
4.752622333270395
 20
26.687082532696053
 40
0.3757287274311217
 50
348.4297043816652
 51
90.515215315020185
  0
ARC
  8
_0-0_
  6
CONTINUOUS
 62
    7
 10
5.0546457276561796
 20
27.10452311147769
 40
0.3867327719485836
 50
353.80593836083244
 51
92.205504489504008
  0
LINE
  8
_0-0_
  6
CONTINUOUS
 62
    7
 10
2.4296546538926691
 20
27.382214895860798
 11
5.0397627773087379
 21
27.490969401003142
  0
ARC
  8
_0-0_
  6
CONTINUOUS
 62
    7
 10
2.410220462421762
 20
21.472104093583795
 40
5.9101427548739824
 50
89.811595218188501
 51
113.03653946581352
  0
ARC
  8
_0-0_
  6
CONTINUOUS
 62
    7
 10
1.7634078971812244
 20
23.204575377376315
 40
4.0635590228200327
 50
114.20288679376111
 51
177.1498245716308
  0
ARC
  8
_0-0_
  6
CONTINUOUS
 62
    7
 10
1.0183485397414387
 20
23.814808858329229
 40
2.8365533674847878
 50
127.90311745958115
 51
186.55045131171875
  0
ARC
  8
_0-0_
  6
CONTINUOUS
 62
    7
 10
1.9438197960989783
 20
22.873110696045842
 40
4.1509180755057997
 50
108.81641270325792
 51
129.99796541820925
  0
LINE
  8
_0-0_
  6
CONTINUOUS
 62
    7
 10
0.6049957342823688
 20
26.802190868435005
 11
0.9554269175187926
 21
26.536346522531517
  0
LINE
  8
_0-0_
  6
CONTINUOUS
 62
    7
 10
0.9554269175187926
 20
26.536346522531517
 11
0.8829239140905684
 21
22.95953168673914
  0
LINE
  8
_0-0_
  6
CONTINUOUS
 62
    7
 10
0.8829239140905684
 20
22.95953168673914
 11
1.233355097326978
 21
22.983699354548548
  0
LINE
  8
_0-0_
  6
CONTINUOUS
 62
    7
 10
1.233355097326978
 20
22.983699354548548
 11
0.701666405520001
 21
22.00490880826753
  0
LINE
  8
_0-0_
  6
CONTINUOUS
 62
    7
 10
0.701666405520001
 20
22.00490880826753
 11
-0.2892079746657287
 21
21.279878773985288
  0
LINE
  8
_0-0_
  6
CONTINUOUS
 62
    7
 10
-0.2892079746657287
 20
21.279878773985288
 11
-0.5792199883786253
 21
21.291962607889985
  0
LINE
  8
_0-0_
  6
CONTINUOUS
 62
    7
 10
-0.5792199883786253
 20
21.291962607889985
 11
-0.5913038222833222
 21
21.956573472648714
  0
LINE
  8
_0-0_
  6
CONTINUOUS
 62
    7
 10
-0.5913038222833222
 20
21.956573472648714
 11
-2.1017830603713179
 21
21.932405804839306
  0
LINE
  8
_0-0_
  6
CONTINUOUS
 62
    7
 10
-1.7996872127537245
 20
23.491220378546117
 11
-0.9538188394244429
 21
23.491220378546117
  0
LINE
  8
_0-0_
  6
CONTINUOUS
 62
    7
 10
-1.7996872127537245
 20
23.491220378546117
 11
-2.1017830603713179
 21
23.43080120902259
  0
LINE
  8
_0-0_
  6
CONTINUOUS
 62
    7
 10
-2.2951244028465823
 20
23.406633541213182
 11
-2.1863698977042532
 21
23.346214371689669
  0
LINE
  8
_0-0_
  6
CONTINUOUS
 62
    7
 10
-2.1863698977042532
 20
23.346214371689669
 11
-1.1471601818997073
 21
23.346214371689669
  0
LINE
  8
_0-0_
  6
CONTINUOUS
 62
    7
 10
-1.1471601818997073
 20
23.346214371689669
 11
-0.9900703411385478
 21
23.454968876831998
  0
LINE
  8
_0-0_
  6
CONTINUOUS
 62
    7
 10
-0.9900703411385478
 20
23.454968876831998
 11
-0.9900703411385478
 21
23.080370025786181
  0
LINE
  8
_0-0_
  6
CONTINUOUS
 62
    7
 10
-0.9900703411385478
 20
23.080370025786181
 11
-1.1592440158044184
 21
22.971615520643851
  0
LINE
  8
_0-0_
  6
CONTINUOUS
 62
    7
 10
-1.1592440158044184
 20
22.971615520643851
 11
-1.1471601818997073
 21
23.346214371689669
  0
LINE
  8
_0-0_
  6
CONTINUOUS
 62
    7
 10
-1.1592440158044184
 20
22.971615520643851
 11
-7.3743899884410808
 21
23.074780225068366
  0
LINE
  8
_0-0_
  6
CONTINUOUS
 62
    7
 10
-2.841554823997626
 20
23.610305054622856
 11
-10.53016130545867
 21
23.744186262011482
  0
LINE
  8
_0-0_
  6
CONTINUOUS
 62
    7
 10
-10.233710060526718
 20
23.533801507543643
 11
-2.3538447113676284
 21
23.294727922921098
  0
LINE
  8
_0-0_
  6
CONTINUOUS
 62
    7
 10
0.4385347570236888
 20
26.718261654715945
 11
0.7158601151858476
 21
26.4600621833236
  0
LINE
  8
_0-0_
  6
CONTINUOUS
 62
    7
 10
0.7445489453405542
 20
26.4791880700934
 11
0.8784301527291802
 21
26.507876900248107
  0
LINE
  8
_0-0_
  6
CONTINUOUS
 62
    7
 10
0.7158601151858476
 20
26.4600621833236
 11
0.7146825128157274
 21
22.958786391612009
  0
LINE
  8
_0-0_
  6
CONTINUOUS
 62
    7
 10
0.7146825128157274
 20
22.958786391612009
 11
0.8829239140905684
 21
22.95953168673914
  0
LINE
  8
_0-0_
  6
CONTINUOUS
 62
    7
 10
-0.9900703411385478
 20
23.080370025786181
 11
0.6847551698235037
 21
23.089378433759947
  0
LINE
  8
_0-0_
  6
CONTINUOUS
 62
    7
 10
4.8288449491539041
 20
22.764331292893914
 11
4.8364938431106737
 21
22.523479584452133
  0
LINE
  8
_0-0_
  6
CONTINUOUS
 62
    7
 10
4.8364938431106737
 20
22.523479584452133
 11
5.3262140011655106
 21
22.011994086039294
  0
LINE
  8
_0-0_
  6
CONTINUOUS
 62
    7
 10
5.3262140011655106
 20
22.011994086039294
 11
7.9489375143036796
 21
21.96846340532332
  0
LINE
  8
_0-0_
  6
CONTINUOUS
 62
    7
 10
8.0795295564516323
 20
21.674631310490412
 11
6.7083131138980718
 21
2.5320144656355197
  0
LINE
  8
_0-0_
  6
CONTINUOUS
 62
    7
 10
5.2268509469941478
 20
22.578595160568469
 11
5.3600403900021547
 21
22.432467189897849
  0
LINE
  8
_0-0_
  6
CONTINUOUS
 62
    7
 10
5.3600403900021547
 20
22.432467189897849
 11
10.674757575931622
 21
22.395729513497415
  0
LINE
  8
_0-0_
  6
CONTINUOUS
 62
    7
 10
5.2268509469941478
 20
22.578595160568469
 11
10.674757575931622
 21
22.395729513497415
  0
LINE
  8
_0-0_
  6
CONTINUOUS
 62
    7
 10
11.642183054476391
 20
21.636484201221776
 11
11.017642555669013
 21
13.860342696463221
  0
LINE
  8
_0-0_
  6
CONTINUOUS
 62
    7
 10
10.993150771402057
 20
21.526271172020472
 11
10.57679043886381
 21
13.93381804926409
  0
LINE
  8
_0-0_
  6
CONTINUOUS
 62
    7
 10
8.886857324443838
 20
21.82017258322395
 11
10.503315086062941
 21
21.869156151757863
  0
LINE
  8
_0-0_
  6
CONTINUOUS
 62
    7
 10
8.3970216391047074
 20
21.085419055215269
 11
7.0499735044221268
 21
2.5696301493964668
  0
ARC
  8
_0-0_
  6
CONTINUOUS
 62
    7
 10
7.8158891346382262
 20
21.733394290911562
 40
0.2701099033392278
 50
347.43470257826971
 51
60.490275370886422
  0
ARC
  8
_0-0_
  6
CONTINUOUS
 62
    7
 10
9.2087007844785376
 20
21.144571597276709
 40
0.8138317137265673
 50
143.27382281585005
 51
184.16816183144005
  0
ARC
  8
_0-0_
  6
CONTINUOUS
 62
    7
 10
8.9450723845443321
 20
21.334918671368854
 40
0.4887334162845593
 50
96.840979796455727
 51
142.67781536813044
  0
ARC
  8
_0-0_
  6
CONTINUOUS
 62
    7
 10
10.411018886193787
 20
21.215979315405306
 40
0.6596654970951698
 50
28.058808513036979
 51
81.957151089844288
  0
ARC
  8
_0-0_
  6
CONTINUOUS
 62
    7
 10
10.609328926113093
 20
21.316394442227619
 40
1.081316375669048
 50
17.218627095210771
 51
86.531008962198172
  0
LINE
  8
_0-0_
  6
CONTINUOUS
 62
    7
 10
10.57679043886381
 20
13.93381804926409
 11
10.663285486506012
 21
13.746768268298979
  0
LINE
  8
_0-0_
  6
CONTINUOUS
 62
    7
 10
10.663285486506012
 20
13.746768268298979
 11
10.987762628386704
 21
13.744193052887226
  0
LINE
  8
_0-0_
  6
CONTINUOUS
 62
    7
 10
10.987762628386704
 20
13.744193052887226
 11
11.017642555669013
 21
13.860342696463221
  0
LINE
  8
_0-0_
  6
CONTINUOUS
 62
    7
 10
7.8857434371496709
 20
13.288773588509628
 11
9.2451947322195167
 21
13.075145527855796
  0
LINE
  8
_0-0_
  6
CONTINUOUS
 62
    7
 10
9.2451947322195167
 20
13.075145527855796
 11
13.59543887644304
 21
13.308194321296341
  0
LINE
  8
_0-0_
  6
CONTINUOUS
 62
    7
 10
13.964432799390565
 20
12.919779665562103
 11
13.07107909120181
 21
2.8986815476186365
  0
LINE
  8
_0-0_
  6
CONTINUOUS
 62
    7
 10
13.323548617429068
 20
2.9569437459787693
 11
14.430530386271656
 21
13.152828459002649
  0
LINE
  8
_0-0_
  6
CONTINUOUS
 62
    7
 10
14.430530386271656
 20
13.152828459002649
 11
14.003274264963991
 21
13.094566260642509
  0
LINE
  8
_0-0_
  6
CONTINUOUS
 62
    7
 10
11.090164346957167
 20
14.240389495058523
 11
13.478914479722761
 21
13.929657770471124
  0
ARC
  8
_0-0_
  6
CONTINUOUS
 62
    7
 10
13.078910031841787
 20
12.020474442487483
 40
1.9506369570412714
 50
57.072946385908033
 51
78.166783510173204
  0
ARC
  8
_0-0_
  6
CONTINUOUS
 62
    7
 10
12.478746741207388
 20
11.783666797539723
 40
2.5038815703108059
 50
38.069866503335938
 51
48.458724318806965
  0
ARC
  8
_0-0_
  6
CONTINUOUS
 62
    7
 10
14.30429562315804
 20
0.9274771697681671
 40
12.400993309953332
 50
89.327018661696854
 51
93.2768866834611
  0
LINE
  8
_0-0_
  6
CONTINUOUS
 62
    7
 10
14.449951119058383
 20
13.327615054083054
 11
14.430530386271656
 21
13.152828459002649
  0
LINE
  8
_0-0_
  6
CONTINUOUS
 62
    7
 10
9.3228776633663699
 20
12.861517467201963
 11
13.634280342016467
 21
13.036304062282369
  0
LINE
  8
_0-0_
  6
CONTINUOUS
 62
    7
 10
13.634280342016467
 20
13.036304062282369
 11
12.818609564974551
 21
2.937523013192056
  0
LINE
  8
_0-0_
  6
CONTINUOUS
 62
    7
 10
9.3228776633663699
 20
12.861517467201963
 11
8.7985178781251392
 21
4.8990170246499858
  0
LINE
  8
_0-0_
  6
CONTINUOUS
 62
    7
 10
9.1286703354992511
 20
12.84209673441525
 11
9.3228776633663699
 21
12.861517467201963
  0
LINE
  8
_0-0_
  6
CONTINUOUS
 62
    7
 10
9.1286703354992511
 20
12.84209673441525
 11
8.5848898174713071
 21
5.0932243525171046
  0
LINE
  8
_0-0_
  6
CONTINUOUS
 62
    7
 10
8.5072068863244539
 20
12.84209673441525
 11
9.0704081371391112
 21
12.861517467201963
  0
LINE
  8
_0-0_
  6
CONTINUOUS
 62
    7
 10
9.0704081371391112
 20
12.861517467201963
 11
8.5848898174713071
 21
5.0932243525171046
  0
LINE
  8
_0-0_
  6
CONTINUOUS
 62
    7
 10
8.5072068863244539
 20
12.84209673441525
 11
8.1187922305902163
 21
5.5787426721849087
  0
LINE
  8
_0-0_
  6
CONTINUOUS
 62
    7
 10
8.5072068863244539
 20
12.84209673441525
 11
7.8469019715762443
 21
12.997462596708942
  0
LINE
  8
_0-0_
  6
CONTINUOUS
 62
    7
 10
6.8564445994539227
 20
2.4325839607375386
 11
15.751140215768075
 21
2.9957852115521888
  0
LINE
  8
_0-0_
  6
CONTINUOUS
 62
    7
 10
6.0407738224120067
 20
0.9760290017341262
 11
5.5552555027442025
 21
-6.4038494572164879
  0
LINE
  8
_0-0_
  6
CONTINUOUS
 62
    7
 10
6.332084814212692
 20
-7.3943068293388095
 11
7.9051641699363842
 21
-7.1806787686849773
  0
LINE
  8
_0-0_
  6
CONTINUOUS
 62
    7
 10
16.566810992809991
 20
2.1801144345102728
 11
16.178396337075753
 21
-2.6168065638076214
  0
ARC
  8
_0-0_
  6
CONTINUOUS
 62
    7
 10
7.7807964273629295
 20
0.9582816400350466
 40
1.7401131097108256
 50
122.08671540424504
 51
179.41563192266068
  0
ARC
  8
_0-0_
  6
CONTINUOUS
 62
    7
 10
15.750107453779179
 20
2.1790816725213773
 40
0.8167041920198374
 50
0.0724533062935611
 51
89.927546693706432
  0
ARC
  8
_0-0_
  6
CONTINUOUS
 62
    7
 10
6.500152314566364
 20
-6.4626215502675208
 40
0.9467228442967216
 50
176.4408173116764
 51
259.77433644335315
  0
ARC
  8
_0-0_
  6
CONTINUOUS
 62
    7
 10
0.9083741862024084
 20
-1.1187879060420158
 40
9.849180291133063
 50
36.726407388573932
 51
49.031399818103118
  0
ARC
  8
_0-0_
  6
CONTINUOUS
 62
    7
 10
4.1544249291117694
 20
2.291538657138247
 40
5.2680275479880594
 50
16.058893604913624
 51
28.076905519905811
  0
ARC
  8
_0-0_
  6
CONTINUOUS
 62
    7
 10
30.475061910411327
 20
9.692994783690601
 40
22.073593570526
 50
195.62199116488151
 51
198.77509127525079
  0
ARC
  8
_0-0_
  6
CONTINUOUS
 62
    7
 10
5.7607293224928213
 20
2.5856097714726616
 40
2.4353061764407715
 50
358.11819910561843
 51
53.766391874124778
  0
LINE
  8
_0-0_
  6
CONTINUOUS
 62
    7
 10
8.3052259854655262
 20
-7.2186993704844227
 11
6.2332787027591934
 21
-35.756319944293075
  0
LINE
  8
_0-0_
  6
CONTINUOUS
 62
    7
 10
6.2332787027591934
 20
-35.756319944293075
 11
-1.4467392251389697
 21
-30.065371407792995
  0
LINE
  8
_0-0_
  6
CONTINUOUS
 62
    7
 10
6.2332787027591934
 20
-35.756319944293075
 11
13.637036992963175
 21
-33.435738987661978
  0
LINE
  8
_0-0_
  6
CONTINUOUS
 62
    7
 10
13.637036992963175
 20
-33.435738987661978
 11
16.212996816371444
 21
-4.7677309033237734
  0
ARC
  8
_0-0_
  6
CONTINUOUS
 62
    7
 10
15.306216971063904
 20
-5.1941748124054499
 40
6.8055670947448004
 50
137.03597391812224
 51
175.33010008782912
  0
ARC
  8
_0-0_
  6
CONTINUOUS
 62
    7
 10
13.054334445906591
 20
-2.6629863423278479
 40
3.4472321951376772
 50
90.268481367548972
 51
142.32109877361904
  0
ARC
  8
_0-0_
  6
CONTINUOUS
 62
    7
 10
13.290923705903197
 20
-1.6833603824096102
 40
2.4804782887601844
 50
39.391561203979933
 51
95.848168692100671
  0
ARC
  8
_0-0_
  6
CONTINUOUS
 62
    7
 10
11.535735326360836
 20
-2.8698196697239666
 40
4.5941055423277195
 50
6.387697468469713
 51
36.934604172223516
  0
ARC
  8
_0-0_
  6
CONTINUOUS
 62
    7
 10
7.1158569554196021
 20
-3.9823485986840481
 40
9.130979082998719
 50
355.06572492862136
 51
10.242666098192384
  0
ARC
  8
_0-0_
  6
CONTINUOUS
 62
    7
 10
11.962578776000171
 20
-3.147466150669743
 40
2.9893464924356046
 50
245.54119933109794
 51
314.537310243207
  0
ARC
  8
_0-0_
  6
CONTINUOUS
 62
    7
 10
11.797474463501146
 20
-4.0599131979761864
 40
3.3969844647893868
 50
239.44891501894153
 51
290.55756365191576
  0
ARC
  8
_0-0_
  6
CONTINUOUS
 62
    7
 10
12.635615127809544
 20
-5.078668754648298
 40
2.1908134694669426
 50
279.31750909871471
 51
334.78094404849901
  0
ARC
  8
_0-0_
  6
CONTINUOUS
 62
    7
 10
14.191085353182473
 20
-5.7572947649392958
 40
0.4968566701156514
 50
329.1430167550879
 51
105.38978704686564
  0
ARC
  8
_0-0_
  6
CONTINUOUS
 62
    7
 10
10.635575840019598
 20
-6.5661883668810077
 40
0.7033337628485955
 50
82.705861748621132
 51
216.57790733384559
  0
ARC
  8
_0-0_
  6
CONTINUOUS
 62
    7
 10
15.388908127113353
 20
0.5375972514588696
 40
0.7728308160505488
 50
79.102854184513788
 51
153.29737549818111
  0
ARC
  8
_0-0_
  6
CONTINUOUS
 62
    7
 10
15.239033059782571
 20
0.6775644964022546
 40
0.5789259118060261
 50
159.01659425823414
 51
222.37642721332338
  0
ARC
  8
_0-0_
  6
CONTINUOUS
 62
    7
 10
15.243237895480078
 20
0.7119198728665736
 40
0.6055547315302333
 50
243.95320744226893
 51
317.22143519420405
  0
ARC
  8
_0-0_
  6
CONTINUOUS
 62
    7
 10
15.141028743709683
 20
0.7983943771526114
 40
0.739329134261435
 50
317.68224928849907
 51
7.7547539678685942
  0
ARC
  8
_0-0_
  6
CONTINUOUS
 62
    7
 10
15.424482579661301
 20
0.8594762440243783
 40
0.4507763384351452
 50
4.9222245044950954
 51
75.806848641700284
  0
LINE
  8
_0-0_
  6
CONTINUOUS
 62
    7
 10
5.2003172138048086
 20
21.145773568343571
 11
5.2047743366703116
 21
20.841615342469694
  0
LINE
  8
_0-0_
  6
CONTINUOUS
 62
    7
 10
5.2047743366703116
 20
20.841615342469694
 11
0.4512729892176423
 21
20.76194772212132
  0
LINE
  8
_0-0_
  6
CONTINUOUS
 62
    7
 10
0.4512729892176423
 20
20.76194772212132
 11
-0.6109619487606039
 21
20.04493913898601
  0
LINE
  8
_0-0_
  6
CONTINUOUS
 62
    7
 10
-0.6109619487606039
 20
20.04493913898601
 11
-0.3719590877154956
 21
19.487265796547433
  0
LINE
  8
_0-0_
  6
CONTINUOUS
 62
    7
 10
-0.3719590877154956
 20
19.487265796547433
 11
5.2047743366703116
 21
19.487265796547433
  0
LINE
  8
_0-0_
  6
CONTINUOUS
 62
    7
 10
5.2047743366703116
 20
19.487265796547433
 11
-0.5844060753111506
 21
19.885603898289276
  0
LINE
  8
_0-0_
  6
CONTINUOUS
 62
    7
 10
5.2047743366703116
 20
19.487265796547433
 11
5.1782184632208441
 21
19.168595315153951
  0
LINE
  8
_0-0_
  6
CONTINUOUS
 62
    7
 10
5.1782184632208441
 20
19.168595315153951
 11
-0.5578502018616973
 21
18.956148327558296
  0
LINE
  8
_0-0_
  6
CONTINUOUS
 62
    7
 10
-0.5578502018616973
 20
18.956148327558296
 11
-0.7702971894573522
 21
17.708022275433862
  0
LINE
  8
_0-0_
  6
CONTINUOUS
 62
    7
 10
-0.7702971894573522
 20
17.708022275433862
 11
5.1782184632208441
 21
17.734578148883315
  0
LINE
  8
_0-0_
  6
CONTINUOUS
 62
    7
 10
5.1782184632208441
 20
17.734578148883315
 11
-0.6906295691089781
 21
18.239139744422985
  0
LINE
  8
_0-0_
  6
CONTINUOUS
 62
    7
 10
5.1782184632208441
 20
17.734578148883315
 11
5.1251067163219375
 21
17.415907667489833
  0
LINE
  8
_0-0_
  6
CONTINUOUS
 62
    7
 10
5.1251067163219375
 20
17.415907667489833
 11
-0.7437413160078847
 21
17.230016553343646
  0
LINE
  8
_0-0_
  6
CONTINUOUS
 62
    7
 10
-0.7437413160078847
 20
17.230016553343646
 11
-0.903076556704633
 21
15.981890501219198
  0
LINE
  8
_0-0_
  6
CONTINUOUS
 62
    7
 10
-0.903076556704633
 20
15.981890501219198
 11
4.9392156021757501
 21
16.008446374668665
  0
LINE
  8
_0-0_
  6
CONTINUOUS
 62
    7
 10
4.9392156021757501
 20
16.008446374668665
 11
-0.7968530629068055
 21
16.566119717107242
  0
LINE
  8
_0-0_
  6
CONTINUOUS
 62
    7
 10
4.9392156021757501
 20
16.008446374668665
 11
4.9392156021757501
 21
15.663220019825729
  0
LINE
  8
_0-0_
  6
CONTINUOUS
 62
    7
 10
4.9392156021757501
 20
15.663220019825729
 11
0.2919377485209082
 21
15.450773032230074
  0
LINE
  8
_0-0_
  6
CONTINUOUS
 62
    7
 10
0.2919377485209082
 20
15.450773032230074
 11
-1.0093000505024463
 21
15.264881918083887
  0
LINE
  8
_0-0_
  6
CONTINUOUS
 62
    7
 10
-1.0093000505024463
 20
15.264881918083887
 11
-1.0889676708508205
 21
14.255758727004547
  0
LINE
  8
_0-0_
  6
CONTINUOUS
 62
    7
 10
-1.8856438743345052
 20
13.113856168677927
 11
0.2388260016219874
 21
13.698085384565971
  0
LINE
  8
_0-0_
  6
CONTINUOUS
 62
    7
 10
0.2388260016219874
 20
13.698085384565971
 11
0.2122701281725341
 21
15.424217158780621
  0
LINE
  8
_0-0_
  6
CONTINUOUS
 62
    7
 10
-0.8234089363562588
 20
14.202646980105641
 11
0.0794907609252533
 21
14.14953523320672
  0
LINE
  8
_0-0_
  6
CONTINUOUS
 62
    7
 10
-0.8234089363562588
 20
15.15865842428606
 11
-0.903076556704633
 21
13.698085384565971
  0
LINE
  8
_0-0_
  6
CONTINUOUS
 62
    7
 10
0.2653818750714407
 20
14.202646980105641
 11
4.8861038552768292
 21
14.308870473903454
  0
LINE
  8
_0-0_
  6
CONTINUOUS
 62
    7
 10
4.8861038552768292
 20
14.308870473903454
 11
0.2122701281725341
 21
14.813432069443124
  0
LINE
  8
_0-0_
  6
CONTINUOUS
 62
    7
 10
4.8861038552768292
 20
14.308870473903454
 11
4.8595479818273759
 21
13.963644119060532
  0
LINE
  8
_0-0_
  6
CONTINUOUS
 62
    7
 10
4.8595479818273759
 20
13.963644119060532
 11
0.2388260016219874
 21
13.698085384565971
  0
LINE
  8
_0-0_
  6
CONTINUOUS
 62
    7
 10
-0.9561883036035396
 20
13.352859029723035
 11
-1.0093000505024463
 21
12.370291712093149
  0
LINE
  8
_0-0_
  6
CONTINUOUS
 62
    7
 10
-1.0093000505024463
 20
12.370291712093149
 11
4.8329921083779226
 21
12.609294573138257
  0
LINE
  8
_0-0_
  6
CONTINUOUS
 62
    7
 10
4.8329921083779226
 20
12.609294573138257
 11
-0.8765206832551655
 21
13.326303156273582
  0
LINE
  8
_0-0_
  6
CONTINUOUS
 62
    7
 10
4.8329921083779226
 20
12.609294573138257
 11
4.8064362349284693
 21
12.237512344845868
  0
LINE
  8
_0-0_
  6
CONTINUOUS
 62
    7
 10
4.8064362349284693
 20
12.237512344845868
 11
-0.903076556704633
 21
11.786062496205119
  0
LINE
  8
_0-0_
  6
CONTINUOUS
 62
    7
 10
-0.903076556704633
 20
11.786062496205119
 11
-0.982744177052993
 21
10.644159937878499
  0
LINE
  8
_0-0_
  6
CONTINUOUS
 62
    7
 10
-0.982744177052993
 20
10.644159937878499
 11
4.7002127411306418
 21
10.90971867237306
  0
LINE
  8
_0-0_
  6
CONTINUOUS
 62
    7
 10
4.7002127411306418
 20
10.90971867237306
 11
-0.903076556704633
 21
11.759506622755666
  0
LINE
  8
_0-0_
  6
CONTINUOUS
 62
    7
 10
4.7002127411306418
 20
10.90971867237306
 11
4.7002127411306418
 21
10.591048190979592
  0
LINE
  8
_0-0_
  6
CONTINUOUS
 62
    7
 10
4.7002127411306418
 20
10.591048190979592
 11
0.1060466343747066
 21
10.245821836136656
  0
LINE
  8
_0-0_
  6
CONTINUOUS
 62
    7
 10
0.1060466343747066
 20
10.245821836136656
 11
0.0529348874757999
 21
9.1039192778100357
  0
LINE
  8
_0-0_
  6
CONTINUOUS
 62
    7
 10
0.0529348874757999
 20
9.1039192778100357
 11
4.6736568676811743
 21
9.2101427716078632
  0
LINE
  8
_0-0_
  6
CONTINUOUS
 62
    7
 10
4.6736568676811743
 20
9.2101427716078632
 11
0.1326025078241599
 21
9.9802631016420946
  0
LINE
  8
_0-0_
  6
CONTINUOUS
 62
    7
 10
4.6736568676811743
 20
9.2101427716078632
 11
4.5939892473328143
 21
8.8914722902143879
  0
LINE
  8
_0-0_
  6
CONTINUOUS
 62
    7
 10
4.5939892473328143
 20
8.8914722902143879
 11
-1.1951911646486479
 21
8.4665783150230922
  0
LINE
  8
_0-0_
  6
CONTINUOUS
 62
    7
 10
-1.1951911646486479
 20
8.4665783150230922
 11
-1.2217470380981013
 21
7.2981198832470184
  0
LINE
  8
_0-0_
  6
CONTINUOUS
 62
    7
 10
-1.2217470380981013
 20
7.2981198832470184
 11
4.5408775004339077
 21
7.56367861774158
  0
LINE
  8
_0-0_
  6
CONTINUOUS
 62
    7
 10
4.5408775004339077
 20
7.56367861774158
 11
-0.1064003532209341
 21
8.5728018088209126
  0
LINE
  8
_0-0_
  6
CONTINUOUS
 62
    7
 10
4.5408775004339077
 20
7.56367861774158
 11
4.5143216269844544
 21
7.271564009797558
  0
LINE
  8
_0-0_
  6
CONTINUOUS
 62
    7
 10
4.5143216269844544
 20
7.271564009797558
 11
-1.2217470380981013
 21
6.7404465408084349
  0
LINE
  8
_0-0_
  6
CONTINUOUS
 62
    7
 10
-1.2217470380981013
 20
6.7404465408084349
 11
-1.2748587849970079
 21
5.5188763621334473
  0
LINE
  8
_0-0_
  6
CONTINUOUS
 62
    7
 10
-1.2748587849970079
 20
5.5188763621334473
 11
4.4346540066360802
 21
5.9172144638752897
  0
LINE
  8
_0-0_
  6
CONTINUOUS
 62
    7
 10
4.4346540066360802
 20
5.9172144638752897
 11
4.4080981331866269
 21
5.5985439824818144
  0
LINE
  8
_0-0_
  6
CONTINUOUS
 62
    7
 10
4.4080981331866269
 20
5.5985439824818144
 11
-0.0798444797714807
 21
5.200205880739972
  0
LINE
  8
_0-0_
  6
CONTINUOUS
 62
    7
 10
-0.0798444797714807
 20
5.200205880739972
 11
-0.1595121001198549
 21
3.9255239551660708
  0
LINE
  8
_0-0_
  6
CONTINUOUS
 62
    7
 10
-0.1595121001198549
 20
3.9255239551660708
 11
4.3815422597371736
 21
4.3238620569079202
  0
LINE
  8
_0-0_
  6
CONTINUOUS
 62
    7
 10
4.3815422597371736
 20
4.3238620569079202
 11
4.3815422597371736
 21
4.1379709427617257
  0
LINE
  8
_0-0_
  6
CONTINUOUS
 62
    7
 10
4.3815422597371736
 20
4.1379709427617257
 11
-0.2657355939176682
 21
3.5006299799747751
  0
LINE
  8
_0-0_
  6
CONTINUOUS
 62
    7
 10
-0.2657355939176682
 20
3.5006299799747751
 11
-1.3014146584464612
 21
3.1554036251318465
  0
LINE
  8
_0-0_
  6
CONTINUOUS
 62
    7
 10
-1.3014146584464612
 20
3.1554036251318465
 11
-1.3279705318959287
 21
2.1197245606030464
  0
LINE
  8
_0-0_
  6
CONTINUOUS
 62
    7
 10
-1.3279705318959287
 20
2.1197245606030464
 11
4.2487628924898928
 21
2.7305096499405437
  0
LINE
  8
_0-0_
  6
CONTINUOUS
 62
    7
 10
4.2487628924898928
 20
2.7305096499405437
 11
4.2487628924898928
 21
2.5180626623448958
  0
LINE
  8
_0-0_
  6
CONTINUOUS
 62
    7
 10
4.2487628924898928
 20
2.5180626623448958
 11
-0.2922914673671357
 21
1.9072775730073985
  0
LINE
  8
_0-0_
  6
CONTINUOUS
 62
    7
 10
-0.2922914673671357
 20
1.9072775730073985
 11
-0.318847340816589
 21
0.6325956474335043
  0
LINE
  8
_0-0_
  6
CONTINUOUS
 62
    7
 10
-0.318847340816589
 20
0.6325956474335043
 11
4.1425393986920653
 21
1.1371572429731671
  0
LINE
  8
_0-0_
  6
CONTINUOUS
 62
    7
 10
4.1425393986920653
 20
1.1371572429731671
 11
4.1425393986920653
 21
1.0309337491753467
  0
LINE
  8
_0-0_
  6
CONTINUOUS
 62
    7
 10
4.1425393986920653
 20
1.0309337491753467
 11
-0.3454032142660423
 21
0.1545899253432878
  0
LINE
  8
_0-0_
  6
CONTINUOUS
 62
    7
 10
-0.3454032142660423
 20
0.1545899253432878
 11
-0.4781825815133231
 21
-1.385650734725175
  0
LINE
  8
_0-0_
  6
CONTINUOUS
 62
    7
 10
4.2487628924898928
 20
2.7305096499405437
 11
0.2122701281725341
 21
3.5271858534242284
  0
LINE
  8
_0-0_
  6
CONTINUOUS
 62
    7
 10
4.3815422597371736
 20
4.3238620569079202
 11
0.0263790140263466
 21
5.1470941338410583
  0
LINE
  8
_0-0_
  6
CONTINUOUS
 62
    7
 10
4.4346540066360802
 20
5.9172144638752897
 11
0.3716053688692824
 21
6.8201141611568019
  0
LINE
  8
_0-0_
  6
CONTINUOUS
 62
    7
 10
6.187341654300198
 20
1.721386458861204
 11
3.7176454235007554
 21
2.2790598012997876
  0
LINE
  8
_0-0_
  6
CONTINUOUS
 62
    7
 10
5.7093359322099815
 20
-0.429639290544749
 11
2.2305165103312135
 21
0.4201486598378494
  0
LINE
  8
_0-0_
  6
CONTINUOUS
 62
    7
 10
5.603112438412154
 20
-1.8371005833659311
 11
-0.1064003532209341
 21
-0.0047453153534462
  0
LINE
  8
_0-0_
  6
CONTINUOUS
 62
    7
 10
3.983204157995317
 20
-2.3947739258045075
 11
-0.1860679735693082
 21
-0.9342008860844188
  0
LINE
  8
_0-0_
  6
CONTINUOUS
 62
    7
 10
1.0355022051056864
 20
-2.6072209134001554
 11
5.3641095773670457
 21
-4.0412380796707978
  0
LINE
  8
_0-0_
  6
CONTINUOUS
 62
    7
 10
5.2844419570186716
 20
-6.0594844618294701
 11
0.5840523564649231
 21
-4.4926879283115539
  0
LINE
  8
_0-0_
  6
CONTINUOUS
 62
    7
 10
-2.018423241581786
 20
-2.1026593178604926
 11
0.3981612423187215
 21
-1.4918742285230024
  0
LINE
  8
_0-0_
  6
CONTINUOUS
 62
    7
 10
0.3981612423187215
 20
-1.4918742285230024
 11
-0.4781825815133231
 21
-1.385650734725175
  0
LINE
  8
_0-0_
  6
CONTINUOUS
 62
    7
 10
0.3981612423187215
 20
-1.4918742285230024
 11
0.2388260016219874
 21
-4.6785790424577485
  0
LINE
  8
_0-0_
  6
CONTINUOUS
 62
    7
 10
0.2388260016219874
 20
-4.6785790424577485
 11
-1.8059762539861453
 21
-4.94413777695231
  0
LINE
  8
_0-0_
  6
CONTINUOUS
 62
    7
 10
-0.5578502018616973
 20
-4.7848025362555759
 11
-0.6640736956595247
 21
-6.5640460573691399
  0
LINE
  8
_0-0_
  6
CONTINUOUS
 62
    7
 10
3.7442012969502088
 20
-6.1125962087283838
 11
-0.6640736956595247
 21
-6.6171578042680537
  0
LINE
  8
_0-0_
  6
CONTINUOUS
 62
    7
 10
3.7442012969502088
 20
-6.1125962087283838
 11
0.0794907609252533
 21
-4.7316907893566622
  0
LINE
  8
_0-0_
  6
CONTINUOUS
 62
    7
 10
3.5583101828040213
 20
-7.5731692484484796
 11
-0.6375178222100714
 21
-8.2105102112354302
  0
LINE
  8
_0-0_
  6
CONTINUOUS
 62
    7
 10
3.5583101828040213
 20
-7.5731692484484796
 11
1.0620580785551255
 21
-6.4578225635713196
  0
LINE
  8
_0-0_
  6
CONTINUOUS
 62
    7
 10
3.3989749421072872
 20
-9.1399657819663958
 11
-1.8325321274355986
 21
-9.8835302385511739
  0
LINE
  8
_0-0_
  6
CONTINUOUS
 62
    7
 10
3.4255308155567405
 20
-10.653650568585405
 11
-0.903076556704633
 21
-11.317547404821809
  0
LINE
  8
_0-0_
  6
CONTINUOUS
 62
    7
 10
3.3458631952083664
 20
-12.06111186140658
 11
-2.018423241581786
 21
-13.096790925935373
  0
LINE
  8
_0-0_
  6
CONTINUOUS
 62
    7
 10
3.1334162076127257
 20
-13.57479664802559
 11
-1.0093000505024605
 21
-14.477696345307102
  0
LINE
  8
_0-0_
  6
CONTINUOUS
 62
    7
 10
-1.1420794177497413
 20
-15.964825258476651
 11
3.0271927138148982
 21
-15.115037308094053
  0
LINE
  8
_0-0_
  6
CONTINUOUS
 62
    7
 10
-2.4698730902225492
 20
-14.451140471857642
 11
-1.0093000505024605
 21
-14.477696345307102
  0
LINE
  8
_0-0_
  6
CONTINUOUS
 62
    7
 10
-2.3105378495258151
 20
-16.522498600915227
 11
-1.1420794177497413
 21
-15.964825258476651
  0
LINE
  8
_0-0_
  6
CONTINUOUS
 62
    7
 10
-1.0093000505024605
 20
-14.477696345307102
 11
-1.1420794177497413
 21
-15.938269385027191
  0
LINE
  8
_0-0_
  6
CONTINUOUS
 62
    7
 10
3.1334162076127257
 20
-13.57479664802559
 11
-1.2483029115475546
 21
-13.17645854628374
  0
LINE
  8
_0-0_
  6
CONTINUOUS
 62
    7
 10
3.3458631952083664
 20
-12.06111186140658
 11
-0.318847340816589
 21
-11.55655026586691
  0
LINE
  8
_0-0_
  6
CONTINUOUS
 62
    7
 10
3.4255308155567405
 20
-10.653650568585405
 11
0.5043847361165489
 21
-9.9366419854500805
  0
LINE
  8
_0-0_
  6
CONTINUOUS
 62
    7
 10
3.3989749421072872
 20
-9.1399657819663958
 11
0.6371641033638297
 21
-8.343289578482711
  0
LINE
  8
_0-0_
  6
CONTINUOUS
 62
    7
 10
-1.8856438743345052
 20
-8.6354041864267259
 11
-1.8325321274355986
 21
-9.8835302385511739
  0
LINE
  8
_0-0_
  6
CONTINUOUS
 62
    7
 10
-1.8325321274355986
 20
-8.5822924395278193
 11
3.4786425624556472
 21
-7.8121721094935879
  0
LINE
  8
_0-0_
  6
CONTINUOUS
 62
    7
 10
3.5583101828040213
 20
-7.5731692484484796
 11
3.4786425624556472
 21
-7.8121721094935879
  0
LINE
  8
_0-0_
  6
CONTINUOUS
 62
    7
 10
-0.6375178222100714
 20
-8.2105102112354302
 11
-0.6640736956595247
 21
-6.8827165387626223
  0
LINE
  8
_0-0_
  6
CONTINUOUS
 62
    7
 10
-0.6640736956595247
 20
-6.8827165387626223
 11
3.5583101828040213
 21
-6.3250431963240388
  0
LINE
  8
_0-0_
  6
CONTINUOUS
 62
    7
 10
3.7442012969502088
 20
-6.1125962087283838
 11
3.6645336766018488
 21
-6.3250431963240388
  0
LINE
  8
_0-0_
  6
CONTINUOUS
 62
    7
 10
-2.5229848371214558
 20
-14.637031586003836
 11
-2.4964289636720025
 21
-16.097604625723932
  0
LINE
  8
_0-0_
  6
CONTINUOUS
 62
    7
 10
-2.3370937229752684
 20
-10.069421352697368
 11
-2.390205469874175
 21
-12.06111186140658
  0
LINE
  8
_0-0_
  6
CONTINUOUS
 62
    7
 10
-2.4698730902225492
 20
-12.326670595901149
 11
-0.982744177052993
 21
-11.742441380013105
  0
LINE
  8
_0-0_
  6
CONTINUOUS
 62
    7
 10
-0.982744177052993
 20
-11.742441380013105
 11
-0.8765206832551797
 21
-9.7507508713038931
  0
LINE
  8
_0-0_
  6
CONTINUOUS
 62
    7
 10
-1.8059762539861453
 20
-10.149088973045735
 11
-1.1155235443002738
 21
-10.122533099596282
  0
LINE
  8
_0-0_
  6
CONTINUOUS
 62
    7
 10
-1.9121997477839727
 20
-11.317547404821809
 11
-1.2217470380981013
 21
-11.237879784473442
  0
LINE
  8
_0-0_
  6
CONTINUOUS
 62
    7
 10
-1.0624117974013672
 20
-10.095977226146822
 11
-1.1686352911991946
 21
-11.237879784473442
  0
LINE
  8
_0-0_
  6
CONTINUOUS
 62
    7
 10
-1.8059762539861453
 20
-10.175644846495189
 11
-1.8325321274355986
 21
-11.211323911023982
  0
LINE
  8
_0-0_
  6
CONTINUOUS
 62
    7
 10
-2.1777584822785343
 20
-17.664401159241848
 11
3.1068603341632581
 21
-16.522498600915227
  0
LINE
  8
_0-0_
  6
CONTINUOUS
 62
    7
 10
2.9209692200170707
 20
-17.983071640635323
 11
-2.2839819760763476
 21
-19.178085945860857
  0
LINE
  8
_0-0_
  6
CONTINUOUS
 62
    7
 10
2.8147457262192432
 20
-19.417088806905959
 11
-1.3810822787948354
 21
-20.532435491783119
  0
LINE
  8
_0-0_
  6
CONTINUOUS
 62
    7
 10
-1.3810822787948354
 20
-19.07186245206303
 11
-1.4873057725926628
 21
-20.877661846626054
  0
LINE
  8
_0-0_
  6
CONTINUOUS
 62
    7
 10
-1.4873057725926628
 20
-20.877661846626054
 11
-2.3636495964247217
 21
-21.169776454570069
  0
LINE
  8
_0-0_
  6
CONTINUOUS
 62
    7
 10
2.8147457262192432
 20
-21.010441213873335
 11
-2.4167613433236284
 21
-22.205455519098866
  0
LINE
  8
_0-0_
  6
CONTINUOUS
 62
    7
 10
2.7085222324214158
 20
-22.364790759795603
 11
-2.4964289636720025
 21
-23.666028558818958
  0
LINE
  8
_0-0_
  6
CONTINUOUS
 62
    7
 10
2.6022987386235883
 20
-23.878475546414606
 11
-0.7702971894573522
 21
-24.754819370246665
  0
LINE
  8
_0-0_
  6
CONTINUOUS
 62
    7
 10
-0.7702971894573522
 20
-24.754819370246665
 11
-0.7702971894573522
 21
-25.843610181674368
  0
LINE
  8
_0-0_
  6
CONTINUOUS
 62
    7
 10
-0.7702971894573522
 20
-25.843610181674368
 11
0.9558345847573122
 21
-25.843610181674368
  0
LINE
  8
_0-0_
  6
CONTINUOUS
 62
    7
 10
6.3201210215474646
 20
-7.4403898812011988
 11
5.3109978304681249
 21
-24.276813648156448
  0
LINE
  8
_0-0_
  6
CONTINUOUS
 62
    7
 10
7.1167972250311493
 20
-23.772252052616782
 11
2.8413015996686966
 21
-25.020378104741226
  0
LINE
  8
_0-0_
  6
CONTINUOUS
 62
    7
 10
2.2305165103312135
 20
-25.710830814427084
 11
2.0977371430839327
 21
-28.605421020417818
  0
LINE
  8
_0-0_
  6
CONTINUOUS
 62
    7
 10
-1.6731968867388503
 20
-26.613730511708599
 11
-1.8590880008850519
 21
-29.880102945991716
  0
LINE
  8
_0-0_
  6
CONTINUOUS
 62
    7
 10
-1.6731968867388503
 20
-26.613730511708599
 11
0.5043847361165489
 21
-26.534062891360232
  0
LINE
  8
_0-0_
  6
CONTINUOUS
 62
    7
 10
0.5043847361165489
 20
-26.534062891360232
 11
0.4778288626670956
 21
-26.401283524112952
  0
LINE
  8
_0-0_
  6
CONTINUOUS
 62
    7
 10
0.4778288626670956
 20
-26.401283524112952
 11
-1.2748587849970079
 21
-26.374727650663495
  0
LINE
  8
_0-0_
  6
CONTINUOUS
 62
    7
 10
-1.4873057725926628
 20
-25.68427494097763
 11
-1.2748587849970079
 21
-26.587174638259143
  0
LINE
  8
_0-0_
  6
CONTINUOUS
 62
    7
 10
-1.4873057725926628
 20
-25.68427494097763
 11
-2.60265245746983
 21
-25.392160333033612
  0
LINE
  8
_0-0_
  6
CONTINUOUS
 62
    7
 10
-2.60265245746983
 20
-25.392160333033612
 11
-2.7885435716160174
 21
-25.976389548921649
  0
LINE
  8
_0-0_
  6
CONTINUOUS
 62
    7
 10
-2.7885435716160174
 20
-25.976389548921649
 11
-3.2399934202567664
 21
-25.976389548921649
  0
LINE
  8
_0-0_
  6
CONTINUOUS
 62
    7
 10
-3.2399934202567664
 20
-25.976389548921649
 11
-3.9570020033920912
 21
-25.471827953381982
  0
LINE
  8
_0-0_
  6
CONTINUOUS
 62
    7
 10
-3.9570020033920912
 20
-25.471827953381982
 11
-4.7005664599768693
 21
-25.471827953381982
  0
LINE
  8
_0-0_
  6
CONTINUOUS
 62
    7
 10
-4.7005664599768693
 20
-25.471827953381982
 11
-9.9851852764186617
 21
-22.417902506694514
  0
LINE
  8
_0-0_
  6
CONTINUOUS
 62
    7
 10
-3.4524404078524213
 20
-27.012068613450442
 11
-11.047420214396908
 21
-22.019564404952671
  0
LINE
  8
_0-0_
  6
CONTINUOUS
 62
    7
 10
-11.047420214396908
 20
-22.019564404952671
 11
-11.684761177183859
 21
-22.046120278402128
  0
LINE
  8
_0-0_
  6
CONTINUOUS
 62
    7
 10
-11.684761177183859
 20
-22.046120278402128
 11
-11.92376403822896
 21
-22.232011392548323
  0
LINE
  8
_0-0_
  6
CONTINUOUS
 62
    7
 10
-11.92376403822896
 20
-22.232011392548323
 11
-11.844096417880593
 21
-23.480137444672764
  0
LINE
  8
_0-0_
  6
CONTINUOUS
 62
    7
 10
-11.844096417880593
 20
-23.480137444672764
 11
-4.1428931175382786
 21
-29.481764844249874
  0
LINE
  8
_0-0_
  6
CONTINUOUS
 62
    7
 10
-5.0192369413703375
 20
-27.012068613450442
 11
-11.737872924082765
 21
-22.417902506694514
  0
LINE
  8
_0-0_
  6
CONTINUOUS
 62
    7
 10
-3.4524404078524213
 20
-27.012068613450442
 11
-4.5412312192801352
 21
-27.144847980697726
  0
LINE
  8
_0-0_
  6
CONTINUOUS
 62
    7
 10
-3.4524404078524213
 20
-27.012068613450442
 11
-3.425884534402968
 21
-27.383850841742831
  0
LINE
  8
_0-0_
  6
CONTINUOUS
 62
    7
 10
-3.425884534402968
 20
-27.383850841742831
 11
-4.1960048644371994
 21
-27.516630208990112
  0
ARC
  8
_0-0_
  6
CONTINUOUS
 62
    7
 10
-1.7838463594449081
 20
-25.45855001665722
 40
4.6638352410684734
 50
239.61440391023197
 51
263.51569844392407
  0
ARC
  8
_0-0_
  6
CONTINUOUS
 62
    7
 10
-2.5898487327709887
 20
-28.086395958088708
 40
1.5045583489940222
 50
195.92431121376941
 51
294.52540764856712
  0
ARC
  8
_0-0_
  6
CONTINUOUS
 62
    7
 10
-1.4287266399829406
 20
-27.572085121193297
 40
2.7678338134407836
 50
178.8519740527351
 51
199.57007902889779
  0
ARC
  8
_0-0_
  6
CONTINUOUS
 62
    7
 10
-4.6341767763532289
 20
-26.552652002774881
 40
0.5994455378494556
 50
230.03193422282774
 51
278.91984378366243
  0
ARC
  8
_0-0_
  6
CONTINUOUS
 62
    7
 10
-2.0367252624727001
 20
-27.76604010152219
 40
2.6898858206889482
 50
166.06572270409615
 51
221.11617419158623
  0
LINE
  8
_0-0_
  6
CONTINUOUS
 62
    7
 10
0.6902758502627506
 20
-27.197959727596636
 11
-0.982744177052993
 21
-27.914968310731954
  0
LINE
  8
_0-0_
  6
CONTINUOUS
 62
    7
 10
-0.982744177052993
 20
-27.914968310731954
 11
-0.9561883036035396
 21
-28.977203248710204
  0
LINE
  8
_0-0_
  6
CONTINUOUS
 62
    7
 10
-0.9561883036035396
 20
-28.977203248710204
 11
-1.1951911646486479
 21
-28.950647375260747
  0
LINE
  8
_0-0_
  6
CONTINUOUS
 62
    7
 10
-1.1951911646486479
 20
-28.950647375260747
 11
-1.1686352911991804
 21
-29.694211831845521
  0
LINE
  8
_0-0_
  6
CONTINUOUS
 62
    7
 10
-1.1686352911991804
 20
-29.694211831845521
 11
2.0446253961850118
 21
-28.817868008013466
  0
LINE
  8
_0-0_
  6
CONTINUOUS
 62
    7
 10
-2.3105378495258009
 20
-30.092549933587364
 11
-1.0624117974013529
 21
-30.092549933587367
  0
LINE
  8
_0-0_
  6
CONTINUOUS
 62
    7
 10
-1.0624117974013529
 20
-30.092549933587367
 11
2.124293016533386
 21
-29.216206109755312
  0
LINE
  8
_0-0_
  6
CONTINUOUS
 62
    7
 10
2.0977371430839327
 20
-28.605421020417818
 11
2.124293016533386
 21
-29.216206109755312
  0
ARC
  8
_0-0_
  6
CONTINUOUS
 62
    7
 10
2.8955780778592697
 20
-25.683731399708204
 40
0.6655700789761483
 50
94.677599553939217
 51
177.76015091632453
  0
ARC
  8
_0-0_
  6
CONTINUOUS
 62
    7
 10
-0.0192841342221043
 20
-26.355620375864493
 40
1.1013677655799983
 50
310.10972489013375
 51
27.702829086750469
  0
LINE
  8
_0-0_
  6
CONTINUOUS
 62
    7
 10
-2.1512026088290668
 20
-29.242761983204769
 11
-4.010113750291012
 21
-27.941524184181414
  0
LINE
  8
_0-0_
  6
CONTINUOUS
 62
    7
 10
-1.6731968867388503
 20
-26.613730511708599
 11
-2.7885435716160174
 21
-26.056057169270023
  0
LINE
  8
_0-0_
  6
CONTINUOUS
 62
    7
 10
4.6368524288945281
 20
-24.535851092222245
 11
4.557814850132246
 21
-27.618316663951365
  0
LINE
  8
_0-0_
  6
CONTINUOUS
 62
    7
 10
4.557814850132246
 20
-27.618316663951365
 11
6.7313482660950825
 21
-28.961955502910211
  0
LINE
  8
_0-0_
  6
CONTINUOUS
 62
    7
 10
3.194416616482826
 20
-29.317624607340495
 11
4.557814850132246
 21
-30.108000394963344
  0
LINE
  8
_0-0_
  6
CONTINUOUS
 62
    7
 10
1.8507777775239873
 20
-29.831368869295346
 11
3.2339354058639742
 21
-30.858857393205053
  0
LINE
  8
_0-0_
  6
CONTINUOUS
 62
    7
 10
3.2339354058639742
 20
-30.858857393205053
 11
4.5973336395133941
 21
-30.266075552487916
  0
LINE
  8
_0-0_
  6
CONTINUOUS
 62
    7
 10
4.5973336395133941
 20
-30.266075552487916
 11
4.557814850132246
 21
-30.108000394963344
  0
LINE
  8
_0-0_
  6
CONTINUOUS
 62
    7
 10
1.8507777775239873
 20
-29.831368869295346
 11
1.9100559615957025
 21
-29.633774922389634
  0
LINE
  8
_0-0_
  6
CONTINUOUS
 62
    7
 10
1.9100559615957025
 20
-29.633774922389634
 11
3.194416616482826
 21
-29.317624607340495
  0
LINE
  8
_0-0_
  6
CONTINUOUS
 62
    7
 10
4.2416645350831033
 20
-27.519519690498509
 11
2.5028378023128397
 21
-26.610587534732229
  0
LINE
  8
_0-0_
  6
CONTINUOUS
 62
    7
 10
-0.7702971894573522
 20
-24.754819370246665
 11
-2.5555672384734009
 21
-24.318497750625962
  0
LINE
  8
_0-0_
  6
CONTINUOUS
 62
    7
 10
-2.5555672384734009
 20
-24.318497750625962
 11
-2.4964289636720025
 21
-23.666028558818958
  0
LINE
  8
_0-0_
  6
CONTINUOUS
 62
    7
 10
-2.4964289636720025
 20
-23.666028558818958
 11
-2.4167613433236284
 21
-22.205455519098866
  0
LINE
  8
_0-0_
  6
CONTINUOUS
 62
    7
 10
-2.4167613433236284
 20
-22.205455519098866
 11
-2.3636495964247217
 21
-21.169776454570069
  0
LINE
  8
_0-0_
  6
CONTINUOUS
 62
    7
 10
-2.3974920809488367
 20
-19.596002419579428
 11
-2.4172514756394037
 21
-20.485175180655133
  0
LINE
  8
_0-0_
  6
CONTINUOUS
 62
    7
 10
-2.2839819760763476
 20
-19.178085945860857
 11
-2.3105378495258151
 21
-16.522498600915227
  0
LINE
  8
_0-0_
  6
CONTINUOUS
 62
    7
 10
-2.0813417658997082
 20
-14.438800405340331
 11
-2.04182297651856
 21
-12.186229410615205
  0
LINE
  8
_0-0_
  6
CONTINUOUS
 62
    7
 10
-2.4172514756394179
 20
-9.6767862849126516
 11
-2.4370108703299849
 21
-7.503252868949815
  0
LINE
  8
_0-0_
  6
CONTINUOUS
 62
    7
 10
-2.4370108703299849
 20
-7.503252868949815
 11
-1.1921690048239952
 21
-6.9104710282326778
  0
LINE
  8
_0-0_
  6
CONTINUOUS
 62
    7
 10
-1.1921690048239952
 20
-6.9104710282326778
 11
-0.8364999003937185
 21
-6.8709522388515367
  0
LINE
  8
_0-0_
  6
CONTINUOUS
 62
    7
 10
-1.8244696349222806
 20
-6.9104710282326778
 11
-2.7729205800696946
 21
-7.3846965008063847
  0
LINE
  8
_0-0_
  6
CONTINUOUS
 62
    7
 10
-2.8717175535225579
 20
-7.5427716583309561
 11
-3.0100333163565551
 21
-12.008394858400067
  0
LINE
  8
_0-0_
  6
CONTINUOUS
 62
    7
 10
-2.9902739216659882
 20
-12.502379725664348
 11
-3.1878678685717006
 21
-18.864904816028293
  0
LINE
  8
_0-0_
  6
CONTINUOUS
 62
    7
 10
-2.95075513228484
 20
-19.00322057886229
 11
-3.5237775783114103
 21
-19.260092709839718
  0
LINE
  8
_0-0_
  6
CONTINUOUS
 62
    7
 10
-3.5237775783114103
 20
-19.260092709839718
 11
-3.7411309199076896
 21
-19.694799393032291
  0
LINE
  8
_0-0_
  6
CONTINUOUS
 62
    7
 10
-3.7411309199076896
 20
-21.315069757659131
 11
-3.3459430260962648
 21
-21.532423099255418
  0
LINE
  8
_0-0_
  6
CONTINUOUS
 62
    7
 10
-3.3459430260962648
 20
-21.532423099255418
 11
-2.4567702650205518
 21
-21.27555096827799
  0
LINE
  8
_0-0_
  6
CONTINUOUS
 62
    7
 10
-3.2866648420245497
 20
-21.670738862089415
 11
-3.4249806048585469
 21
-24.69392624974682
  0
LINE
  8
_0-0_
  6
CONTINUOUS
 62
    7
 10
-3.4249806048585469
 20
-24.69392624974682
 11
-3.8201684986699718
 21
-25.326226879845098
  0
LINE
  8
_0-0_
  6
CONTINUOUS
 62
    7
 10
5.1110779014682493
 20
-24.160422593101394
 11
2.6806723545279709
 21
-22.816783754142548
  0
LINE
  8
_0-0_
  6
CONTINUOUS
 62
    7
 10
2.6022987386235883
 20
-23.878475546414606
 11
0.9220862270671403
 21
-23.192212253263403
  0
LINE
  8
_0-0_
  6
CONTINUOUS
 62
    7
 10
2.7085222324214158
 20
-22.364790759795603
 11
0.9616050164482743
 21
-21.670738862089415
  0
LINE
  8
_0-0_
  6
CONTINUOUS
 62
    7
 10
2.8147457262192432
 20
-21.010441213873335
 11
1.0999207792822716
 21
-20.406137601892851
  0
LINE
  8
_0-0_
  6
CONTINUOUS
 62
    7
 10
2.8147457262192432
 20
-19.417088806905959
 11
0.7047328854708467
 21
-18.904423605409434
  0
LINE
  8
_0-0_
  6
CONTINUOUS
 62
    7
 10
2.9209692200170707
 20
-17.983071640635323
 11
0.1712292288254246
 21
-17.442228398307165
  0
LINE
  8
_0-0_
  6
CONTINUOUS
 62
    7
 10
3.1068603341632581
 20
-16.522498600915227
 11
0.4083419651122852
 21
-15.861476823061459
  0
LINE
  8
_0-0_
  6
CONTINUOUS
 62
    7
 10
3.0271927138148982
 20
-15.115037308094053
 11
0.3293043863499889
 21
-14.537597378793187
  0
LINE
  8
_0-0_
  6
CONTINUOUS
 62
    7
 10
-2.1548682209727872
 20
-6.5810805745643464
 11
-1.8856438743345052
 21
13.113856168677927
  0
LINE
  8
_0-0_
  6
CONTINUOUS
 62
    7
 10
-1.4326421823847681
 20
0.2131940106711312
 11
-0.549921468554956
 21
0.2399431232114324
  0
LINE
  8
_0-0_
  6
CONTINUOUS
 62
    7
 10
-1.5128895200056576
 20
-1.418501854286994
 11
-0.7639143688773373
 21
-1.3917527417466928
  0
LINE
  8
_0-0_
  6
CONTINUOUS
 62
    7
 10
-1.2721475071429893
 20
5.0280342679246246
 11
-0.3894267933131772
 21
5.1350307180858152
  0
LINE
  8
_0-0_
  6
CONTINUOUS
 62
    7
 10
-0.6034196936355584
 20
3.7440768659903583
 11
-1.4326421823847681
 21
3.690578640909763
  0
LINE
  8
_0-0_
  6
CONTINUOUS
 62
    7
 10
-1.4326421823847681
 20
15.567184608801711
 11
-1.1919001695220999
 21
20.11453374065222
  0
LINE
  8
_0-0_
  6
CONTINUOUS
 62
    7
 10
-2.5828540216175497
 20
22.120717181174513
 11
-8.4944078930232223
 21
22.281211856416292
  0
LINE
  8
_0-0_
  6
CONTINUOUS
 62
    7
 10
-8.4944078930232223
 20
22.281211856416292
 11
-7.558188954112822
 21
22.468455644198372
  0
LINE
  8
_0-0_
  6
CONTINUOUS
 62
    7
 10
-7.558188954112822
 20
22.468455644198372
 11
-7.558188954112822
 21
22.789444994681929
  0
LINE
  8
_0-0_
  6
CONTINUOUS
 62
    7
 10
-7.558188954112822
 20
22.789444994681929
 11
-7.3743899884410808
 21
23.074780225068366
  0
LINE
  8
_0-0_
  6
CONTINUOUS
 62
    7
 10
-2.6363522466981379
 20
20.275028415893999
 11
-4.3750445618174609
 21
-23.861007275596304
  0
LINE
  8
_0-0_
  6
CONTINUOUS
 62
    7
 10
-5.7392493013726096
 20
-21.53383448459045
 11
-3.7865640859309195
 21
18.589834325855279
  0
LINE
  8
_0-0_
  6
CONTINUOUS
 62
    7
 10
-4.5890374621398422
 20
19.633049714926869
 11
-9.5376232820948132
 21
20.061035515571632
  0
LINE
  8
_0-0_
  6
CONTINUOUS
 62
    7
 10
-9.4306268319336226
 20
21.478738480207369
 11
-3.8400623110115077
 21
21.184498242264112
  0
LINE
  8
_0-0_
  6
CONTINUOUS
 62
    7
 10
-3.6528185232294419
 20
21.69273138052975
 11
-9.3503794943127332
 21
22.06721895609391
  0
LINE
  8
_0-0_
  6
CONTINUOUS
 62
    7
 10
-10.768082458948477
 20
18.830576338717961
 11
-11.463559384996202
 21
-20.383622645357676
  0
LINE
  8
_0-0_
  6
CONTINUOUS
 62
    7
 10
-10.741333346408183
 20
-20.089382407414405
 11
-9.9923581952798628
 21
18.61658343839558
  0
LINE
  8
_0-0_
  6
CONTINUOUS
 62
    7
 10
-10.500591333545508
 20
-20.597615545680057
 11
-6.6487191277427229
 21
-22.844540999065018
  0
LINE
  8
_0-0_
  6
CONTINUOUS
 62
    7
 10
-5.3380126132681625
 20
-24.181996626079872
 11
-10.233100208142538
 21
-21.319841584268076
  0
ARC
  8
_0-0_
  6
CONTINUOUS
 62
    7
 10
-13.481727817500833
 20
-23.397761281148426
 40
3.6274006585604401
 50
35.465598841253943
 51
56.195032131261847
  0
ARC
  8
_0-0_
  6
CONTINUOUS
 62
    7
 10
-14.150922812104739
 20
-23.367993459982802
 40
4.1755913682237908
 50
10.545405255725855
 51
29.795901567975076
  0
ARC
  8
_0-0_
  6
CONTINUOUS
 62
    7
 10
-5.2189135786442336
 20
-22.934346977533828
 40
1.2533212778714875
 50
264.54714116261937
 51
312.32275648322479
  0
ARC
  8
_0-0_
  6
CONTINUOUS
 62
    7
 10
-6.6547227821516231
 20
-21.872299700540474
 40
0.9625677038920993
 50
284.24537066098276
 51
358.88002635689196
  0
ARC
  8
_0-0_
  6
CONTINUOUS
 62
    7
 10
-10.265030647871249
 20
-20.174899753970898
 40
0.4839188746015466
 50
169.82132882763275
 51
240.87102305626013
  0
ARC
  8
_0-0_
  6
CONTINUOUS
 62
    7
 10
-4.5827047180921596
 20
18.807669755732007
 40
0.8254042528892636
 50
344.69758968290398
 51
90.439594374751707
  0
ARC
  8
_0-0_
  6
CONTINUOUS
 62
    7
 10
-8.6475728757712886
 20
18.979153550134043
 40
1.4009490757824783
 50
129.44369262707437
 51
176.21047714314665
  0
ARC
  8
_0-0_
  6
CONTINUOUS
 62
    7
 10
-6.016892783322092
 20
18.89438996773076
 40
4.7516181994165443
 50
159.95835254927593
 51
180.76949817538966
  0
ARC
  8
_0-0_
  6
CONTINUOUS
 62
    7
 10
-9.372186089874404
 20
20.359755315663307
 40
1.1205082074065709
 50
92.989650382803518
 51
171.63402416680154
  0
ARC
  8
_0-0_
  6
CONTINUOUS
 62
    7
 10
-8.9225271976520588
 20
20.975746962649396
 40
1.3562097690635626
 50
117.65967662463076
 51
177.67995190526824
  0
ARC
  8
_0-0_
  6
CONTINUOUS
 62
    7
 10
-8.8641121969438217
 20
20.445729035934562
 40
1.8629356310031835
 50
82.577217014386648
 51
111.6728156834167
  0
ARC
  8
_0-0_
  6
CONTINUOUS
 62
    7
 10
-3.9397580244017831
 20
20.413756118992168
 40
1.3107677128149575
 50
353.92460900648649
 51
77.355009389687794
  0
ARC
  8
_0-0_
  6
CONTINUOUS
 62
    7
 10
-4.6503680736887674
 20
19.544397002958931
 40
1.8293516622558907
 50
25.073431763908367
 51
63.7079393261576
  0
ARC
  8
_0-0_
  6
CONTINUOUS
 62
    7
 10
-4.1092078328521922
 20
19.577156149730939
 40
2.9663881535882681
 50
10.437072854526482
 51
59.032646225045625
  0
ARC
  8
_0-0_
  6
CONTINUOUS
 62
    7
 10
-10.114226897106221
 20
23.817413024101072
 40
0.8313499134548908
 50
159.78053378956645
 51
235.16901472294415
  0
ARC
  8
_0-0_
  6
CONTINUOUS
 62
    7
 10
-8.7714932342005341
 20
24.344652264116647
 40
2.1363657122511945
 50
131.10485902542982
 51
186.44782796903766
  0
ARC
  8
_0-0_
  6
CONTINUOUS
 62
    7
 10
-7.4063408942951696
 20
23.682037007036001
 40
3.5825783946004313
 50
99.880001949693295
 51
140.6328723773654
  0
ARC
  8
_0-0_
  6
CONTINUOUS
 62
    7
 10
-6.7061307017206815
 20
23.583958464059776
 40
3.8584933121005007
 50
95.132731149440076
 51
109.92488426886304
  0
LINE
  8
_0-0_
  6
CONTINUOUS
 62
    7
 10
-7.0513241964818434
 20
27.426979683191789
 11
5.0397627773093348
 21
27.49096940100317
  0
LINE
  8
_0-0_
  6
CONTINUOUS
 62
    7
 10
-10.589058683252347
 20
23.135007387059048
 11
-7.3743899884410808
 21
23.074780225068366
  0
LINE
  8
_0-0_
  6
CONTINUOUS
 62
    7
 10
-7.500275273483183
 20
22.614224137737509
 11
-1.8075756171062949
 21
22.398727620776867
  0
LINE
  8
_0-0_
  6
CONTINUOUS
 62
    7
 10
-1.8075756171062949
 20
22.398727620776867
 11
-1.2329182385445847
 21
22.506475879257181
  0
LINE
  8
_0-0_
  6
CONTINUOUS
 62
    7
 10
-1.8075756171062949
 20
22.398727620776867
 11
-1.8434917032663947
 21
22.075482845335898
  0
LINE
  8
_0-0_
  6
CONTINUOUS
 62
    7
 10
1.8199490850644651
 20
22.129356974576069
 11
4.890774451753586
 21
22.075482845335912
  0
LINE
  8
_0-0_
  6
CONTINUOUS
 62
    7
 10
1.6224106111838807
 20
21.60857372525453
 11
7.584480913761567
 21
21.64448981141463
  0
ARC
  8
_0-0_
  6
CONTINUOUS
 62
    7
 10
2.4433718392314745
 20
7.6369065875406932
 40
1.0670122057924416
 50
106.33934385282595
 51
145.07403894837989
  0
ARC
  8
_0-0_
  6
CONTINUOUS
 62
    7
 10
2.5570451260321363
 20
7.9612772590995178
 40
0.7713800096480533
 50
359.93936956811791
 51
72.447045043010945
  0
ARC
  8
_0-0_
  6
CONTINUOUS
 62
    7
 10
2.5810591064433055
 20
6.5282819677140083
 40
1.1836894657260628
 50
344.83006358618314
 51
30.800523507352057
  0
ARC
  8
_0-0_
  6
CONTINUOUS
 62
    7
 10
1.4094795289489213
 20
6.7803610105819629
 40
0.1847291149117913
 50
152.72323661687952
 51
217.66562119859307
  0
ARC
  8
_0-0_
  6
CONTINUOUS
 62
    7
 10
2.6998931959870731
 20
6.8470623134507207
 40
2.0745232100008
 50
228.86073262488341
 51
258.00916502096095
  0
ARC
  8
_0-0_
  6
CONTINUOUS
 62
    7
 10
2.4837171073478856
 20
6.0200814165395897
 40
1.2213184023245203
 50
259.86958091147045
 51
331.98022210363871
  0
LINE
  8
_0-0_
  6
CONTINUOUS
 62
    7
 10
8.3781806649239172
 20
1.5493252223950265
 11
9.3829160178868989
 21
1.2199037951940497
  0
LINE
  8
_0-0_
  6
CONTINUOUS
 62
    7
 10
7.1757924556403481
 20
-0.5919140544113261
 11
8.1146435231631386
 21
-1.1354594092929347
  0
LINE
  8
_0-0_
  6
CONTINUOUS
 62
    7
 10
13.204204573418238
 20
-1.1025172665728391
 11
14.571303496302292
 21
-1.4154676224137646
  0
LINE
  8
_0-0_
  6
CONTINUOUS
 62
    7
 10
12.29829564861555
 20
-3.1119879724988024
 11
13.550097071979266
 21
-3.8202440409809029
  0
LINE
  8
_0-0_
  6
CONTINUOUS
 62
    7
 10
7.5381560255614346
 20
-4.3308472531424158
 11
8.8393706630052833
 21
-4.742624037143635
  0
LINE
  8
_0-0_
  6
CONTINUOUS
 62
    7
 10
6.6487181721187909
 20
-6.4556154585887171
 11
8.081701380443036
 21
-7.1968136697909202
  0
ARC
  8
_0-0_
  6
CONTINUOUS
 62
    7
 10
9.1574856768150426
 20
0.0366387789302251
 40
1.2045476069419605
 50
79.213528037799861
 51
139.14448801382176
  0
ARC
  8
_0-0_
  6
CONTINUOUS
 62
    7
 10
9.347727819981472
 20
-0.1464464426282177
 40
1.4682723855206141
 50
138.59695271049131
 51
189.71688305413471
  0
ARC
  8
_0-0_
  6
CONTINUOUS
 62
    7
 10
8.5686424925288236
 20
-0.5125716984695998
 40
0.6785171921605615
 50
169.95821993332441
 51
262.23834800089065
  0
ARC
  8
_0-0_
  6
CONTINUOUS
 62
    7
 10
8.5511606663998094
 20
0.1110766715868933
 40
1.2980690765682397
 50
266.7251349599851
 51
328.92305780852138
  0
ARC
  8
_0-0_
  6
CONTINUOUS
 62
    7
 10
8.445977468128433
 20
0.2074793401980912
 40
1.4381957256246833
 50
327.79666341967379
 51
18.334638777787159
  0
ARC
  8
_0-0_
  6
CONTINUOUS
 62
    7
 10
8.7022310905945233
 20
0.2556299870938403
 40
1.1803202731594158
 50
20.029141531688641
 51
54.781571731129709
  0
ARC
  8
_0-0_
  6
CONTINUOUS
 62
    7
 10
8.2020128011349698
 20
0.6331388935619131
 40
0.9329697237170445
 50
79.115788537601304
 51
144.83322744534345
  0
ARC
  8
_0-0_
  6
CONTINUOUS
 62
    7
 10
8.9915490397013542
 20
0.0175155859104876
 40
1.9335812723077059
 50
143.39535869753132
 51
182.92969605111531
  0
ARC
  8
_0-0_
  6
CONTINUOUS
 62
    7
 10
8.0041904563962305
 20
-0.1365373756334022
 40
0.945310090515881
 50
176.65078152068355
 51
208.79792985016007
  0
ARC
  8
_0-0_
  6
CONTINUOUS
 62
    7
 10
7.3441585139544401
 20
0.2136270318096649
 40
1.3338782900552266
 50
249.60491932564645
 51
292.33712453651185
  0
ARC
  8
_0-0_
  6
CONTINUOUS
 62
    7
 10
7.4987223429523624
 20
0.0094738275405745
 40
1.215733185058963
 50
175.73577673525838
 51
239.36984641817742
  0
ARC
  8
_0-0_
  6
CONTINUOUS
 62
    7
 10
7.8167040373205197
 20
0.2808190954534097
 40
1.5410099375285202
 50
126.69877133154824
 51
186.7433302724464
  0
ARC
  8
_0-0_
  6
CONTINUOUS
 62
    7
 10
7.6263365173548863
 20
0.7938654737956412
 40
1.0274912734776167
 50
65.724758035608886
 51
135.31681059214068
  0
ARC
  8
_0-0_
  6
CONTINUOUS
 62
    7
 10
8.5099492358042568
 20
2.2081680767968805
 40
0.6639701134765463
 50
226.00508600525148
 51
246.61477894278755
  0
ARC
  8
_0-0_
  6
CONTINUOUS
 62
    7
 10
8.0250408949644765
 20
0.3881146915115891
 40
1.2506699996241468
 50
109.67108182244516
 51
185.66854670745434
  0
ARC
  8
_0-0_
  6
CONTINUOUS
 62
    7
 10
8.0977536957514644
 20
0.095822967545935
 40
1.3280330266401716
 50
172.69944794861112
 51
220.8658403419297
  0
ARC
  8
_0-0_
  6
CONTINUOUS
 62
    7
 10
14.251947723821345
 20
-2.2326157737761889
 40
0.877336429593534
 50
68.653573582053468
 51
138.04388064452115
  0
ARC
  8
_0-0_
  6
CONTINUOUS
 62
    7
 10
14.685154212527479
 20
-2.6355511043071118
 40
1.4689146308669765
 50
137.65301775529804
 51
195.56198673719948
  0
ARC
  8
_0-0_
  6
CONTINUOUS
 62
    7
 10
15.132017849296773
 20
-2.8150899319662841
 40
1.8742486837604535
 50
186.5729775417208
 51
212.43191947160429
  0
ARC
  8
_0-0_
  6
CONTINUOUS
 62
    7
 10
13.914978240890605
 20
-2.9634923032423899
 40
0.9312152315893848
 50
246.93137700618223
 51
317.74679755047015
  0
ARC
  8
_0-0_
  6
CONTINUOUS
 62
    7
 10
13.180718045738175
 20
-2.3790252969766286
 40
1.8687002597290017
 50
319.62085560969166
 51
1.2626413163134611
  0
ARC
  8
_0-0_
  6
CONTINUOUS
 62
    7
 10
14.094438480397613
 20
-2.2472856734975721
 40
0.9588125538929063
 50
354.58020918914184
 51
60.175196353522111
  0
ARC
  8
_0-0_
  6
CONTINUOUS
 62
    7
 10
13.368871246720914
 20
-2.0380653117640009
 40
0.9499290805936889
 50
99.982436227230949
 51
171.22374616153033
  0
ARC
  8
_0-0_
  6
CONTINUOUS
 62
    7
 10
13.987660533273655
 20
-2.6780697483086655
 40
1.7442014616437591
 50
153.25446216099584
 51
194.40518764894438
  0
ARC
  8
_0-0_
  6
CONTINUOUS
 62
    7
 10
13.130084752298018
 20
-1.2567963016453021
 40
0.5545603148462369
 50
5.7388148766781724
 51
97.680858738836051
  0
ARC
  8
_0-0_
  6
CONTINUOUS
 62
    7
 10
12.883328159229748
 20
-1.8850650880265647
 40
1.1904379038019928
 50
81.661588574632916
 51
155.02979867152013
  0
ARC
  8
_0-0_
  6
CONTINUOUS
 62
    7
 10
14.036522160673826
 20
-2.3772196447687008
 40
2.4439397777015817
 50
155.98320771114638
 51
198.71541292201047
  0
ARC
  8
_0-0_
  6
CONTINUOUS
 62
    7
 10
12.63660493115438
 20
-2.7881928023465576
 40
0.9879967849223143
 50
202.19391837987357
 51
257.93331532618646
  0
ARC
  8
_0-0_
  6
CONTINUOUS
 62
    7
 10
12.683912495750818
 20
-3.2011255351531815
 40
0.6086929028380079
 50
245.35225395055534
 51
318.29072273065913
  0
ARC
  8
_0-0_
  6
CONTINUOUS
 62
    7
 10
13.166150718896745
 20
-2.3392675385213266
 40
1.3004955229165882
 50
98.514062022984419
 51
169.72312998385141
  0
ARC
  8
_0-0_
  6
CONTINUOUS
 62
    7
 10
12.720005368780477
 20
-2.6340754363190513
 40
0.849556705879941
 50
168.83807533470505
 51
261.52332338777927
  0
ARC
  8
_0-0_
  6
CONTINUOUS
 62
    7
 10
8.757414079511662
 20
-5.8483877404382199
 40
1.1087967573463113
 50
85.761123335654062
 51
168.74945557150011
  0
ARC
  8
_0-0_
  6
CONTINUOUS
 62
    7
 10
8.6795043821573614
 20
-6.1542917413549461
 40
1.1366509405966783
 50
152.6486283637322
 51
225.58709714386006
  0
ARC
  8
_0-0_
  6
CONTINUOUS
 62
    7
 10
8.1228790588431821
 20
-5.7967726041867991
 40
1.40064648879592
 50
268.31531568210266
 51
324.81478667205306
  0
ARC
  8
_0-0_
  6
CONTINUOUS
 62
    7
 10
7.9556146907682574
 20
-5.8548044021180985
 40
1.5107716547751744
 50
330.27704130708798
 51
14.860142750566911
  0
ARC
  8
_0-0_
  6
CONTINUOUS
 62
    7
 10
8.5471913484812347
 20
-5.5666877710731697
 40
0.8743281931938546
 50
6.5237333909509463
 51
70.477574049740923
  0
ARC
  8
_0-0_
  6
CONTINUOUS
 62
    7
 10
7.86045482730934
 20
-5.4798157715284503
 40
1.1188705941042163
 50
100.66166610536779
 51
164.84684876284186
  0
ARC
  8
_0-0_
  6
CONTINUOUS
 62
    7
 10
8.1991554016775865
 20
-5.7677869146902694
 40
1.5328196055524779
 50
157.7482259501225
 51
208.04892764844053
  0
ARC
  8
_0-0_
  6
CONTINUOUS
 62
    7
 10
7.3708043806880283
 20
-4.6647860627839108
 40
0.6710755761119963
 50
20.508820190497623
 51
105.42945928981673
  0
ARC
  8
_0-0_
  6
CONTINUOUS
 62
    7
 10
7.3331294919459253
 20
-5.3626832642152209
 40
1.3521440724704863
 50
95.97990768415211
 51
158.83080557866526
  0
ARC
  8
_0-0_
  6
CONTINUOUS
 62
    7
 10
7.6687480913447388
 20
-5.6732395689864035
 40
1.7852238877162874
 50
153.41806235730118
 51
213.9309366843577
  0
ARC
  8
_0-0_
  6
CONTINUOUS
 62
    7
 10
6.8475475335365275
 20
-6.0897223733762118
 40
0.8786610780950104
 50
221.30861401354838
 51
286.25099859524573
  0
ARC
  8
_0-0_
  6
CONTINUOUS
 62
    7
 10
7.307561026520645
 20
-7.196813669790707
 40
0.3395598349226053
 50
104.03624346791979
 51
129.09385888623828
  0
ARC
  8
_0-0_
  6
CONTINUOUS
 62
    7
 10
7.2395496821963263
 20
-5.6404065062090822
 40
1.0528313492879007
 50
162.23146941066153
 51
233.66733657516542
  0
ARC
  8
_0-0_
  6
CONTINUOUS
 62
    7
 10
7.1439445449336887
 20
-5.1735786769591883
 40
0.8427321342110707
 50
90.074394806189318
 51
176.45419601595324
  0
ARC
  8
_0-0_
  6
CONTINUOUS
 62
    7
 10
-7.8999515271271861
 20
17.173364845326077
 40
1.778927924940062
 50
120.92182650501343
 51
191.57918450925246
  0
ARC
  8
_0-0_
  6
CONTINUOUS
 62
    7
 10
-7.7367478722795369
 20
16.831856529489301
 40
1.9059907879136406
 50
180.46780396895349
 51
235.58119709518769
  0
ARC
  8
_0-0_
  6
CONTINUOUS
 62
    7
 10
-9.6376533779613851
 20
17.313448407950858
 40
2.2128617148687679
 50
291.8496992174484
 51
316.37924667323364
  0
ARC
  8
_0-0_
  6
CONTINUOUS
 62
    7
 10
-10.973439780047734
 20
16.565207152646963
 40
3.0390944553957344
 50
345.16006083808765
 51
1.420265546398944
  0
ARC
  8
_0-0_
  6
CONTINUOUS
 62
    7
 10
-7.8685264027428872
 20
17.077793443929806
 40
0.672103128764754
 50
118.22296593789254
 51
202.89696440575534
  0
ARC
  8
_0-0_
  6
CONTINUOUS
 62
    7
 10
-7.4289188446873169
 20
17.753688788588292
 40
1.4140952504421342
 50
221.52089110715144
 51
245.71040526117616
  0
ARC
  8
_0-0_
  6
CONTINUOUS
 62
    7
 10
-1.8212942244000061
 20
17.434249475641664
 40
6.1652895061647079
 50
181.07603317301326
 51
187.39675642510403
  0
ARC
  8
_0-0_
  6
CONTINUOUS
 62
    7
 10
-8.8677272784677257
 20
17.892547878575201
 40
0.8086854902350486
 50
38.697693930411077
 51
86.196682916152298
  0
ARC
  8
_0-0_
  6
CONTINUOUS
 62
    7
 10
-6.0723555024090814
 20
16.834825170095627
 40
1.778927924940062
 50
120.92182650501343
 51
191.57918450925246
  0
ARC
  8
_0-0_
  6
CONTINUOUS
 62
    7
 10
-5.9091518475614322
 20
16.49331685425885
 40
1.9059907879136406
 50
180.46780396895349
 51
235.58119709518769
  0
ARC
  8
_0-0_
  6
CONTINUOUS
 62
    7
 10
-7.8100573532432804
 20
16.974908732720408
 40
2.2128617148687679
 50
291.8496992174484
 51
316.37924667323364
  0
ARC
  8
_0-0_
  6
CONTINUOUS
 62
    7
 10
-9.1458437553296363
 20
16.226667477416512
 40
3.0390944553957344
 50
345.16006083808765
 51
1.420265546398944
  0
ARC
  8
_0-0_
  6
CONTINUOUS
 62
    7
 10
-6.0409303780247825
 20
16.739253768699356
 40
0.672103128764754
 50
118.22296593789254
 51
202.89696440575534
  0
ARC
  8
_0-0_
  6
CONTINUOUS
 62
    7
 10
-5.6013228199692122
 20
17.415149113357842
 40
1.4140952504421342
 50
221.52089110715144
 51
245.71040526117616
  0
ARC
  8
_0-0_
  6
CONTINUOUS
 62
    7
 10
0.0063018003180985
 20
17.095709800411214
 40
6.1652895061647079
 50
181.07603317301326
 51
187.39675642510403
  0
ARC
  8
_0-0_
  6
CONTINUOUS
 62
    7
 10
-7.040131253749621
 20
17.55400820334475
 40
0.8086854902350486
 50
38.697693930411077
 51
86.196682916152298
  0
ARC
  8
_0-0_
  6
CONTINUOUS
 62
    7
 10
-8.1312743928426983
 20
12.666769855315366
 40
1.778927924940062
 50
120.92182650501343
 51
191.57918450925246
  0
ARC
  8
_0-0_
  6
CONTINUOUS
 62
    7
 10
-7.9680707379950491
 20
12.325261539478589
 40
1.9059907879136406
 50
180.46780396895349
 51
235.58119709518769
  0
ARC
  8
_0-0_
  6
CONTINUOUS
 62
    7
 10
-9.8689762436768973
 20
12.806853417940147
 40
2.2128617148687679
 50
291.8496992174484
 51
316.37924667323364
  0
ARC
  8
_0-0_
  6
CONTINUOUS
 62
    7
 10
-11.204762645763246
 20
12.058612162636251
 40
3.0390944553957344
 50
345.16006083808765
 51
1.420265546398944
  0
ARC
  8
_0-0_
  6
CONTINUOUS
 62
    7
 10
-8.0998492684583994
 20
12.571198453919095
 40
0.672103128764754
 50
118.22296593789254
 51
202.89696440575534
  0
ARC
  8
_0-0_
  6
CONTINUOUS
 62
    7
 10
-7.6602417104028291
 20
13.247093798577581
 40
1.4140952504421342
 50
221.52089110715144
 51
245.71040526117616
  0
ARC
  8
_0-0_
  6
CONTINUOUS
 62
    7
 10
-2.0526170901155183
 20
12.927654485630953
 40
6.1652895061647079
 50
181.07603317301326
 51
187.39675642510403
  0
ARC
  8
_0-0_
  6
CONTINUOUS
 62
    7
 10
-9.0990501441832379
 20
13.385952888564489
 40
0.8086854902350486
 50
38.697693930411077
 51
86.196682916152298
  0
ARC
  8
_0-0_
  6
CONTINUOUS
 62
    7
 10
-6.1225730363220947
 20
12.415682185750285
 40
1.778927924940062
 50
120.92182650501343
 51
191.57918450925246
  0
ARC
  8
_0-0_
  6
CONTINUOUS
 62
    7
 10
-5.9593693814744455
 20
12.074173869913508
 40
1.9059907879136406
 50
180.46780396895349
 51
235.58119709518769
  0
ARC
  8
_0-0_
  6
CONTINUOUS
 62
    7
 10
-7.8602748871562937
 20
12.555765748375066
 40
2.2128617148687679
 50
291.8496992174484
 51
316.37924667323364
  0
ARC
  8
_0-0_
  6
CONTINUOUS
 62
    7
 10
-9.1960612892426497
 20
11.80752449307117
 40
3.0390944553957344
 50
345.16006083808765
 51
1.420265546398944
  0
ARC
  8
_0-0_
  6
CONTINUOUS
 62
    7
 10
-6.0911479119377958
 20
12.320110784354014
 40
0.672103128764754
 50
118.22296593789254
 51
202.89696440575534
  0
ARC
  8
_0-0_
  6
CONTINUOUS
 62
    7
 10
-5.6515403538822255
 20
12.9960061290125
 40
1.4140952504421342
 50
221.52089110715144
 51
245.71040526117616
  0
ARC
  8
_0-0_
  6
CONTINUOUS
 62
    7
 10
-0.0439157335949147
 20
12.676566816065872
 40
6.1652895061647079
 50
181.07603317301326
 51
187.39675642510403
  0
ARC
  8
_0-0_
  6
CONTINUOUS
 62
    7
 10
-7.0903487876626343
 20
13.134865218999408
 40
0.8086854902350486
 50
38.697693930411077
 51
86.196682916152298
  0
ARC
  8
_0-0_
  6
CONTINUOUS
 62
    7
 10
-8.2317094606687249
 20
8.599149608361131
 40
1.778927924940062
 50
120.92182650501343
 51
191.57918450925246
  0
ARC
  8
_0-0_
  6
CONTINUOUS
 62
    7
 10
-8.0685058058210757
 20
8.2576412925243545
 40
1.9059907879136406
 50
180.46780396895349
 51
235.58119709518769
  0
ARC
  8
_0-0_
  6
CONTINUOUS
 62
    7
 10
-9.9694113115029239
 20
8.7392331709859121
 40
2.2128617148687679
 50
291.8496992174484
 51
316.37924667323364
  0
ARC
  8
_0-0_
  6
CONTINUOUS
 62
    7
 10
-11.305197713589273
 20
7.9909919156820166
 40
3.0390944553957344
 50
345.16006083808765
 51
1.420265546398944
  0
ARC
  8
_0-0_
  6
CONTINUOUS
 62
    7
 10
-8.200284336284426
 20
8.5035782069648604
 40
0.672103128764754
 50
118.22296593789254
 51
202.89696440575534
  0
ARC
  8
_0-0_
  6
CONTINUOUS
 62
    7
 10
-7.7606767782288557
 20
9.1794735516233459
 40
1.4140952504421342
 50
221.52089110715144
 51
245.71040526117616
  0
ARC
  8
_0-0_
  6
CONTINUOUS
 62
    7
 10
-2.1530521579415449
 20
8.8600342386767181
 40
6.1652895061647079
 50
181.07603317301326
 51
187.39675642510403
  0
ARC
  8
_0-0_
  6
CONTINUOUS
 62
    7
 10
-9.1994852120092645
 20
9.3183326416102545
 40
0.8086854902350486
 50
38.697693930411077
 51
86.196682916152298
  0
ARC
  8
_0-0_
  6
CONTINUOUS
 62
    7
 10
-6.4238782398001746
 20
8.1220830361874903
 40
1.778927924940062
 50
120.92182650501343
 51
191.57918450925246
  0
ARC
  8
_0-0_
  6
CONTINUOUS
 62
    7
 10
-6.2606745849525254
 20
7.7805747203507138
 40
1.9059907879136406
 50
180.46780396895349
 51
235.58119709518769
  0
ARC
  8
_0-0_
  6
CONTINUOUS
 62
    7
 10
-8.1615800906343736
 20
8.2621665988122714
 40
2.2128617148687679
 50
291.8496992174484
 51
316.37924667323364
  0
ARC
  8
_0-0_
  6
CONTINUOUS
 62
    7
 10
-9.4973664927207295
 20
7.5139253435083759
 40
3.0390944553957344
 50
345.16006083808765
 51
1.420265546398944
  0
ARC
  8
_0-0_
  6
CONTINUOUS
 62
    7
 10
-6.3924531154158757
 20
8.0265116347912198
 40
0.672103128764754
 50
118.22296593789254
 51
202.89696440575534
  0
ARC
  8
_0-0_
  6
CONTINUOUS
 62
    7
 10
-5.9528455573603054
 20
8.7024069794497052
 40
1.4140952504421342
 50
221.52089110715144
 51
245.71040526117616
  0
ARC
  8
_0-0_
  6
CONTINUOUS
 62
    7
 10
-0.3452209370729946
 20
8.3829676665030775
 40
6.1652895061647079
 50
181.07603317301326
 51
187.39675642510403
  0
ARC
  8
_0-0_
  6
CONTINUOUS
 62
    7
 10
-7.3916539911407142
 20
8.8412660694366139
 40
0.8086854902350486
 50
38.697693930411077
 51
86.196682916152298
  0
ARC
  8
_0-0_
  6
CONTINUOUS
 62
    7
 10
-8.4958389858240082
 20
4.2886321638360627
 40
1.6010351324460559
 50
120.92182650501343
 51
191.57918450925246
  0
ARC
  8
_0-0_
  6
CONTINUOUS
 62
    7
 10
-8.3489556964611324
 20
3.9812746795829739
 40
1.7153917091222766
 50
180.46780396895349
 51
235.58119709518769
  0
ARC
  8
_0-0_
  6
CONTINUOUS
 62
    7
 10
-10.059770651574794
 20
4.4147073701983643
 40
1.9915755433818911
 50
291.8496992174484
 51
316.37924667323364
  0
ARC
  8
_0-0_
  6
CONTINUOUS
 62
    7
 10
-11.26197841345251
 20
3.7412902404248669
 40
2.7351850098561612
 50
345.16006083808765
 51
1.420265546398944
  0
ARC
  8
_0-0_
  6
CONTINUOUS
 62
    7
 10
-8.4675563738781534
 20
4.2026179025794264
 40
0.6048928158882787
 50
118.22296593789254
 51
202.89696440575534
  0
ARC
  8
_0-0_
  6
CONTINUOUS
 62
    7
 10
-8.0719095716281402
 20
4.810923712772059
 40
1.2726857253979209
 50
221.52089110715144
 51
245.71040526117616
  0
ARC
  8
_0-0_
  6
CONTINUOUS
 62
    7
 10
-3.0250474133695491
 20
4.523428331120094
 40
5.5487605555482373
 50
181.07603317301326
 51
187.39675642510403
  0
ARC
  8
_0-0_
  6
CONTINUOUS
 62
    7
 10
-9.3668371620305066
 20
4.9358968937602796
 40
0.7278169412115438
 50
38.697693930411077
 51
86.196682916152298
  0
ARC
  8
_0-0_
  6
CONTINUOUS
 62
    7
 10
-6.462028862346898
 20
3.736239290792895
 40
1.6010351324460559
 50
120.92182650501343
 51
191.57918450925246
  0
ARC
  8
_0-0_
  6
CONTINUOUS
 62
    7
 10
-6.3151455729840222
 20
3.4288818065398061
 40
1.7153917091222766
 50
180.46780396895349
 51
235.58119709518769
  0
ARC
  8
_0-0_
  6
CONTINUOUS
 62
    7
 10
-8.0259605280976842
 20
3.8623144971551966
 40
1.9915755433818911
 50
291.8496992174484
 51
316.37924667323364
  0
ARC
  8
_0-0_
  6
CONTINUOUS
 62
    7
 10
-9.2281682899754003
 20
3.1888973673816992
 40
2.7351850098561612
 50
345.16006083808765
 51
1.420265546398944
  0
ARC
  8
_0-0_
  6
CONTINUOUS
 62
    7
 10
-6.4337462504010432
 20
3.6502250295362586
 40
0.6048928158882787
 50
118.22296593789254
 51
202.89696440575534
  0
ARC
  8
_0-0_
  6
CONTINUOUS
 62
    7
 10
-6.0380994481510299
 20
4.2585308397288912
 40
1.2726857253979209
 50
221.52089110715144
 51
245.71040526117616
  0
ARC
  8
_0-0_
  6
CONTINUOUS
 62
    7
 10
-0.9912372898924388
 20
3.9710354580769263
 40
5.5487605555482373
 50
181.07603317301326
 51
187.39675642510403
  0
ARC
  8
_0-0_
  6
CONTINUOUS
 62
    7
 10
-7.3330270385533964
 20
4.3835040207171119
 40
0.7278169412115438
 50
38.697693930411077
 51
86.196682916152298
  0
ARC
  8
_0-0_
  6
CONTINUOUS
 62
    7
 10
-6.6628989979989512
 20
-0.5071423248568933
 40
1.6010351324460559
 50
120.92182650501343
 51
191.57918450925246
  0
ARC
  8
_0-0_
  6
CONTINUOUS
 62
    7
 10
-6.5160157086360755
 20
-0.8144998091099822
 40
1.7153917091222766
 50
180.46780396895349
 51
235.58119709518769
  0
ARC
  8
_0-0_
  6
CONTINUOUS
 62
    7
 10
-8.2268306637497375
 20
-0.3810671184945917
 40
1.9915755433818911
 50
291.8496992174484
 51
316.37924667323364
  0
ARC
  8
_0-0_
  6
CONTINUOUS
 62
    7
 10
-9.4290384256274535
 20
-1.0544842482680892
 40
2.7351850098561612
 50
345.16006083808765
 51
1.420265546398944
  0
ARC
  8
_0-0_
  6
CONTINUOUS
 62
    7
 10
-6.6346163860530964
 20
-0.5931565861135297
 40
0.6048928158882787
 50
118.22296593789254
 51
202.89696440575534
  0
ARC
  8
_0-0_
  6
CONTINUOUS
 62
    7
 10
-6.2389695838030832
 20
0.0151492240791029
 40
1.2726857253979209
 50
221.52089110715144
 51
245.71040526117616
  0
ARC
  8
_0-0_
  6
CONTINUOUS
 62
    7
 10
-1.1921074255444921
 20
-0.272346157572862
 40
5.5487605555482373
 50
181.07603317301326
 51
187.39675642510403
  0
ARC
  8
_0-0_
  6
CONTINUOUS
 62
    7
 10
-7.5338971742054497
 20
0.1401224050673235
 40
0.7278169412115438
 50
38.697693930411077
 51
86.196682916152298
  0
ARC
  8
_0-0_
  6
CONTINUOUS
 62
    7
 10
-6.6628989979989512
 20
-4.5245450378981147
 40
1.6010351324460559
 50
120.92182650501343
 51
191.57918450925246
  0
ARC
  8
_0-0_
  6
CONTINUOUS
 62
    7
 10
-6.5160157086360755
 20
-4.8319025221512035
 40
1.7153917091222766
 50
180.46780396895349
 51
235.58119709518769
  0
ARC
  8
_0-0_
  6
CONTINUOUS
 62
    7
 10
-8.2268306637497375
 20
-4.3984698315358131
 40
1.9915755433818911
 50
291.8496992174484
 51
316.37924667323364
  0
ARC
  8
_0-0_
  6
CONTINUOUS
 62
    7
 10
-9.4290384256274535
 20
-5.0718869613093105
 40
2.7351850098561612
 50
345.16006083808765
 51
1.420265546398944
  0
ARC
  8
_0-0_
  6
CONTINUOUS
 62
    7
 10
-6.6346163860530964
 20
-4.610559299154751
 40
0.6048928158882787
 50
118.22296593789254
 51
202.89696440575534
  0
ARC
  8
_0-0_
  6
CONTINUOUS
 62
    7
 10
-6.2389695838030832
 20
-4.0022534889621184
 40
1.2726857253979209
 50
221.52089110715144
 51
245.71040526117616
  0
ARC
  8
_0-0_
  6
CONTINUOUS
 62
    7
 10
-1.1921074255444921
 20
-4.2897488706140834
 40
5.5487605555482373
 50
181.07603317301326
 51
187.39675642510403
  0
ARC
  8
_0-0_
  6
CONTINUOUS
 62
    7
 10
-7.5338971742054497
 20
-3.8772803079738978
 40
0.7278169412115438
 50
38.697693930411077
 51
86.196682916152298
  0
ARC
  8
_0-0_
  6
CONTINUOUS
 62
    7
 10
-8.7971441893021023
 20
-7.6882496744180742
 40
1.6010351324460559
 50
120.92182650501343
 51
191.57918450925246
  0
ARC
  8
_0-0_
  6
CONTINUOUS
 62
    7
 10
-8.6502608999392265
 20
-7.995607158671163
 40
1.7153917091222766
 50
180.46780396895349
 51
235.58119709518769
  0
ARC
  8
_0-0_
  6
CONTINUOUS
 62
    7
 10
-10.361075855052889
 20
-7.5621744680557725
 40
1.9915755433818911
 50
291.8496992174484
 51
316.37924667323364
  0
ARC
  8
_0-0_
  6
CONTINUOUS
 62
    7
 10
-11.563283616930605
 20
-8.23559159782927
 40
2.7351850098561612
 50
345.16006083808765
 51
1.420265546398944
  0
ARC
  8
_0-0_
  6
CONTINUOUS
 62
    7
 10
-8.7688615773562475
 20
-7.7742639356747105
 40
0.6048928158882787
 50
118.22296593789254
 51
202.89696440575534
  0
ARC
  8
_0-0_
  6
CONTINUOUS
 62
    7
 10
-8.3732147751062342
 20
-7.1659581254820779
 40
1.2726857253979209
 50
221.52089110715144
 51
245.71040526117616
  0
ARC
  8
_0-0_
  6
CONTINUOUS
 62
    7
 10
-3.3263526168476432
 20
-7.4534535071340429
 40
5.5487605555482373
 50
181.07603317301326
 51
187.39675642510403
  0
ARC
  8
_0-0_
  6
CONTINUOUS
 62
    7
 10
-9.6681423655086007
 20
-7.0409849444938573
 40
0.7278169412115438
 50
38.697693930411077
 51
86.196682916152298
  0
ARC
  8
_0-0_
  6
CONTINUOUS
 62
    7
 10
-6.7884428327814987
 20
-8.4666214500698089
 40
1.6010351324460559
 50
120.92182650501343
 51
191.57918450925246
  0
ARC
  8
_0-0_
  6
CONTINUOUS
 62
    7
 10
-6.641559543418623
 20
-8.7739789343228978
 40
1.7153917091222766
 50
180.46780396895349
 51
235.58119709518769
  0
ARC
  8
_0-0_
  6
CONTINUOUS
 62
    7
 10
-8.352374498532285
 20
-8.3405462437075073
 40
1.9915755433818911
 50
291.8496992174484
 51
316.37924667323364
  0
ARC
  8
_0-0_
  6
CONTINUOUS
 62
    7
 10
-9.554582260410001
 20
-9.0139633734810047
 40
2.7351850098561612
 50
345.16006083808765
 51
1.420265546398944
  0
ARC
  8
_0-0_
  6
CONTINUOUS
 62
    7
 10
-6.7601602208356439
 20
-8.5526357113264453
 40
0.6048928158882787
 50
118.22296593789254
 51
202.89696440575534
  0
ARC
  8
_0-0_
  6
CONTINUOUS
 62
    7
 10
-6.3645134185856307
 20
-7.9443299011338127
 40
1.2726857253979209
 50
221.52089110715144
 51
245.71040526117616
  0
ARC
  8
_0-0_
  6
CONTINUOUS
 62
    7
 10
-1.3176512603270396
 20
-8.2318252827857776
 40
5.5487605555482373
 50
181.07603317301326
 51
187.39675642510403
  0
ARC
  8
_0-0_
  6
CONTINUOUS
 62
    7
 10
-7.6594410089879972
 20
-7.819356720145592
 40
0.7278169412115438
 50
38.697693930411077
 51
86.196682916152298
  0
ARC
  8
_0-0_
  6
CONTINUOUS
 62
    7
 10
-9.0361649475008932
 20
-11.622135614595514
 40
1.4231423399520498
 50
120.92182650501343
 51
191.57918450925246
  0
ARC
  8
_0-0_
  6
CONTINUOUS
 62
    7
 10
-8.9056020236227766
 20
-11.895342267264944
 40
1.5247926303309125
 50
180.46780396895349
 51
235.58119709518769
  0
ARC
  8
_0-0_
  6
CONTINUOUS
 62
    7
 10
-10.426326428168252
 20
-11.510068764495692
 40
1.7702893718950143
 50
291.8496992174484
 51
316.37924667323364
  0
ARC
  8
_0-0_
  6
CONTINUOUS
 62
    7
 10
-11.494955549837329
 20
-12.108661768738806
 40
2.4312755643165875
 50
345.16006083808765
 51
1.420265546398944
  0
ARC
  8
_0-0_
  6
CONTINUOUS
 62
    7
 10
-9.011024847993454
 20
-11.698592735712531
 40
0.5376825030118033
 50
118.22296593789254
 51
202.89696440575534
  0
ARC
  8
_0-0_
  6
CONTINUOUS
 62
    7
 10
-8.6593388015489978
 20
-11.157876459985751
 40
1.1312762003537074
 50
221.52089110715144
 51
245.71040526117616
  0
ARC
  8
_0-0_
  6
CONTINUOUS
 62
    7
 10
-4.1732391053191549
 20
-11.413427910343053
 40
4.9322316049317667
 50
181.07603317301326
 51
187.39675642510403
  0
ARC
  8
_0-0_
  6
CONTINUOUS
 62
    7
 10
-9.810385548573322
 20
-11.046789187996218
 40
0.646948392188039
 50
38.697693930411077
 51
86.196682916152298
  0
ARC
  8
_0-0_
  6
CONTINUOUS
 62
    7
 10
-7.127898658806302
 20
-12.551159991986296
 40
1.4231423399520498
 50
120.92182650501343
 51
191.57918450925246
  0
ARC
  8
_0-0_
  6
CONTINUOUS
 62
    7
 10
-6.9973357349281855
 20
-12.824366644655726
 40
1.5247926303309125
 50
180.46780396895349
 51
235.58119709518769
  0
ARC
  8
_0-0_
  6
CONTINUOUS
 62
    7
 10
-8.5180601394736613
 20
-12.439093141886474
 40
1.7702893718950143
 50
291.8496992174484
 51
316.37924667323364
  0
ARC
  8
_0-0_
  6
CONTINUOUS
 62
    7
 10
-9.5866892611427375
 20
-13.037686146129587
 40
2.4312755643165875
 50
345.16006083808765
 51
1.420265546398944
  0
ARC
  8
_0-0_
  6
CONTINUOUS
 62
    7
 10
-7.1027585592988629
 20
-12.627617113103312
 40
0.5376825030118033
 50
118.22296593789254
 51
202.89696440575534
  0
ARC
  8
_0-0_
  6
CONTINUOUS
 62
    7
 10
-6.7510725128544067
 20
-12.086900837376533
 40
1.1312762003537074
 50
221.52089110715144
 51
245.71040526117616
  0
ARC
  8
_0-0_
  6
CONTINUOUS
 62
    7
 10
-2.2649728166245637
 20
-12.342452287733835
 40
4.9322316049317667
 50
181.07603317301326
 51
187.39675642510403
  0
ARC
  8
_0-0_
  6
CONTINUOUS
 62
    7
 10
-7.9021192598787309
 20
-11.975813565387
 40
0.646948392188039
 50
38.697693930411077
 51
86.196682916152298
  0
ARC
  8
_0-0_
  6
CONTINUOUS
 62
    7
 10
-9.1114912483704131
 20
-15.463776958941182
 40
1.4231423399520498
 50
120.92182650501343
 51
191.57918450925246
  0
ARC
  8
_0-0_
  6
CONTINUOUS
 62
    7
 10
-8.9809283244922966
 20
-15.736983611610611
 40
1.5247926303309125
 50
180.46780396895349
 51
235.58119709518769
  0
ARC
  8
_0-0_
  6
CONTINUOUS
 62
    7
 10
-10.501652729037772
 20
-15.35171010884136
 40
1.7702893718950143
 50
291.8496992174484
 51
316.37924667323364
  0
ARC
  8
_0-0_
  6
CONTINUOUS
 62
    7
 10
-11.570281850706849
 20
-15.950303113084473
 40
2.4312755643165875
 50
345.16006083808765
 51
1.420265546398944
  0
ARC
  8
_0-0_
  6
CONTINUOUS
 62
    7
 10
-9.086351148862974
 20
-15.540234080058198
 40
0.5376825030118033
 50
118.22296593789254
 51
202.89696440575534
  0
ARC
  8
_0-0_
  6
CONTINUOUS
 62
    7
 10
-8.7346651024185178
 20
-14.999517804331418
 40
1.1312762003537074
 50
221.52089110715144
 51
245.71040526117616
  0
ARC
  8
_0-0_
  6
CONTINUOUS
 62
    7
 10
-4.2485654061886748
 20
-15.255069254688721
 40
4.9322316049317667
 50
181.07603317301326
 51
187.39675642510403
  0
ARC
  8
_0-0_
  6
CONTINUOUS
 62
    7
 10
-9.885711849442842
 20
-14.888430532341886
 40
0.646948392188039
 50
38.697693930411077
 51
86.196682916152298
  0
ARC
  8
_0-0_
  6
CONTINUOUS
 62
    7
 10
-7.2534424935888495
 20
-16.568562705027517
 40
1.4231423399520498
 50
120.92182650501343
 51
191.57918450925246
  0
ARC
  8
_0-0_
  6
CONTINUOUS
 62
    7
 10
-7.122879569710733
 20
-16.841769357696947
 40
1.5247926303309125
 50
180.46780396895349
 51
235.58119709518769
  0
ARC
  8
_0-0_
  6
CONTINUOUS
 62
    7
 10
-8.6436039742562087
 20
-16.456495854927695
 40
1.7702893718950143
 50
291.8496992174484
 51
316.37924667323364
  0
ARC
  8
_0-0_
  6
CONTINUOUS
 62
    7
 10
-9.7122330959252849
 20
-17.055088859170809
 40
2.4312755643165875
 50
345.16006083808765
 51
1.420265546398944
  0
ARC
  8
_0-0_
  6
CONTINUOUS
 62
    7
 10
-7.2283023940814104
 20
-16.645019826144534
 40
0.5376825030118033
 50
118.22296593789254
 51
202.89696440575534
  0
ARC
  8
_0-0_
  6
CONTINUOUS
 62
    7
 10
-6.8766163476369542
 20
-16.104303550417754
 40
1.1312762003537074
 50
221.52089110715144
 51
245.71040526117616
  0
ARC
  8
_0-0_
  6
CONTINUOUS
 62
    7
 10
-2.3905166514071112
 20
-16.359855000775056
 40
4.9322316049317667
 50
181.07603317301326
 51
187.39675642510403
  0
ARC
  8
_0-0_
  6
CONTINUOUS
 62
    7
 10
-8.0276630946612784
 20
-15.993216278428221
 40
0.646948392188039
 50
38.697693930411077
 51
86.196682916152298
  0
ARC
  8
_0-0_
  6
CONTINUOUS
 62
    7
 10
-9.0612737144573998
 20
-19.204983235460816
 40
1.4231423399520498
 50
120.92182650501343
 51
191.57918450925246
  0
ARC
  8
_0-0_
  6
CONTINUOUS
 62
    7
 10
-8.9307107905792833
 20
-19.478189888130245
 40
1.5247926303309125
 50
180.46780396895349
 51
235.58119709518769
  0
ARC
  8
_0-0_
  6
CONTINUOUS
 62
    7
 10
-10.451435195124759
 20
-19.092916385360994
 40
1.7702893718950143
 50
291.8496992174484
 51
316.37924667323364
  0
ARC
  8
_0-0_
  6
CONTINUOUS
 62
    7
 10
-11.520064316793835
 20
-19.691509389604107
 40
2.4312755643165875
 50
345.16006083808765
 51
1.420265546398944
  0
ARC
  8
_0-0_
  6
CONTINUOUS
 62
    7
 10
-9.0361336149499607
 20
-19.281440356577832
 40
0.5376825030118033
 50
118.22296593789254
 51
202.89696440575534
  0
ARC
  8
_0-0_
  6
CONTINUOUS
 62
    7
 10
-8.6844475685055045
 20
-18.740724080851052
 40
1.1312762003537074
 50
221.52089110715144
 51
245.71040526117616
  0
ARC
  8
_0-0_
  6
CONTINUOUS
 62
    7
 10
-4.1983478722756615
 20
-18.996275531208354
 40
4.9322316049317667
 50
181.07603317301326
 51
187.39675642510403
  0
ARC
  8
_0-0_
  6
CONTINUOUS
 62
    7
 10
-9.8354943155298287
 20
-18.62963680886152
 40
0.646948392188039
 50
38.697693930411077
 51
86.196682916152298
  0
ARC
  8
_0-0_
  6
CONTINUOUS
 62
    7
 10
-7.3538775614148761
 20
-20.108898845895091
 40
1.4231423399520498
 50
120.92182650501343
 51
191.57918450925246
  0
ARC
  8
_0-0_
  6
CONTINUOUS
 62
    7
 10
-7.2233146375367596
 20
-20.38210549856452
 40
1.5247926303309125
 50
180.46780396895349
 51
235.58119709518769
  0
ARC
  8
_0-0_
  6
CONTINUOUS
 62
    7
 10
-8.7440390420822354
 20
-19.996831995795269
 40
1.7702893718950143
 50
291.8496992174484
 51
316.37924667323364
  0
ARC
  8
_0-0_
  6
CONTINUOUS
 62
    7
 10
-9.8126681637513116
 20
-20.595425000038382
 40
2.4312755643165875
 50
345.16006083808765
 51
1.420265546398944
  0
ARC
  8
_0-0_
  6
CONTINUOUS
 62
    7
 10
-7.328737461907437
 20
-20.185355967012107
 40
0.5376825030118033
 50
118.22296593789254
 51
202.89696440575534
  0
ARC
  8
_0-0_
  6
CONTINUOUS
 62
    7
 10
-6.9770514154629808
 20
-19.644639691285327
 40
1.1312762003537074
 50
221.52089110715144
 51
245.71040526117616
  0
ARC
  8
_0-0_
  6
CONTINUOUS
 62
    7
 10
-2.4909517192331379
 20
-19.90019114164263
 40
4.9322316049317667
 50
181.07603317301326
 51
187.39675642510403
  0
ARC
  8
_0-0_
  6
CONTINUOUS
 62
    7
 10
-8.128098162487305
 20
-19.533552419295795
 40
0.646948392188039
 50
38.697693930411077
 51
86.196682916152298
  0
ENDBLK
  0
ENDSEC
  0
SECTION
  2
ENTITIES
  0
INSERT
  2
-000-2
  8
_0-0_
 10
143.61734693877551
 20
109.20918367346938
 41
1
 42
1
 50
0
  0
ENDSEC
  0
EOF
