  0
SECTION
  2
HEADER
  9
$ACADVER
  1
AC1009
  9
$INSBASE
 10
0
 20
0
 30
0
  9
$EXTMIN
 10
0
 20
0
  9
$EXTMAX
 10
297
 20
210
  9
$LIMMIN
 10
0
 20
0
  9
$LIMMAX
 10
297
 20
210
  9
$LTSCALE
 40
1
  0
ENDSEC
  0
SECTION
  2
TABLES
  0
TABLE
  2
LTYPE
 70
     9
  0
LTYPE
  2
CONTINUOUS
 70
    64
  3
実線
 72
    65
 73
     0
 40
0.0
  0
LTYPE
  2
DASHED1
 70
    64
  3
--  --  --  --  --  --  --  --  
 72
    65
 73
     2
 40
2.5
 49
1.25
 49
-1.25
  0
LTYPE
  2
DASHED2
 70
    64
  3
----    ----    ----    ----    
 72
    65
 73
     2
 40
5.0
 49
2.5
 49
-2.5
  0
LTYPE
  2
DASHED3
 70
    64
  3
------  ------  ------  ------  
 72
    65
 73
     2
 40
5.0
 49
3.75
 49
-1.25
  0
LTYPE
  2
CENTER1
 70
    64
  3
----- - ----- - ----- - ----- - 
 72
    65
 73
     4
 40
10.0
 49
6.25
 49
-1.25
 49
1.25
 49
-1.25
  0
LTYPE
  2
CENTER2
 70
    64
  3
----------  --  ----------  --  
 72
    65
 73
     4
 40
20.0
 49
12.5
 49
-2.5
 49
2.5
 49
-2.5
  0
LTYPE
  2
PHANTOM1
 70
    64
  3
--- - - --- - - --- - - --- - - 
 72
    65
 73
     6
 40
10.0
 49
3.25
 49
-1.25
 49
1.25
 49
-1.25
 49
1.25
 49
-1.25
  0
LTYPE
  2
PHANTOM2
 70
    64
  3
--------  -  -  --------  -  -  
 72
    65
 73
     6
 40
20.0
 49
10.0
 49
-2.5
 49
1.25
 49
-2.5
 49
1.25
 49
-2.5
  0
LTYPE
  2
DOT
 70
    64
  3
-   -   -   -   -   -   -   -   
 72
    65
 73
     2
 40
2.5
 49
0.625
 49
-1.875
  0
LTYPE
  2
DUMMY
 70
    64
  3
ダミー
 72
    65
 73
     0
 40
0.0
  0
LTYPE
  2
RAND1
 70
    64
  3
ランダム線1
 72
    65
 73
     4
 40
10.0
 49
1.0
 49
-2.0
 49
3.0
 49
-4.0
  0
LTYPE
  2
RAND2
 70
    64
  3
ランダム線2
 72
    65
 73
     4
 40
14.0
 49
2.0
 49
-3.0
 49
4.0
 49
-5.0
  0
LTYPE
  2
RAND3
 70
    64
  3
ランダム線3
 72
    65
 73
     4
 40
18.0
 49
3.0
 49
-4.0
 49
5.0
 49
-6.0
  0
LTYPE
  2
RAND4
 70
    64
  3
ランダム線4
 72
    65
 73
     4
 40
22.0
 49
4.0
 49
-5.0
 49
6.0
 49
-7.0
  0
LTYPE
  2
RAND5
 70
    64
  3
ランダム線5
 72
    65
 73
     4
 40
26.0
 49
5.0
 49
-6.0
 49
7.0
 49
-8.0
  0
LTYPE
  2
LONG1
 70
    64
  3
----------  --  ----------  --  
 72
    65
 73
     4
 40
40.0
 49
32.5
 49
-2.5
 49
2.5
 49
-2.5
  0
LTYPE
  2
LONG2
 70
    64
  3
--------  -  -  --------  -  -  
 72
    65
 73
     6
 40
40.0
 49
30.0
 49
-2.5
 49
1.25
 49
-2.5
 49
1.25
 49
-2.5
  0
LTYPE
  2
LONG3
 70
    64
  3
+++++++++++++++..+++++++++++++++
 72
    65
 73
     2
 40
40.0
 49
37.5
 49
-2.5
  0
LTYPE
  2
LONG4
 70
    64
  3
+++++++++++++++..+++++++++++++++
 72
    65
 73
     2
 40
80.0
 49
75.0
 49
-5.0
  0
LTYPE
  2
LONG5
 70
    64
  3
----------  --  ----------  --  
 72
    65
 73
     4
 40
60.0
 49
37.5
 49
-7.5
 49
7.5
 49
-7.5
  0
LTYPE
  2
dashed
 70
   64
  3
-------   -------------   ------
 72
   65
 73
    2
 40
7.5
 49
6
 49
-1.5
  0
LTYPE
  2
dashed_spaced
 70
   64
  3
----        --------        ----
 72
   65
 73
    2
 40
12
 49
6
 49
-6
  0
LTYPE
  2
long_dashed_dotted
 70
   64
  3
------------- --- --------------
 72
   65
 73
    4
 40
15.25
 49
12
 49
-1.5
 49
0.25
 49
-1.5
  0
LTYPE
  2
long_dashed_double-dotted
 70
   64
  3
----------- --- --- ------------
 72
   65
 73
    6
 40
17
 49
12
 49
-1.5
 49
0.25
 49
-1.5
 49
0.25
 49
-1.5
  0
LTYPE
  2
long_dashed_triplicate-dotted
 70
   64
  3
--------- --- --- --- ----------
 72
   65
 73
    8
 40
18.75
 49
12
 49
-1.5
 49
0.25
 49
-1.5
 49
0.25
 49
-1.5
 49
0.25
 49
-1.5
  0
LTYPE
  2
dotted
 70
   64
  3
   -       -       -       -    
 72
   65
 73
    2
 40
1.75
 49
0.25
 49
-1.5
  0
LTYPE
  2
chain
 70
   64
  3
-------------- -- --------------
 72
   65
 73
    4
 40
18.5
 49
12
 49
-1.5
 49
3.5
 49
-1.5
  0
LTYPE
  2
chain_double_dash
 70
   64
  3
------------ -- -- -------------
 72
   65
 73
    6
 40
23.5
 49
12
 49
-1.5
 49
3.5
 49
-1.5
 49
3.5
 49
-1.5
  0
LTYPE
  2
dashed_dotted
 70
   64
  3
-----------     -     ----------
 72
   65
 73
    4
 40
9.25
 49
6
 49
-1.5
 49
0.25
 49
-1.5
  0
LTYPE
  2
double-dashed_dotted
 70
   64
  3
------   -----------   -   -----
 72
   65
 73
    6
 40
16.75
 49
6
 49
-1.5
 49
6
 49
-1.5
 49
0.25
 49
-1.5
  0
LTYPE
  2
dashed_double-dotted
 70
   64
  3
---------    -    -    ---------
 72
   65
 73
    6
 40
11
 49
6
 49
-1.5
 49
0.25
 49
-1.5
 49
0.25
 49
-1.5
  0
LTYPE
  2
double-dashed_double-dotted
 70
   64
  3
-----   ---------   -   -   ----
 72
   65
 73
    8
 40
18.5
 49
6
 49
-1.5
 49
6
 49
-1.5
 49
0.25
 49
-1.5
 49
0.25
 49
-1.5
  0
LTYPE
  2
dashed_triplicate-dotted
 70
   64
  3
-------    -    -    -    ------
 72
   65
 73
    8
 40
12.75
 49
6
 49
-1.5
 49
0.25
 49
-1.5
 49
0.25
 49
-1.5
 49
0.25
 49
-1.5
  0
LTYPE
  2
double-dashed_triplicate-dotted
 70
   64
  3
-----  ---------  -  -  -  -----
 72
   65
 73
   10
 40
20.25
 49
6
 49
-1.5
 49
6
 49
-1.5
 49
0.25
 49
-1.5
 49
0.25
 49
-1.5
 49
0.25
 49
-1.5
  0
LTYPE
  2
undefined
 70
   64
  3
--------------------------------
 72
   65
 73
    0
 40
0
  0
LTYPE
  2
_
 70
   64
  3
                                
 72
   65
 73
    0
 40
0
  0
LTYPE
  2
__18
 70
   64
  3
                                
 72
   65
 73
    0
 40
0
  0
LTYPE
  2
__19
 70
   64
  3
                                
 72
   65
 73
    0
 40
0
  0
LTYPE
  2
__20
 70
   64
  3
                                
 72
   65
 73
    0
 40
0
  0
LTYPE
  2
__21
 70
   64
  3
                                
 72
   65
 73
    0
 40
0
  0
LTYPE
  2
__22
 70
   64
  3
                                
 72
   65
 73
    0
 40
0
  0
LTYPE
  2
__23
 70
   64
  3
                                
 72
   65
 73
    0
 40
0
  0
LTYPE
  2
__24
 70
   64
  3
                                
 72
   65
 73
    0
 40
0
  0
LTYPE
  2
__25
 70
   64
  3
                                
 72
   65
 73
    0
 40
0
  0
LTYPE
  2
__26
 70
   64
  3
                                
 72
   65
 73
    0
 40
0
  0
LTYPE
  2
__27
 70
   64
  3
                                
 72
   65
 73
    0
 40
0
  0
LTYPE
  2
__28
 70
   64
  3
                                
 72
   65
 73
    0
 40
0
  0
LTYPE
  2
__29
 70
   64
  3
                                
 72
   65
 73
    0
 40
0
  0
LTYPE
  2
__30
 70
   64
  3
                                
 72
   65
 73
    0
 40
0
  0
LTYPE
  2
__31
 70
   64
  3
                                
 72
   65
 73
    0
 40
0
  0
LTYPE
  2
__32
 70
   64
  3
                                
 72
   65
 73
    0
 40
0
  0
ENDTAB
  0
TABLE
  2
STYLE
  5
3
100
AcDbSymbolTable
 70
     1
  0
STYLE
  5
10
100
AcDbSymbolTableRecord
100
AcDbTextStyleTableRecord
  2
STANDARD
 70
     0
 40
0.0
 41
1.0
 50
0.0
 71
     0
 42
0.2
  3
txt
  4
bigfont.shx
  0
STYLE
  5
26
100
AcDbSymbolTableRecord
100
AcDbTextStyleTableRecord
  2
TATEGAKI
 70
    68
 40
0.0
 41
1.0
 50
0.0
 71
     0
 42
1.0
  3
txt
  4
bigfont.shx
  0
ENDTAB
  0
TABLE
  2
LAYER
 70
    2
  0
LAYER
  2
_0-0_
 70
   64
 62
    7
  6
CONTINUOUS
  0
LAYER
  2
ADD_LINE
 70
   64
 62
    7
  6
CONTINUOUS
  0
ENDTAB
  0
ENDSEC
  0
SECTION
  2
BLOCKS
  0
BLOCK
  2
-002-31
 70
   64
 10
0
 20
0
 30
0
  0
LINE
  8
_0-0_
  6
CONTINUOUS
 62
    7
 10
11.091824892435781
 20
39.738442807353913
 11
27.876988590760277
 21
35.949791572589241
  0
LINE
  8
_0-0_
  6
CONTINUOUS
 62
    7
 10
29.987123455692483
 20
35.038596971823047
 11
36.365485661055772
 21
30.674454410258683
  0
LINE
  8
_0-0_
  6
CONTINUOUS
 62
    7
 10
27.01375160056071
 20
35.949791572589241
 11
-17.011334899616031
 21
-41.693579934803118
  0
LINE
  8
_0-0_
  6
CONTINUOUS
 62
    7
 10
-27.753839666543698
 20
-29.36847401917629
 11
-15.668521803750082
 21
-42.988435420102434
  0
LINE
  8
_0-0_
  6
CONTINUOUS
 62
    7
 10
-13.22268366485136
 20
-44.235333294835115
 11
31.28197894099182
 21
33.887614318223662
  0
LINE
  8
_0-0_
  6
CONTINUOUS
 62
    7
 10
32.385003984024564
 20
33.07233493859075
 11
10.947952060735872
 21
-4.57438935622271
  0
LINE
  8
_0-0_
  6
CONTINUOUS
 62
    7
 10
11.907104272068707
 20
-4.0468556399896514
 11
32.720707257991052
 21
33.024377328024109
  0
LINE
  8
_0-0_
  6
CONTINUOUS
 62
    7
 10
36.653231324455646
 20
29.667344588359221
 11
16.750822939299496
 21
-5.6294567886888203
  0
LINE
  8
_0-0_
  6
CONTINUOUS
 62
    7
 10
13.249917367934671
 20
-11.8639461623522
 11
-6.844321459488043
 21
-46.87300187600038
  0
LINE
  8
_0-0_
  6
CONTINUOUS
 62
    7
 10
-11.640082516152191
 20
-45.242443116734577
 11
9.2214780803367944
 21
-8.9864895283537081
  0
LINE
  8
_0-0_
  6
CONTINUOUS
 62
    7
 10
8.9816900275035891
 20
-8.3150829804207333
 11
-11.640082516152191
 21
-45.242443116734577
  0
LINE
  8
_0-0_
  6
CONTINUOUS
 62
    7
 10
-12.455361895785103
 20
-44.47512134766832
 11
7.9745802056041271
 21
-7.1161427162546929
  0
LINE
  8
_0-0_
  6
CONTINUOUS
 62
    7
 10
11.091824892435781
 20
39.738442807353913
 11
-27.466094003143851
 21
-28.840940302943235
  0
LINE
  8
_0-0_
  6
CONTINUOUS
 62
    7
 10
-26.986517897477441
 20
-29.8480501248427
 11
11.859146661502066
 21
39.594569975653975
  0
LINE
  8
_0-0_
  6
CONTINUOUS
 62
    7
 10
11.844582684880862
 20
39.568534619916313
 11
12.818298872834887
 21
38.683375374887795
  0
LINE
  8
_0-0_
  6
CONTINUOUS
 62
    7
 10
12.818298872834887
 20
38.683375374887795
 11
-26.171238517844529
 21
-30.375583841075759
  0
LINE
  8
_0-0_
  6
CONTINUOUS
 62
    7
 10
-26.171238517844529
 20
-30.375583841075759
 11
-26.986517897477441
 21
-29.991922956542627
  0
LINE
  8
_0-0_
  6
CONTINUOUS
 62
    7
 10
13.537663031334517
 20
-4.0948132505562995
 11
46.484541490617119
 21
-22.510535708146577
  0
LINE
  8
_0-0_
  6
CONTINUOUS
 62
    7
 10
46.484541490617119
 20
-22.510535708146577
 11
43.319339193218809
 21
-28.073618533876971
  0
LINE
  8
_0-0_
  6
CONTINUOUS
 62
    7
 10
43.319339193218809
 20
-28.073618533876971
 11
10.180630291669615
 21
-10.23338740308639
  0
LINE
  8
_0-0_
  6
CONTINUOUS
 62
    7
 10
25.91072655752798
 20
29.427556535526016
 11
21.594541606530257
 21
22.042084508263237
  0
LINE
  8
_0-0_
  6
CONTINUOUS
 62
    7
 10
12.962171704534811
 20
7.5588861171375541
 11
9.9887998494030512
 21
2.5233370076402082
  0
LINE
  8
_0-0_
  6
CONTINUOUS
 62
    7
 10
-4.3984833205893636
 20
-23.757433582879251
 11
-8.5707954398871493
 21
-31.142905610142019
  0
LINE
  8
_0-0_
  6
CONTINUOUS
 62
    7
 10
12.996383503155599
 20
37.84793547106765
 11
26.22168736999194
 21
34.641801200319442
  0
LINE
  8
_0-0_
  6
CONTINUOUS
 62
    7
 10
12.871143883204496
 20
36.971258131409932
 11
25.620537194226642
 21
33.664932164700851
  0
LINE
  8
_0-0_
  6
CONTINUOUS
 62
    7
 10
9.6900575364465169
 20
30.959756373757052
 11
21.988588215644697
 21
27.302759471184892
  0
LINE
  8
_0-0_
  6
CONTINUOUS
 62
    7
 10
8.9135718927496868
 20
30.308510350011325
 11
21.462581811850072
 21
26.350938359556515
  0
LINE
  8
_0-0_
  6
CONTINUOUS
 62
    7
 10
10.115872244280268
 20
31.8865295613952
 11
12.620664643302291
 21
36.745826815497956
  0
LINE
  8
_0-0_
  6
CONTINUOUS
 62
    7
 10
8.4126134129452765
 20
29.106209998480757
 11
20.7612399401239
 21
24.973302540094402
  0
LINE
  8
_0-0_
  6
CONTINUOUS
 62
    7
 10
8.0869904010724127
 20
28.429916050744801
 11
20.235233536329275
 21
24.096625200436684
  0
LINE
  8
_0-0_
  6
CONTINUOUS
 62
    7
 10
4.6804727384024432
 20
22.243078825160374
 11
16.427949089815783
 21
17.458925343028305
  0
LINE
  8
_0-0_
  6
CONTINUOUS
 62
    7
 10
15.977086457991817
 20
16.607295927360802
 11
4.1043704866273742
 21
21.441545257473329
  0
LINE
  8
_0-0_
  6
CONTINUOUS
 62
    7
 10
7.7613673891995489
 20
28.029149266901278
 11
4.9309519783046483
 21
22.769085228955014
  0
LINE
  8
_0-0_
  6
CONTINUOUS
 62
    7
 10
3.1275014510087829
 20
20.489724145844953
 11
15.275744586265645
 21
15.379947651840006
  0
LINE
  8
_0-0_
  6
CONTINUOUS
 62
    7
 10
14.74973818247102
 20
14.403078616221414
 11
3.2527410709598854
 21
19.58799888219702
  0
LINE
  8
_0-0_
  6
CONTINUOUS
 62
    7
 10
2.7267346671652604
 20
19.3124717183046
 11
-0.1036807437296403
 21
14.027359756368121
  0
LINE
  8
_0-0_
  6
CONTINUOUS
 62
    7
 10
0.0215588762214622
 20
13.576497124544154
 11
11.117789203889075
 21
8.0659538466956704
  0
LINE
  8
_0-0_
  6
CONTINUOUS
 62
    7
 10
-0.6046392235340363
 20
12.649723936905993
 11
10.441495256153132
 21
7.089084811077079
  0
LINE
  8
_0-0_
  6
CONTINUOUS
 62
    7
 10
3.0523576790381242
 20
19.512855110226361
 11
3.102453527018568
 21
19.337519642294829
  0
LINE
  8
_0-0_
  6
CONTINUOUS
 62
    7
 10
3.2777889949501144
 20
19.237327946333941
 11
7.6862236172288902
 21
17.358733647067417
  0
LINE
  8
_0-0_
  6
CONTINUOUS
 62
    7
 10
8.1120383250626276
 20
28.179436810842596
 11
8.2372779450137301
 21
27.979053418920834
  0
LINE
  8
_0-0_
  6
CONTINUOUS
 62
    7
 10
8.7883322727985842
 20
27.803717950989288
 11
13.046479351136028
 21
26.300842511576072
  0
LINE
  8
_0-0_
  6
CONTINUOUS
 62
    7
 10
7.8615590851604225
 20
27.603334559067527
 11
6.9848817455027188
 21
26.075411195664081
  0
LINE
  8
_0-0_
  6
CONTINUOUS
 62
    7
 10
2.4512075032728404
 20
18.085123442783804
 11
2.0253927954390889
 21
17.333685723077188
  0
LINE
  8
_0-0_
  6
CONTINUOUS
 62
    7
 10
0.9232841398693949
 20
15.279755955879132
 11
0.3221339641041112
 21
14.35298276824097
  0
LINE
  8
_0-0_
  6
CONTINUOUS
 62
    7
 10
12.770952187243623
 20
36.871066435449045
 11
12.871143883204496
 21
36.745826815497942
  0
LINE
  8
_0-0_
  6
CONTINUOUS
 62
    7
 10
12.570568795321847
 20
36.470299651605522
 11
11.543603911722826
 21
34.591705352338998
  0
LINE
  8
_0-0_
  6
CONTINUOUS
 62
    7
 10
13.271910667048019
 20
36.770874739488171
 11
15.125457042324328
 21
36.269916259683761
  0
LINE
  8
_0-0_
  6
CONTINUOUS
 62
    7
 10
-1.2997589994919423
 20
11.804582518535334
 11
9.9332510744661988
 21
5.8377522176803112
  0
LINE
  8
_0-0_
  6
CONTINUOUS
 62
    7
 10
9.2778038065692527
 20
4.8658821307986173
 11
-1.7291899681140848
 21
10.877915691508612
  0
LINE
  8
_0-0_
  6
CONTINUOUS
 62
    7
 10
-2.0004095272438605
 20
10.697102652088766
 11
-5.0742311973813088
 21
5.2727114694932808
  0
LINE
  8
_0-0_
  6
CONTINUOUS
 62
    7
 10
-4.848214898106491
 20
4.8884837607260962
 11
5.7067462780272251
 21
-1.439972618968639
  0
LINE
  8
_0-0_
  6
CONTINUOUS
 62
    7
 10
5.2547136794776037
 20
-2.4118427058503258
 11
-5.6392719455683391
 21
4.2104348629016641
  0
LINE
  8
_0-0_
  6
CONTINUOUS
 62
    7
 10
-5.9330931346255937
 20
3.0803533665275964
 11
4.6444696714356155
 21
-3.3837127927320196
  0
LINE
  8
_0-0_
  6
CONTINUOUS
 62
    7
 10
4.3506484823783467
 20
-3.835745391281641
 11
-6.2721175835378062
 21
2.8543370672527857
  0
LINE
  8
_0-0_
  6
CONTINUOUS
 62
    7
 10
-7.0631746309996544
 20
1.9728735000810218
 11
-9.6849637025874671
 21
-2.8412736744724754
  0
LINE
  8
_0-0_
  6
CONTINUOUS
 62
    7
 10
-9.4815490332401282
 20
-3.5419242022243864
 11
0.4405665049241065
 21
-10.774445779018372
  0
LINE
  8
_0-0_
  6
CONTINUOUS
 62
    7
 10
-10.02398815149968
 20
-3.835745391281641
 11
0.2823550954317397
 21
-10.910055558583259
  0
LINE
  8
_0-0_
  6
CONTINUOUS
 62
    7
 10
-9.888378371934806
 20
-3.6775339817892743
 11
-9.5493539230225792
 21
-3.5645258321518725
  0
LINE
  8
_0-0_
  6
CONTINUOUS
 62
    7
 10
-4.5769953389767153
 20
5.069296800145942
 11
5.819754427664634
 21
-1.2139563196938283
  0
LINE
  8
_0-0_
  6
CONTINUOUS
 62
    7
 10
-4.825613268179012
 20
5.069296800145942
 11
-4.6900034886141242
 21
5.069296800145942
  0
LINE
  8
_0-0_
  6
CONTINUOUS
 62
    7
 10
-10.837646828889007
 20
-4.0165584307014939
 11
-0.1244742432629237
 21
-11.904527275392432
  0
LINE
  8
_0-0_
  6
CONTINUOUS
 62
    7
 10
-10.747240309179077
 20
-5.553469265770218
 11
-0.8703280308697998
 21
-12.966803881984042
  0
LINE
  8
_0-0_
  6
CONTINUOUS
 62
    7
 10
-11.606102246423362
 20
-5.8472904548274727
 11
-1.2771573695644634
 21
-13.509243000243593
  0
LINE
  8
_0-0_
  6
CONTINUOUS
 62
    7
 10
-11.425289207003516
 20
-6.4801360927969469
 11
-1.3901655192018723
 21
-13.983877228720701
  0
LINE
  8
_0-0_
  6
CONTINUOUS
 62
    7
 10
-11.877321805553152
 20
-6.7513556519267226
 11
-15.131956515110446
 21
-11.859324015537474
  0
LINE
  8
_0-0_
  6
CONTINUOUS
 62
    7
 10
-14.566915766923415
 20
-12.04013705495732
 11
-11.673907136205813
 21
-6.7513556519267226
  0
LINE
  8
_0-0_
  6
CONTINUOUS
 62
    7
 10
-11.560898986568418
 20
-6.6157458723618348
 11
-11.673907136205813
 21
-6.5027377227244259
  0
LINE
  8
_0-0_
  6
CONTINUOUS
 62
    7
 10
-15.041549995400516
 20
-12.130543574667243
 11
-14.792932066198219
 21
-12.062738684884799
  0
LINE
  8
_0-0_
  6
CONTINUOUS
 62
    7
 10
-14.476509247213485
 20
-12.266153354232131
 11
-4.8934181579614631
 21
-20.244528718632992
  0
LINE
  8
_0-0_
  6
CONTINUOUS
 62
    7
 10
-5.2324426068736756
 20
-20.628756427400177
 11
-15.018948365473037
 21
-12.424364763724505
  0
LINE
  8
_0-0_
  6
CONTINUOUS
 62
    7
 10
-15.787403783007392
 20
-12.650381062999315
 11
-5.5714670557859023
 21
-21.397211844934539
  0
LINE
  8
_0-0_
  6
CONTINUOUS
 62
    7
 10
-15.493582593950151
 20
-14.277698417777962
 11
-6.2495159536103415
 21
-22.436886821598669
  0
LINE
  8
_0-0_
  6
CONTINUOUS
 62
    7
 10
-6.7241501820874419
 20
-23.318350388770433
 11
-16.488054310759324
 21
-14.390706567415364
  0
LINE
  8
_0-0_
  6
CONTINUOUS
 62
    7
 10
-16.442851050904352
 20
-14.887942425819951
 11
-6.9501664813622597
 21
-23.386155278552884
  0
LINE
  8
_0-0_
  6
CONTINUOUS
 62
    7
 10
-16.736672239961607
 20
-15.204365244804691
 11
-19.539274350969279
 21
-20.199325458778034
  0
LINE
  8
_0-0_
  6
CONTINUOUS
 62
    7
 10
-16.872282019526494
 20
-15.611194583499348
 11
-19.448867831259349
 21
-20.493146647835289
  0
LINE
  8
_0-0_
  6
CONTINUOUS
 62
    7
 10
-19.607079240751716
 20
-20.47054501790781
 11
-19.5166727210418
 21
-20.47054501790781
  0
LINE
  8
_0-0_
  6
CONTINUOUS
 62
    7
 10
-19.155046642202095
 20
-20.94517924638491
 11
-10.204801190919554
 21
-29.556400248755246
  0
LINE
  8
_0-0_
  6
CONTINUOUS
 62
    7
 10
-10.272606080701991
 20
-29.646806768465169
 11
-19.697485760461646
 21
-20.809569466820022
  0
LINE
  8
_0-0_
  6
CONTINUOUS
 62
    7
 10
-20.804965626908228
 20
-20.990382506239875
 11
-10.928053348598951
 21
-30.799489894766712
  0
LINE
  8
_0-0_
  6
CONTINUOUS
 62
    7
 10
-20.330331398431113
 20
-22.798512900438368
 11
-11.3348826872936
 21
-31.726156721793441
  0
LINE
  8
_0-0_
  6
CONTINUOUS
 62
    7
 10
-21.030981926183031
 20
-22.911521050075777
 11
-11.854720175625673
 21
-32.359002359762911
  0
LINE
  8
_0-0_
  6
CONTINUOUS
 62
    7
 10
-12.125939734755448
 20
-32.878839848094984
 11
-21.279599855385328
 21
-23.770382987320062
  0
LINE
  8
_0-0_
  6
CONTINUOUS
 62
    7
 10
-21.618624304297541
 20
-23.792984617247541
 11
-24.647242714580017
 21
-28.923554610785772
  0
LINE
  8
_0-0_
  6
CONTINUOUS
 62
    7
 10
-24.308218265667804
 20
-29.104367650205621
 11
-21.505616154660146
 21
-23.951196026739908
  0
LINE
  8
_0-0_
  6
CONTINUOUS
 62
    7
 10
-24.556836194870101
 20
-29.059164390350659
 11
-24.421226415305213
 21
-29.059164390350659
  0
LINE
  8
_0-0_
  6
CONTINUOUS
 62
    7
 10
-24.376023155450255
 20
-29.28518068962547
 11
-15.696997263297476
 21
-39.3429060073546
  0
LINE
  8
_0-0_
  6
CONTINUOUS
 62
    7
 10
-24.647242714580031
 20
-29.239977429770509
 11
-15.787403783007406
 21
-39.388109267209565
  0
LINE
  8
_0-0_
  6
CONTINUOUS
 62
    7
 10
-16.284639641411985
 20
-40.292174464308815
 11
-25.664316061316683
 21
-29.579001878682728
  0
ARC
  8
_0-0_
  6
CONTINUOUS
 62
    7
 10
-21.516916969623878
 20
-23.710111974180137
 40
0.9348156665919344
 50
58.679881777375442
 51
121.32011822262531
  0
ARC
  8
_0-0_
  6
CONTINUOUS
 62
    7
 10
-21.110007483305367
 20
-25.019483705120869
 40
2.353849211945588
 50
70.656277787130222
 51
107.60761931337889
  0
ARC
  8
_0-0_
  6
CONTINUOUS
 62
    7
 10
-21.455059877190791
 20
-23.847109573126517
 40
0.1008147264421946
 50
32.471192290848492
 51
161.77884040694943
  0
ARC
  8
_0-0_
  6
CONTINUOUS
 62
    7
 10
-24.609443436942684
 20
-29.107095433127903
 40
0.1566749701193179
 50
132.37913536097241
 51
238.00972245449631
  0
ARC
  8
_0-0_
  6
CONTINUOUS
 62
    7
 10
-16.355856097975959
 20
-17.711013937516853
 40
3.5978684216831422
 50
78.347780625764543
 51
99.710175512077143
  0
ARC
  8
_0-0_
  6
CONTINUOUS
 62
    7
 10
-16.838379574635297
 20
-14.752332646255049
 40
0.490642812565569
 50
51.546290783292335
 51
118.92642583525418
  0
ARC
  8
_0-0_
  6
CONTINUOUS
 62
    7
 10
-16.478083003438371
 20
-15.064102188490061
 40
0.1796484134729469
 50
78.690067525985128
 51
159.41914067216655
  0
ARC
  8
_0-0_
  6
CONTINUOUS
 62
    7
 10
-19.269669193977151
 20
-20.523820288451155
 40
0.4801319896508022
 50
159.73708293277474
 51
206.99583839408402
  0
ARC
  8
_0-0_
  6
CONTINUOUS
 62
    7
 10
-18.917729527963573
 20
-20.549650722654
 40
0.3730980789828801
 50
178.26429541106953
 51
234.8658069430854
  0
ARC
  8
_0-0_
  6
CONTINUOUS
 62
    7
 10
-11.924309404612885
 20
-11.329375271710738
 40
5.934484662819723
 50
78.78241460223758
 51
90.637422987019463
  0
ARC
  8
_0-0_
  6
CONTINUOUS
 62
    7
 10
-11.956427510299363
 20
-6.7626564668904763
 40
1.0807502943574339
 50
68.532348560900758
 51
111.46765143909853
  0
ARC
  8
_0-0_
  6
CONTINUOUS
 62
    7
 10
-11.584974635839018
 20
-6.6810940632391151
 40
0.292129495345116
 50
66.927945896162313
 51
147.78010337636047
  0
ARC
  8
_0-0_
  6
CONTINUOUS
 62
    7
 10
-14.776459691844309
 20
-12.109091180159801
 40
0.380075820441199
 50
134.22412454151456
 51
230.35709554376439
  0
ARC
  8
_0-0_
  6
CONTINUOUS
 62
    7
 10
-14.094541701439113
 20
-12.113818368520917
 40
0.4112239704790458
 50
169.67825378356173
 51
220.18458057271417
  0
ARC
  8
_0-0_
  6
CONTINUOUS
 62
    7
 10
-9.1679514179963633
 20
-3.0249119176332542
 40
0.5352251367611942
 50
165.0101376403195
 51
237.06488441052511
  0
ARC
  8
_0-0_
  6
CONTINUOUS
 62
    7
 10
-7.5546073682060921
 20
-3.669287441140149
 40
2.5616876200927514
 50
161.14163784643361
 51
182.20706149271274
  0
ARC
  8
_0-0_
  6
CONTINUOUS
 62
    7
 10
-9.9739416852317504
 20
-3.5941232046759524
 40
0.9109403044967641
 50
166.64513287704628
 51
206.03525061477453
  0
ARC
  8
_0-0_
  6
CONTINUOUS
 62
    7
 10
-6.2858840308573036
 20
2.0371854106928353
 40
0.6373770255558428
 50
74.346370369721157
 51
149.8725263177829
  0
ARC
  8
_0-0_
  6
CONTINUOUS
 62
    7
 10
-6.6416729634847087
 20
0.9197749034324189
 40
2.2969687703252557
 50
73.801530435020794
 51
104.03662119165723
  0
LINE
  8
_0-0_
  6
CONTINUOUS
 62
    7
 10
-9.8657767420073554
 20
-2.6604606350526296
 11
-6.814556701797386
 21
2.4927109884130871
  0
ARC
  8
_0-0_
  6
CONTINUOUS
 62
    7
 10
-4.1920338110561346
 20
5.4991680602601676
 40
0.5975506984627365
 50
150.59548566657159
 51
217.29488679150285
  0
ARC
  8
_0-0_
  6
CONTINUOUS
 62
    7
 10
0.2258510206057025
 20
4.8771829457830265
 40
6.2182214477564379
 50
108.10566635907057
 51
111.2019817570374
  0
ARC
  8
_0-0_
  6
CONTINUOUS
 62
    7
 10
-1.9018043770700928
 20
10.707073959409776
 40
1.1815433565257105
 50
60.632295919934613
 51
111.73955441148328
  0
ARC
  8
_0-0_
  6
CONTINUOUS
 62
    7
 10
-4.3825023656534654
 20
5.3708501257573076
 40
1.6293415208785273
 50
186.6450765121547
 51
225.41410787087162
  0
ARC
  8
_0-0_
  6
CONTINUOUS
 62
    7
 10
-3.5674558688830587
 20
5.5514649052653553
 40
1.4354951365920541
 50
189.36345124574046
 51
210.6027617980584
  0
ARC
  8
_0-0_
  6
CONTINUOUS
 62
    7
 10
0.0247426400336507
 20
13.808055571392678
 40
1.3684113261314645
 50
190.1243321510043
 51
238.53610224000235
  0
ARC
  8
_0-0_
  6
CONTINUOUS
 62
    7
 10
0.3275583552867686
 20
13.899000225148619
 40
0.5225057127357043
 50
174.20720350497217
 51
222.66269414087097
  0
ARC
  8
_0-0_
  6
CONTINUOUS
 62
    7
 10
3.0153126491047004
 20
19.344328576552847
 40
0.2661214723671626
 50
53.02825335702736
 51
158.01996863648236
  0
ARC
  8
_0-0_
  6
CONTINUOUS
 62
    7
 10
2.9097945745013902
 20
19.867713995164287
 40
0.6161276450670258
 50
54.706652409337856
 51
132.0262689175228
  0
ARC
  8
_0-0_
  6
CONTINUOUS
 62
    7
 10
3.058246189252344
 20
19.074088580665212
 40
0.1212965547906795
 50
38.811384036750212
 51
153.86899945507096
  0
ARC
  8
_0-0_
  6
CONTINUOUS
 62
    7
 10
4.9852327072652685
 20
22.453427388213974
 40
0.2615114454988402
 50
121.68236602704853
 51
254.57783868126606
  0
ARC
  8
_0-0_
  6
CONTINUOUS
 62
    7
 10
4.4057399553265952
 20
22.194911367583664
 40
0.7651204308616178
 50
171.01987426475543
 51
234.95755933940654
  0
ARC
  8
_0-0_
  6
CONTINUOUS
 62
    7
 10
8.2946329047237839
 20
27.372262332156829
 40
0.4603566135414975
 50
82.949749741126809
 51
139.55126127313872
  0
ARC
  8
_0-0_
  6
CONTINUOUS
 62
    7
 10
8.0686166054489803
 20
28.043853621430522
 40
0.3294725421306296
 50
67.833654177920593
 51
120.96375653207097
  0
ARC
  8
_0-0_
  6
CONTINUOUS
 62
    7
 10
8.0892239739122402
 20
26.718999255387665
 40
2.4082022659394147
 50
84.83707274224318
 51
106.58411353275656
  0
ARC
  8
_0-0_
  6
CONTINUOUS
 62
    7
 10
9.8175000085753652
 20
31.116797558366905
 40
1.2202551961345893
 50
183.67563149241539
 51
223.93625554449997
  0
ARC
  8
_0-0_
  6
CONTINUOUS
 62
    7
 10
9.8729448562951916
 20
31.205758279229308
 40
0.3187727712092114
 50
116.67541481798523
 51
216.53958967451308
  0
ARC
  8
_0-0_
  6
CONTINUOUS
 62
    7
 10
12.326763683786609
 20
38.246229370694998
 40
1.4140783413851754
 50
278.36322132799717
 51
296.68791541944836
  0
ARC
  8
_0-0_
  6
CONTINUOUS
 62
    7
 10
12.706471066568099
 20
37.319562543668873
 40
0.5447414818310812
 50
56.507730696910144
 51
127.58308628086294
  0
ARC
  8
_0-0_
  6
CONTINUOUS
 62
    7
 10
13.93673015733124
 20
35.659397960881016
 40
0.7448824936482979
 50
110.37448948831251
 51
240.09822713023539
  0
ARC
  8
_0-0_
  6
CONTINUOUS
 62
    7
 10
13.733396036710531
 20
35.399452509956326
 40
0.4207729374137185
 50
246.46765143909874
 51
308.39516450324641
  0
ARC
  8
_0-0_
  6
CONTINUOUS
 62
    7
 10
15.197735039803661
 20
35.292979875483773
 40
0.7448824936482979
 50
110.37448948831251
 51
240.09822713023539
  0
ARC
  8
_0-0_
  6
CONTINUOUS
 62
    7
 10
14.994400919182951
 20
35.033034424559084
 40
0.4207729374137185
 50
246.46765143909874
 51
308.39516450324641
  0
ARC
  8
_0-0_
  6
CONTINUOUS
 62
    7
 10
16.48574002681751
 20
34.956978574523639
 40
0.7448824936482979
 50
110.37448948831251
 51
240.09822713023539
  0
ARC
  8
_0-0_
  6
CONTINUOUS
 62
    7
 10
16.2824059061968
 20
34.697033123598949
 40
0.4207729374137185
 50
246.46765143909874
 51
308.39516450324641
  0
ARC
  8
_0-0_
  6
CONTINUOUS
 62
    7
 10
17.71774479700467
 20
34.639644012505734
 40
0.7448824936482979
 50
110.37448948831251
 51
240.09822713023539
  0
ARC
  8
_0-0_
  6
CONTINUOUS
 62
    7
 10
17.51441067638396
 20
34.379698561581044
 40
0.4207729374137185
 50
246.46765143909874
 51
308.39516450324641
  0
ARC
  8
_0-0_
  6
CONTINUOUS
 62
    7
 10
19.827086297476626
 20
34.154308800007762
 40
0.7448824936482979
 50
110.37448948831251
 51
240.09822713023539
  0
ARC
  8
_0-0_
  6
CONTINUOUS
 62
    7
 10
19.623752176855916
 20
33.894363349083072
 40
0.4207729374137185
 50
246.46765143909874
 51
308.39516450324641
  0
ARC
  8
_0-0_
  6
CONTINUOUS
 62
    7
 10
21.171091501317164
 20
33.818307499047627
 40
0.7448824936482979
 50
110.37448948831251
 51
240.09822713023539
  0
ARC
  8
_0-0_
  6
CONTINUOUS
 62
    7
 10
20.967757380696455
 20
33.558362048122937
 40
0.4207729374137185
 50
246.46765143909874
 51
308.39516450324641
  0
ARC
  8
_0-0_
  6
CONTINUOUS
 62
    7
 10
22.645763877753311
 20
33.351639025491885
 40
0.7448824936482979
 50
110.37448948831251
 51
240.09822713023539
  0
ARC
  8
_0-0_
  6
CONTINUOUS
 62
    7
 10
22.442429757132601
 20
33.091693574567195
 40
0.4207729374137185
 50
246.46765143909874
 51
308.39516450324641
  0
ARC
  8
_0-0_
  6
CONTINUOUS
 62
    7
 10
24.045769298420538
 20
32.866303812993912
 40
0.7448824936482979
 50
110.37448948831251
 51
240.09822713023539
  0
ARC
  8
_0-0_
  6
CONTINUOUS
 62
    7
 10
23.842435177799828
 20
32.606358362069223
 40
0.4207729374137185
 50
246.46765143909874
 51
308.39516450324641
  0
ARC
  8
_0-0_
  6
CONTINUOUS
 62
    7
 10
23.411100174384728
 20
30.383627533677362
 40
0.7448824936482979
 50
110.37448948831251
 51
240.09822713023539
  0
ARC
  8
_0-0_
  6
CONTINUOUS
 62
    7
 10
23.207766053764018
 20
30.123682082752673
 40
0.4207729374137185
 50
246.46765143909874
 51
308.39516450324641
  0
ARC
  8
_0-0_
  6
CONTINUOUS
 62
    7
 10
21.46975932439284
 20
28.554287117338852
 40
0.7448824936482979
 50
110.37448948831251
 51
240.09822713023539
  0
ARC
  8
_0-0_
  6
CONTINUOUS
 62
    7
 10
21.26642520377213
 20
28.294341666414162
 40
0.4207729374137185
 50
246.46765143909874
 51
308.39516450324641
  0
ARC
  8
_0-0_
  6
CONTINUOUS
 62
    7
 10
20.349754987859058
 20
28.908955157241216
 40
0.7448824936482979
 50
110.37448948831251
 51
240.09822713023539
  0
ARC
  8
_0-0_
  6
CONTINUOUS
 62
    7
 10
20.146420867238348
 20
28.649009706316527
 40
0.4207729374137185
 50
246.46765143909874
 51
308.39516450324641
  0
ARC
  8
_0-0_
  6
CONTINUOUS
 62
    7
 10
18.837749133538452
 20
29.30095667502804
 40
0.7448824936482979
 50
110.37448948831251
 51
240.09822713023539
  0
ARC
  8
_0-0_
  6
CONTINUOUS
 62
    7
 10
18.634415012917742
 20
29.04101122410335
 40
0.4207729374137185
 50
246.46765143909874
 51
308.39516450324641
  0
ARC
  8
_0-0_
  6
CONTINUOUS
 62
    7
 10
17.325743279217846
 20
29.89829232117939
 40
0.7448824936482979
 50
110.37448948831251
 51
240.09822713023539
  0
ARC
  8
_0-0_
  6
CONTINUOUS
 62
    7
 10
17.122409158597137
 20
29.638346870254701
 40
0.4207729374137185
 50
246.46765143909874
 51
308.39516450324641
  0
ARC
  8
_0-0_
  6
CONTINUOUS
 62
    7
 10
15.365735690283728
 20
30.51429470627297
 40
0.7448824936482979
 50
110.37448948831251
 51
240.09822713023539
  0
ARC
  8
_0-0_
  6
CONTINUOUS
 62
    7
 10
15.162401569663018
 20
30.254349255348281
 40
0.4207729374137185
 50
246.46765143909874
 51
308.39516450324641
  0
ARC
  8
_0-0_
  6
CONTINUOUS
 62
    7
 10
14.171064397981027
 20
30.980963179828713
 40
0.7448824936482979
 50
110.37448948831251
 51
240.09822713023539
  0
ARC
  8
_0-0_
  6
CONTINUOUS
 62
    7
 10
13.967730277360317
 20
30.721017728904023
 40
0.4207729374137185
 50
246.46765143909874
 51
308.39516450324641
  0
ARC
  8
_0-0_
  6
CONTINUOUS
 62
    7
 10
13.200393972985083
 20
31.260964263962158
 40
0.7448824936482979
 50
110.37448948831251
 51
240.09822713023539
  0
ARC
  8
_0-0_
  6
CONTINUOUS
 62
    7
 10
12.997059852364373
 20
31.001018813037469
 40
0.4207729374137185
 50
246.46765143909874
 51
308.39516450324641
  0
ARC
  8
_0-0_
  6
CONTINUOUS
 62
    7
 10
11.949722463855693
 20
31.634299042806752
 40
0.7448824936482979
 50
110.37448948831251
 51
240.09822713023539
  0
ARC
  8
_0-0_
  6
CONTINUOUS
 62
    7
 10
11.746388343234983
 20
31.374353591882063
 40
0.4207729374137185
 50
246.46765143909874
 51
308.39516450324641
  0
ARC
  8
_0-0_
  6
CONTINUOUS
 62
    7
 10
11.856388769144544
 20
33.780974021163168
 40
0.7448824936482979
 50
110.37448948831251
 51
240.09822713023539
  0
ARC
  8
_0-0_
  6
CONTINUOUS
 62
    7
 10
11.653054648523835
 20
33.521028570238478
 40
0.4207729374137185
 50
246.46765143909874
 51
308.39516450324641
  0
ARC
  8
_0-0_
  6
CONTINUOUS
 62
    7
 10
8.6083761931965768
 20
26.650279745231423
 40
0.7448824936482979
 50
110.37448948831251
 51
240.09822713023539
  0
ARC
  8
_0-0_
  6
CONTINUOUS
 62
    7
 10
8.405042072575867
 20
26.390334294306733
 40
0.4207729374137185
 50
246.46765143909874
 51
308.39516450324641
  0
ARC
  8
_0-0_
  6
CONTINUOUS
 62
    7
 10
10.139048786459412
 20
26.22094474956014
 40
0.7448824936482979
 50
110.37448948831251
 51
240.09822713023539
  0
ARC
  8
_0-0_
  6
CONTINUOUS
 62
    7
 10
9.9357146658387023
 20
25.96099929863545
 40
0.4207729374137185
 50
246.46765143909874
 51
308.39516450324641
  0
ARC
  8
_0-0_
  6
CONTINUOUS
 62
    7
 10
11.389720295588802
 20
25.828943231773316
 40
0.7448824936482979
 50
110.37448948831251
 51
240.09822713023539
  0
ARC
  8
_0-0_
  6
CONTINUOUS
 62
    7
 10
11.186386174968092
 20
25.568997780848626
 40
0.4207729374137185
 50
246.46765143909874
 51
308.39516450324641
  0
ARC
  8
_0-0_
  6
CONTINUOUS
 62
    7
 10
12.659058543660421
 20
25.474275191870952
 40
0.7448824936482979
 50
110.37448948831251
 51
240.09822713023539
  0
ARC
  8
_0-0_
  6
CONTINUOUS
 62
    7
 10
12.455724423039712
 20
25.214329740946262
 40
0.4207729374137185
 50
246.46765143909874
 51
308.39516450324641
  0
ARC
  8
_0-0_
  6
CONTINUOUS
 62
    7
 10
14.843066999901296
 20
24.876939545719601
 40
0.7448824936482979
 50
110.37448948831251
 51
240.09822713023539
  0
ARC
  8
_0-0_
  6
CONTINUOUS
 62
    7
 10
14.639732879280587
 20
24.616994094794912
 40
0.4207729374137185
 50
246.46765143909874
 51
308.39516450324641
  0
ARC
  8
_0-0_
  6
CONTINUOUS
 62
    7
 10
16.093738509030686
 20
24.279603899568251
 40
0.7448824936482979
 50
110.37448948831251
 51
240.09822713023539
  0
ARC
  8
_0-0_
  6
CONTINUOUS
 62
    7
 10
15.890404388409976
 20
24.019658448643561
 40
0.4207729374137185
 50
246.46765143909874
 51
308.39516450324641
  0
ARC
  8
_0-0_
  6
CONTINUOUS
 62
    7
 10
17.456410451813454
 20
23.812935426012508
 40
0.7448824936482979
 50
110.37448948831251
 51
240.09822713023539
  0
ARC
  8
_0-0_
  6
CONTINUOUS
 62
    7
 10
17.253076331192744
 20
23.552989975087819
 40
0.4207729374137185
 50
246.46765143909874
 51
308.39516450324641
  0
ARC
  8
_0-0_
  6
CONTINUOUS
 62
    7
 10
18.781748916711763
 20
23.308933474572306
 40
0.7448824936482979
 50
110.37448948831251
 51
240.09822713023539
  0
ARC
  8
_0-0_
  6
CONTINUOUS
 62
    7
 10
18.578414796091053
 20
23.048988023647617
 40
0.4207729374137185
 50
246.46765143909874
 51
308.39516450324641
  0
ARC
  8
_0-0_
  6
CONTINUOUS
 62
    7
 10
18.035079359022575
 20
20.994257845735824
 40
0.7448824936482979
 50
110.37448948831251
 51
240.09822713023539
  0
ARC
  8
_0-0_
  6
CONTINUOUS
 62
    7
 10
17.831745238401865
 20
20.734312394811134
 40
0.4207729374137185
 50
246.46765143909874
 51
308.39516450324641
  0
ARC
  8
_0-0_
  6
CONTINUOUS
 62
    7
 10
16.280405898452983
 20
19.108917212570624
 40
0.7448824936482979
 50
110.37448948831251
 51
240.09822713023539
  0
ARC
  8
_0-0_
  6
CONTINUOUS
 62
    7
 10
16.077071777832273
 20
18.848971761645934
 40
0.4207729374137185
 50
246.46765143909874
 51
308.39516450324641
  0
ARC
  8
_0-0_
  6
CONTINUOUS
 62
    7
 10
14.899067216727985
 20
19.500918730357448
 40
0.7448824936482979
 50
110.37448948831251
 51
240.09822713023539
  0
ARC
  8
_0-0_
  6
CONTINUOUS
 62
    7
 10
14.695733096107276
 20
19.240973279432758
 40
0.4207729374137185
 50
246.46765143909874
 51
308.39516450324641
  0
ARC
  8
_0-0_
  6
CONTINUOUS
 62
    7
 10
13.928396791732041
 20
19.855586770259812
 40
0.7448824936482979
 50
110.37448948831251
 51
240.09822713023539
  0
ARC
  8
_0-0_
  6
CONTINUOUS
 62
    7
 10
13.725062671111331
 20
19.595641319335122
 40
0.4207729374137185
 50
246.46765143909874
 51
308.39516450324641
  0
ARC
  8
_0-0_
  6
CONTINUOUS
 62
    7
 10
12.472391154238124
 20
20.247588288046636
 40
0.7448824936482979
 50
110.37448948831251
 51
240.09822713023539
  0
ARC
  8
_0-0_
  6
CONTINUOUS
 62
    7
 10
12.269057033617415
 20
19.987642837121946
 40
0.4207729374137185
 50
246.46765143909874
 51
308.39516450324641
  0
ARC
  8
_0-0_
  6
CONTINUOUS
 62
    7
 10
10.363049653766168
 20
21.367592624580418
 40
0.7448824936482979
 50
110.37448948831251
 51
240.09822713023539
  0
ARC
  8
_0-0_
  6
CONTINUOUS
 62
    7
 10
10.159715533145459
 20
21.107647173655728
 40
0.4207729374137185
 50
246.46765143909874
 51
308.39516450324641
  0
ARC
  8
_0-0_
  6
CONTINUOUS
 62
    7
 10
9.3177122730013053
 20
21.83426109813616
 40
0.7448824936482979
 50
110.37448948831251
 51
240.09822713023539
  0
ARC
  8
_0-0_
  6
CONTINUOUS
 62
    7
 10
9.1143781523805956
 20
21.574315647211471
 40
0.4207729374137185
 50
246.46765143909874
 51
308.39516450324641
  0
ARC
  8
_0-0_
  6
CONTINUOUS
 62
    7
 10
7.9923738081029967
 20
22.244929354865214
 40
0.7448824936482979
 50
110.37448948831251
 51
240.09822713023539
  0
ARC
  8
_0-0_
  6
CONTINUOUS
 62
    7
 10
7.7890396874822869
 20
21.984983903940524
 40
0.4207729374137185
 50
246.46765143909874
 51
308.39516450324641
  0
ARC
  8
_0-0_
  6
CONTINUOUS
 62
    7
 10
6.7977025158002959
 20
22.599597394767578
 40
0.7448824936482979
 50
110.37448948831251
 51
240.09822713023539
  0
ARC
  8
_0-0_
  6
CONTINUOUS
 62
    7
 10
6.5943683951795862
 20
22.339651943842888
 40
0.4207729374137185
 50
246.46765143909874
 51
308.39516450324641
  0
ARC
  8
_0-0_
  6
CONTINUOUS
 62
    7
 10
7.1710372946448899
 20
25.007606718315209
 40
0.7448824936482979
 50
110.37448948831251
 51
240.09822713023539
  0
ARC
  8
_0-0_
  6
CONTINUOUS
 62
    7
 10
6.9677031740241802
 20
24.747661267390519
 40
0.4207729374137185
 50
246.46765143909874
 51
308.39516450324641
  0
ARC
  8
_0-0_
  6
CONTINUOUS
 62
    7
 10
3.8856912408124629
 20
17.951579398152383
 40
0.7448824936482979
 50
110.37448948831251
 51
240.09822713023539
  0
ARC
  8
_0-0_
  6
CONTINUOUS
 62
    7
 10
3.6823571201917531
 20
17.691633947227693
 40
0.4207729374137185
 50
246.46765143909874
 51
308.39516450324641
  0
ARC
  8
_0-0_
  6
CONTINUOUS
 62
    7
 10
2.0376840855317226
 20
16.495573760658466
 40
0.7448824936482979
 50
110.37448948831251
 51
240.09822713023539
  0
ARC
  8
_0-0_
  6
CONTINUOUS
 62
    7
 10
1.8343499649110129
 20
16.235628309733777
 40
0.4207729374137185
 50
246.46765143909874
 51
308.39516450324641
  0
ARC
  8
_0-0_
  6
CONTINUOUS
 62
    7
 10
1.7016827845715881
 20
14.218231609706443
 40
0.7448824936482979
 50
110.37448948831251
 51
240.09822713023539
  0
ARC
  8
_0-0_
  6
CONTINUOUS
 62
    7
 10
1.4983486639508783
 20
13.958286158781753
 40
0.4207729374137185
 50
246.46765143909874
 51
308.39516450324641
  0
ARC
  8
_0-0_
  6
CONTINUOUS
 62
    7
 10
2.8030203821631403
 20
13.826230091919619
 40
0.7448824936482979
 50
110.37448948831251
 51
240.09822713023539
  0
ARC
  8
_0-0_
  6
CONTINUOUS
 62
    7
 10
2.5996862615424305
 20
13.56628464099493
 40
0.4207729374137185
 50
246.46765143909874
 51
308.39516450324641
  0
ARC
  8
_0-0_
  6
CONTINUOUS
 62
    7
 10
4.0910253691769896
 20
12.930226622692594
 40
0.7448824936482979
 50
110.37448948831251
 51
240.09822713023539
  0
ARC
  8
_0-0_
  6
CONTINUOUS
 62
    7
 10
3.8876912485562798
 20
12.670281171767904
 40
0.4207729374137185
 50
246.46765143909874
 51
308.39516450324641
  0
ARC
  8
_0-0_
  6
CONTINUOUS
 62
    7
 10
5.1736962278263121
 20
12.426224671252392
 40
0.7448824936482979
 50
110.37448948831251
 51
240.09822713023539
  0
ARC
  8
_0-0_
  6
CONTINUOUS
 62
    7
 10
4.9703621072056023
 20
12.166279220327702
 40
0.4207729374137185
 50
246.46765143909874
 51
308.39516450324641
  0
ARC
  8
_0-0_
  6
CONTINUOUS
 62
    7
 10
5.0990292720573933
 20
17.354243752001032
 40
0.7448824936482979
 50
110.37448948831251
 51
240.09822713023539
  0
ARC
  8
_0-0_
  6
CONTINUOUS
 62
    7
 10
4.8956951514366835
 20
17.094298301076343
 40
0.4207729374137185
 50
246.46765143909874
 51
308.39516450324641
  0
ARC
  8
_0-0_
  6
CONTINUOUS
 62
    7
 10
6.3497007811867832
 20
16.88757527844529
 40
0.7448824936482979
 50
110.37448948831251
 51
240.09822713023539
  0
ARC
  8
_0-0_
  6
CONTINUOUS
 62
    7
 10
6.1463666605660734
 20
16.6276298275206
 40
0.4207729374137185
 50
246.46765143909874
 51
308.39516450324641
  0
ARC
  8
_0-0_
  6
CONTINUOUS
 62
    7
 10
7.3763714230094166
 20
16.215572676525021
 40
0.7448824936482979
 50
110.37448948831251
 51
240.09822713023539
  0
ARC
  8
_0-0_
  6
CONTINUOUS
 62
    7
 10
7.1730373023887068
 20
15.955627225600331
 40
0.4207729374137185
 50
246.46765143909874
 51
308.39516450324641
  0
ARC
  8
_0-0_
  6
CONTINUOUS
 62
    7
 10
9.523046401365832
 20
15.356902685182455
 40
0.7448824936482979
 50
110.37448948831251
 51
240.09822713023539
  0
ARC
  8
_0-0_
  6
CONTINUOUS
 62
    7
 10
9.3197122807451223
 20
15.096957234257765
 40
0.4207729374137185
 50
246.46765143909874
 51
308.39516450324641
  0
ARC
  8
_0-0_
  6
CONTINUOUS
 62
    7
 10
10.680384215784073
 20
15.114235078933469
 40
0.7448824936482979
 50
110.37448948831251
 51
240.09822713023539
  0
ARC
  8
_0-0_
  6
CONTINUOUS
 62
    7
 10
10.477050095163364
 20
14.854289628008779
 40
0.4207729374137185
 50
246.46765143909874
 51
308.39516450324641
  0
ARC
  8
_0-0_
  6
CONTINUOUS
 62
    7
 10
12.024389419624612
 20
14.42356573807097
 40
0.7448824936482979
 50
110.37448948831251
 51
240.09822713023539
  0
ARC
  8
_0-0_
  6
CONTINUOUS
 62
    7
 10
11.821055299003902
 20
14.16362028714628
 40
0.4207729374137185
 50
246.46765143909874
 51
308.39516450324641
  0
ARC
  8
_0-0_
  6
CONTINUOUS
 62
    7
 10
13.237727450869542
 20
13.844896830861849
 40
0.7448824936482979
 50
110.37448948831251
 51
240.09822713023539
  0
ARC
  8
_0-0_
  6
CONTINUOUS
 62
    7
 10
13.034393330248832
 20
13.584951379937159
 40
0.4207729374137185
 50
246.46765143909874
 51
308.39516450324641
  0
ARC
  8
_0-0_
  6
CONTINUOUS
 62
    7
 10
12.547058110007043
 20
11.212886640007461
 40
0.7448824936482979
 50
110.37448948831251
 51
240.09822713023539
  0
ARC
  8
_0-0_
  6
CONTINUOUS
 62
    7
 10
12.343723989386334
 20
10.952941189082772
 40
0.4207729374137185
 50
246.46765143909874
 51
308.39516450324641
  0
ARC
  8
_0-0_
  6
CONTINUOUS
 62
    7
 10
10.941718560975289
 20
9.4582131794378697
 40
0.7448824936482979
 50
110.37448948831251
 51
240.09822713023539
  0
ARC
  8
_0-0_
  6
CONTINUOUS
 62
    7
 10
10.738384440354579
 20
9.19826772851318
 40
0.4207729374137185
 50
246.46765143909874
 51
308.39516450324641
  0
ARC
  8
_0-0_
  6
CONTINUOUS
 62
    7
 10
9.7283805297303587
 20
10.148882520300369
 40
0.7448824936482979
 50
110.37448948831251
 51
240.09822713023539
  0
ARC
  8
_0-0_
  6
CONTINUOUS
 62
    7
 10
9.5250464091096489
 20
9.8889370693756788
 40
0.4207729374137185
 50
246.46765143909874
 51
308.39516450324641
  0
ARC
  8
_0-0_
  6
CONTINUOUS
 62
    7
 10
8.3097083701209016
 20
10.6715512106828
 40
0.7448824936482979
 50
110.37448948831251
 51
240.09822713023539
  0
ARC
  8
_0-0_
  6
CONTINUOUS
 62
    7
 10
8.1063742495001918
 20
10.41160575975811
 40
0.4207729374137185
 50
246.46765143909874
 51
308.39516450324641
  0
ARC
  8
_0-0_
  6
CONTINUOUS
 62
    7
 10
6.7977025158002959
 20
11.436887507314218
 40
0.7448824936482979
 50
110.37448948831251
 51
240.09822713023539
  0
ARC
  8
_0-0_
  6
CONTINUOUS
 62
    7
 10
6.5943683951795862
 20
11.176942056389528
 40
0.4207729374137185
 50
246.46765143909874
 51
308.39516450324641
  0
ARC
  8
_0-0_
  6
CONTINUOUS
 62
    7
 10
-1.023661100993948
 20
9.1968788342466539
 40
0.7448824936482979
 50
110.37448948831251
 51
240.09822713023539
  0
ARC
  8
_0-0_
  6
CONTINUOUS
 62
    7
 10
-1.2269952216146578
 20
8.9369333833219642
 40
0.4207729374137185
 50
246.46765143909874
 51
308.39516450324641
  0
ARC
  8
_0-0_
  6
CONTINUOUS
 62
    7
 10
0.1896769302509824
 20
8.5995431880953035
 40
0.7448824936482979
 50
110.37448948831251
 51
240.09822713023539
  0
ARC
  8
_0-0_
  6
CONTINUOUS
 62
    7
 10
-0.0136571903697273
 20
8.3395977371706138
 40
0.4207729374137185
 50
246.46765143909874
 51
308.39516450324641
  0
ARC
  8
_0-0_
  6
CONTINUOUS
 62
    7
 10
1.3843482225536832
 20
8.0955412366551016
 40
0.7448824936482979
 50
110.37448948831251
 51
240.09822713023539
  0
ARC
  8
_0-0_
  6
CONTINUOUS
 62
    7
 10
1.1810141019329734
 20
7.8355957857304119
 40
0.4207729374137185
 50
246.46765143909874
 51
308.39516450324641
  0
ARC
  8
_0-0_
  6
CONTINUOUS
 62
    7
 10
-2.8156680394479991
 20
7.8342068914638858
 40
0.7448824936482979
 50
110.37448948831251
 51
240.09822713023539
  0
ARC
  8
_0-0_
  6
CONTINUOUS
 62
    7
 10
-3.0190021600687089
 20
7.5742614405391961
 40
0.4207729374137185
 50
246.46765143909874
 51
308.39516450324641
  0
ARC
  8
_0-0_
  6
CONTINUOUS
 62
    7
 10
-3.2823365130037416
 20
5.5195312626274031
 40
0.7448824936482979
 50
110.37448948831251
 51
240.09822713023539
  0
ARC
  8
_0-0_
  6
CONTINUOUS
 62
    7
 10
-3.4856706336244514
 20
5.2595858117027134
 40
0.4207729374137185
 50
246.46765143909874
 51
308.39516450324641
  0
ARC
  8
_0-0_
  6
CONTINUOUS
 62
    7
 10
-2.1063319596432706
 20
4.7168614881115261
 40
0.7448824936482979
 50
110.37448948831251
 51
240.09822713023539
  0
ARC
  8
_0-0_
  6
CONTINUOUS
 62
    7
 10
-2.3096660802639803
 20
4.4569160371868364
 40
0.4207729374137185
 50
246.46765143909874
 51
308.39516450324641
  0
ARC
  8
_0-0_
  6
CONTINUOUS
 62
    7
 10
-1.1543282735895559
 20
4.2688597534980133
 40
0.7448824936482979
 50
110.37448948831251
 51
240.09822713023539
  0
ARC
  8
_0-0_
  6
CONTINUOUS
 62
    7
 10
-1.3576623942102657
 20
4.0089143025733236
 40
0.4207729374137185
 50
246.46765143909874
 51
308.39516450324641
  0
ARC
  8
_0-0_
  6
CONTINUOUS
 62
    7
 10
0.0590097576553745
 20
3.5035234568665956
 40
0.7448824936482979
 50
110.37448948831251
 51
240.09822713023539
  0
ARC
  8
_0-0_
  6
CONTINUOUS
 62
    7
 10
-0.1443243629653352
 20
3.2435780059419059
 40
0.4207729374137185
 50
246.46765143909874
 51
308.39516450324641
  0
ARC
  8
_0-0_
  6
CONTINUOUS
 62
    7
 10
4.2403592807148272
 20
6.4528682097388881
 40
0.7448824936482979
 50
110.37448948831251
 51
240.09822713023539
  0
ARC
  8
_0-0_
  6
CONTINUOUS
 62
    7
 10
4.0370251600941174
 20
6.1929227588141984
 40
0.4207729374137185
 50
246.46765143909874
 51
308.39516450324641
  0
ARC
  8
_0-0_
  6
CONTINUOUS
 62
    7
 10
5.6216979624398249
 20
5.8555325635875377
 40
0.7448824936482979
 50
110.37448948831251
 51
240.09822713023539
  0
ARC
  8
_0-0_
  6
CONTINUOUS
 62
    7
 10
5.4183638418191151
 20
5.595587112662848
 40
0.4207729374137185
 50
246.46765143909874
 51
308.39516450324641
  0
ARC
  8
_0-0_
  6
CONTINUOUS
 62
    7
 10
6.7417022989736068
 20
5.1275297448405794
 40
0.7448824936482979
 50
110.37448948831251
 51
240.09822713023539
  0
ARC
  8
_0-0_
  6
CONTINUOUS
 62
    7
 10
6.5383681783528971
 20
4.8675842939158898
 40
0.4207729374137185
 50
246.46765143909874
 51
308.39516450324641
  0
ARC
  8
_0-0_
  6
CONTINUOUS
 62
    7
 10
8.1230409806986046
 20
4.4368604039780806
 40
0.7448824936482979
 50
110.37448948831251
 51
240.09822713023539
  0
ARC
  8
_0-0_
  6
CONTINUOUS
 62
    7
 10
7.9197068600778948
 20
4.1769149530533909
 40
0.4207729374137185
 50
246.46765143909874
 51
308.39516450324641
  0
ARC
  8
_0-0_
  6
CONTINUOUS
 62
    7
 10
7.3577046840671869
 20
2.0288510804304494
 40
0.7448824936482979
 50
110.37448948831251
 51
240.09822713023539
  0
ARC
  8
_0-0_
  6
CONTINUOUS
 62
    7
 10
7.1543705634464771
 20
1.7689056295057597
 40
0.4207729374137185
 50
246.46765143909874
 51
308.39516450324641
  0
ARC
  8
_0-0_
  6
CONTINUOUS
 62
    7
 10
5.6403647013820546
 20
0.2928443588030873
 40
0.7448824936482979
 50
110.37448948831251
 51
240.09822713023539
  0
ARC
  8
_0-0_
  6
CONTINUOUS
 62
    7
 10
5.4370305807613448
 20
0.0328989078783976
 40
0.4207729374137185
 50
246.46765143909874
 51
308.39516450324641
  0
ARC
  8
_0-0_
  6
CONTINUOUS
 62
    7
 10
4.2776927585992865
 20
0.8528465270699783
 40
0.7448824936482979
 50
110.37448948831251
 51
240.09822713023539
  0
ARC
  8
_0-0_
  6
CONTINUOUS
 62
    7
 10
4.0743586379785768
 20
0.5929010761452886
 40
0.4207729374137185
 50
246.46765143909874
 51
308.39516450324641
  0
ARC
  8
_0-0_
  6
CONTINUOUS
 62
    7
 10
3.0830214662965858
 20
1.5808493458169366
 40
0.7448824936482979
 50
110.37448948831251
 51
240.09822713023539
  0
ARC
  8
_0-0_
  6
CONTINUOUS
 62
    7
 10
2.879687345675876
 20
1.3209038948922469
 40
0.4207729374137185
 50
246.46765143909874
 51
308.39516450324641
  0
ARC
  8
_0-0_
  6
CONTINUOUS
 62
    7
 10
2.0003506076472632
 20
2.4768528150439622
 40
0.7448824936482979
 50
110.37448948831251
 51
240.09822713023539
  0
ARC
  8
_0-0_
  6
CONTINUOUS
 62
    7
 10
1.7970164870265535
 20
2.2169073641192725
 40
0.4207729374137185
 50
246.46765143909874
 51
308.39516450324641
  0
ARC
  8
_0-0_
  6
CONTINUOUS
 62
    7
 10
-5.9516801817425886
 20
0.4421782703409249
 40
0.7448824936482979
 50
110.37448948831251
 51
240.09822713023539
  0
ARC
  8
_0-0_
  6
CONTINUOUS
 62
    7
 10
-6.1550143023632984
 20
0.1822328194162352
 40
0.4207729374137185
 50
246.46765143909874
 51
308.39516450324641
  0
ARC
  8
_0-0_
  6
CONTINUOUS
 62
    7
 10
-7.6503534254854912
 20
-0.9204936724418431
 40
0.7448824936482979
 50
110.37448948831251
 51
240.09822713023539
  0
ARC
  8
_0-0_
  6
CONTINUOUS
 62
    7
 10
-7.853687546106201
 20
-1.1804391233665328
 40
0.4207729374137185
 50
246.46765143909874
 51
308.39516450324641
  0
ARC
  8
_0-0_
  6
CONTINUOUS
 62
    7
 10
-8.0796884211567743
 20
-3.1978358233938664
 40
0.7448824936482979
 50
110.37448948831251
 51
240.09822713023539
  0
ARC
  8
_0-0_
  6
CONTINUOUS
 62
    7
 10
-8.2830225417774841
 20
-3.4577812743185561
 40
0.4207729374137185
 50
246.46765143909874
 51
308.39516450324641
  0
ARC
  8
_0-0_
  6
CONTINUOUS
 62
    7
 10
-7.0156843014496815
 20
-3.9258386421408247
 40
0.7448824936482979
 50
110.37448948831251
 51
240.09822713023539
  0
ARC
  8
_0-0_
  6
CONTINUOUS
 62
    7
 10
-7.2190184220703912
 20
-4.1857840930655144
 40
0.4207729374137185
 50
246.46765143909874
 51
308.39516450324641
  0
ARC
  8
_0-0_
  6
CONTINUOUS
 62
    7
 10
-5.8956799649158995
 20
-4.6725081998300126
 40
0.7448824936482979
 50
110.37448948831251
 51
240.09822713023539
  0
ARC
  8
_0-0_
  6
CONTINUOUS
 62
    7
 10
-6.0990140855366093
 20
-4.9324536507547023
 40
0.4207729374137185
 50
246.46765143909874
 51
308.39516450324641
  0
ARC
  8
_0-0_
  6
CONTINUOUS
 62
    7
 10
-4.9623430178044146
 20
-5.3818442796347412
 40
0.7448824936482979
 50
110.37448948831251
 51
240.09822713023539
  0
ARC
  8
_0-0_
  6
CONTINUOUS
 62
    7
 10
-5.1656771384251243
 20
-5.6417897305594309
 40
0.4207729374137185
 50
246.46765143909874
 51
308.39516450324641
  0
ARC
  8
_0-0_
  6
CONTINUOUS
 62
    7
 10
-3.0770023846392149
 20
-6.8938501339553468
 40
0.7448824936482979
 50
110.37448948831251
 51
240.09822713023539
  0
ARC
  8
_0-0_
  6
CONTINUOUS
 62
    7
 10
-3.2803365052599247
 20
-7.1537955848800365
 40
0.4207729374137185
 50
246.46765143909874
 51
308.39516450324641
  0
ARC
  8
_0-0_
  6
CONTINUOUS
 62
    7
 10
-2.0503317428165815
 20
-7.6778531695289942
 40
0.7448824936482979
 50
110.37448948831251
 51
240.09822713023539
  0
ARC
  8
_0-0_
  6
CONTINUOUS
 62
    7
 10
-2.2536658634372913
 20
-7.9377986204536839
 40
0.4207729374137185
 50
246.46765143909874
 51
308.39516450324641
  0
ARC
  8
_0-0_
  6
CONTINUOUS
 62
    7
 10
-0.836993711571651
 20
-8.4431894661604119
 40
0.7448824936482979
 50
110.37448948831251
 51
240.09822713023539
  0
ARC
  8
_0-0_
  6
CONTINUOUS
 62
    7
 10
-1.0403278321923608
 20
-8.7031349170851016
 40
0.4207729374137185
 50
246.46765143909874
 51
308.39516450324641
  0
ARC
  8
_0-0_
  6
CONTINUOUS
 62
    7
 10
0.3950110586155091
 20
-9.2831927185607483
 40
0.7448824936482979
 50
110.37448948831251
 51
240.09822713023539
  0
ARC
  8
_0-0_
  6
CONTINUOUS
 62
    7
 10
0.1916769379947993
 20
-9.543138169485438
 40
0.4207729374137185
 50
246.46765143909874
 51
308.39516450324641
  0
ARC
  8
_0-0_
  6
CONTINUOUS
 62
    7
 10
1.832349957167196
 20
-7.6965199084712239
 40
0.7448824936482979
 50
110.37448948831251
 51
240.09822713023539
  0
ARC
  8
_0-0_
  6
CONTINUOUS
 62
    7
 10
1.6290158365464862
 20
-7.9564653593959136
 40
0.4207729374137185
 50
246.46765143909874
 51
308.39516450324641
  0
ARC
  8
_0-0_
  6
CONTINUOUS
 62
    7
 10
2.6910199485097621
 20
-4.9151758060789987
 40
0.7448824936482979
 50
110.37448948831251
 51
240.09822713023539
  0
ARC
  8
_0-0_
  6
CONTINUOUS
 62
    7
 10
2.4876858278890523
 20
-5.1751212570036884
 40
0.4207729374137185
 50
246.46765143909874
 51
308.39516450324641
  0
ARC
  8
_0-0_
  6
CONTINUOUS
 62
    7
 10
1.4216817004381426
 20
-4.0378390757942029
 40
0.7448824936482979
 50
110.37448948831251
 51
240.09822713023539
  0
ARC
  8
_0-0_
  6
CONTINUOUS
 62
    7
 10
1.2183475798174328
 20
-4.2977845267188926
 40
0.4207729374137185
 50
246.46765143909874
 51
308.39516450324641
  0
ARC
  8
_0-0_
  6
CONTINUOUS
 62
    7
 10
0.5070114922688873
 20
-3.5525038632962307
 40
0.7448824936482979
 50
110.37448948831251
 51
240.09822713023539
  0
ARC
  8
_0-0_
  6
CONTINUOUS
 62
    7
 10
0.3036773716481775
 20
-3.8124493142209204
 40
0.4207729374137185
 50
246.46765143909874
 51
308.39516450324641
  0
ARC
  8
_0-0_
  6
CONTINUOUS
 62
    7
 10
-0.8183269726294213
 20
-2.8245010445492724
 40
0.7448824936482979
 50
110.37448948831251
 51
240.09822713023539
  0
ARC
  8
_0-0_
  6
CONTINUOUS
 62
    7
 10
-1.0216610932501311
 20
-3.0844464954739621
 40
0.4207729374137185
 50
246.46765143909874
 51
308.39516450324641
  0
ARC
  8
_0-0_
  6
CONTINUOUS
 62
    7
 10
-2.6290006500257022
 20
-1.5924962743621123
 40
0.7448824936482979
 50
110.37448948831251
 51
240.09822713023539
  0
ARC
  8
_0-0_
  6
CONTINUOUS
 62
    7
 10
-2.8323347706464119
 20
-1.852441725286802
 40
0.4207729374137185
 50
246.46765143909874
 51
308.39516450324641
  0
ARC
  8
_0-0_
  6
CONTINUOUS
 62
    7
 10
-3.7863384644439435
 20
-0.8084932387884649
 40
0.7448824936482979
 50
110.37448948831251
 51
240.09822713023539
  0
ARC
  8
_0-0_
  6
CONTINUOUS
 62
    7
 10
-3.9896725850646533
 20
-1.0684386897131546
 40
0.4207729374137185
 50
246.46765143909874
 51
308.39516450324641
  0
ARC
  8
_0-0_
  6
CONTINUOUS
 62
    7
 10
-4.9063428009777255
 20
-0.0431569421570472
 40
0.7448824936482979
 50
110.37448948831251
 51
240.09822713023539
  0
ARC
  8
_0-0_
  6
CONTINUOUS
 62
    7
 10
-5.1096769215984352
 20
-0.3031023930817369
 40
0.4207729374137185
 50
246.46765143909874
 51
308.39516450324641
  0
ARC
  8
_0-0_
  6
CONTINUOUS
 62
    7
 10
-10.749032089895621
 20
-8.2005218599114258
 40
0.7448824936482979
 50
110.37448948831251
 51
240.09822713023539
  0
ARC
  8
_0-0_
  6
CONTINUOUS
 62
    7
 10
-10.952366210516331
 20
-8.4604673108361155
 40
0.4207729374137185
 50
246.46765143909874
 51
308.39516450324641
  0
ARC
  8
_0-0_
  6
CONTINUOUS
 62
    7
 10
-12.317038161042916
 20
-9.4325266300985859
 40
0.7448824936482979
 50
110.37448948831251
 51
240.09822713023539
  0
ARC
  8
_0-0_
  6
CONTINUOUS
 62
    7
 10
-12.520372281663626
 20
-9.6924720810232756
 40
0.4207729374137185
 50
246.46765143909874
 51
308.39516450324641
  0
ARC
  8
_0-0_
  6
CONTINUOUS
 62
    7
 10
-12.970374024020956
 20
-12.139203776721892
 40
0.7448824936482979
 50
110.37448948831251
 51
240.09822713023539
  0
ARC
  8
_0-0_
  6
CONTINUOUS
 62
    7
 10
-13.173708144641665
 20
-12.399149227646582
 40
0.4207729374137185
 50
246.46765143909874
 51
308.39516450324641
  0
ARC
  8
_0-0_
  6
CONTINUOUS
 62
    7
 10
-11.962370121140552
 20
-13.053873984891148
 40
0.7448824936482979
 50
110.37448948831251
 51
240.09822713023539
  0
ARC
  8
_0-0_
  6
CONTINUOUS
 62
    7
 10
-12.165704241761262
 20
-13.313819435815837
 40
0.4207729374137185
 50
246.46765143909874
 51
308.39516450324641
  0
ARC
  8
_0-0_
  6
CONTINUOUS
 62
    7
 10
-11.047699912971296
 20
-13.931210715175943
 40
0.7448824936482979
 50
110.37448948831251
 51
240.09822713023539
  0
ARC
  8
_0-0_
  6
CONTINUOUS
 62
    7
 10
-11.251034033592006
 20
-14.191156166100633
 40
0.4207729374137185
 50
246.46765143909874
 51
308.39516450324641
  0
ARC
  8
_0-0_
  6
CONTINUOUS
 62
    7
 10
-9.9276955764375145
 20
-14.696547011807361
 40
0.7448824936482979
 50
110.37448948831251
 51
240.09822713023539
  0
ARC
  8
_0-0_
  6
CONTINUOUS
 62
    7
 10
-10.131029697058224
 20
-14.956492462732051
 40
0.4207729374137185
 50
246.46765143909874
 51
308.39516450324641
  0
ARC
  8
_0-0_
  6
CONTINUOUS
 62
    7
 10
-8.3410227663479901
 20
-15.947218520936751
 40
0.7448824936482979
 50
110.37448948831251
 51
240.09822713023539
  0
ARC
  8
_0-0_
  6
CONTINUOUS
 62
    7
 10
-8.5443568869686999
 20
-16.207163971861441
 40
0.4207729374137185
 50
246.46765143909874
 51
308.39516450324641
  0
ARC
  8
_0-0_
  6
CONTINUOUS
 62
    7
 10
-7.295685385583127
 20
-17.029889379586074
 40
0.7448824936482979
 50
110.37448948831251
 51
240.09822713023539
  0
ARC
  8
_0-0_
  6
CONTINUOUS
 62
    7
 10
-7.4990195062038367
 20
-17.289834830510763
 40
0.4207729374137185
 50
246.46765143909874
 51
308.39516450324641
  0
ARC
  8
_0-0_
  6
CONTINUOUS
 62
    7
 10
-6.0823473543381965
 20
-17.720558720448572
 40
0.7448824936482979
 50
110.37448948831251
 51
240.09822713023539
  0
ARC
  8
_0-0_
  6
CONTINUOUS
 62
    7
 10
-6.2856814749589063
 20
-17.980504171373262
 40
0.4207729374137185
 50
246.46765143909874
 51
308.39516450324641
  0
ARC
  8
_0-0_
  6
CONTINUOUS
 62
    7
 10
-4.999676495688874
 20
-18.784562840155665
 40
0.7448824936482979
 50
110.37448948831251
 51
240.09822713023539
  0
ARC
  8
_0-0_
  6
CONTINUOUS
 62
    7
 10
-5.2030106163095837
 20
-19.044508291080355
 40
0.4207729374137185
 50
246.46765143909874
 51
308.39516450324641
  0
ARC
  8
_0-0_
  6
CONTINUOUS
 62
    7
 10
-3.5996710750216465
 20
-17.2352235079506
 40
0.7448824936482979
 50
110.37448948831251
 51
240.09822713023539
  0
ARC
  8
_0-0_
  6
CONTINUOUS
 62
    7
 10
-3.8030051956423563
 20
-17.49516895887529
 40
0.4207729374137185
 50
246.46765143909874
 51
308.39516450324641
  0
ARC
  8
_0-0_
  6
CONTINUOUS
 62
    7
 10
-2.5543336942567834
 20
-14.547213100269524
 40
0.7448824936482979
 50
110.37448948831251
 51
240.09822713023539
  0
ARC
  8
_0-0_
  6
CONTINUOUS
 62
    7
 10
-2.7576678148774931
 20
-14.807158551194213
 40
0.4207729374137185
 50
246.46765143909874
 51
308.39516450324641
  0
ARC
  8
_0-0_
  6
CONTINUOUS
 62
    7
 10
-3.6370045529061059
 20
-13.781876803638106
 40
0.7448824936482979
 50
110.37448948831251
 51
240.09822713023539
  0
ARC
  8
_0-0_
  6
CONTINUOUS
 62
    7
 10
-3.8403386735268157
 20
-14.041822254562796
 40
0.4207729374137185
 50
246.46765143909874
 51
308.39516450324641
  0
ARC
  8
_0-0_
  6
CONTINUOUS
 62
    7
 10
-4.8690093230932661
 20
-12.979207029122229
 40
0.7448824936482979
 50
110.37448948831251
 51
240.09822713023539
  0
ARC
  8
_0-0_
  6
CONTINUOUS
 62
    7
 10
-5.0723434437139758
 20
-13.239152480046918
 40
0.4207729374137185
 50
246.46765143909874
 51
308.39516450324641
  0
ARC
  8
_0-0_
  6
CONTINUOUS
 62
    7
 10
-5.9703469206848183
 20
-12.027203343068514
 40
0.7448824936482979
 50
110.37448948831251
 51
240.09822713023539
  0
ARC
  8
_0-0_
  6
CONTINUOUS
 62
    7
 10
-6.1736810413055281
 20
-12.287148793993204
 40
0.4207729374137185
 50
246.46765143909874
 51
308.39516450324641
  0
ARC
  8
_0-0_
  6
CONTINUOUS
 62
    7
 10
-7.6316866865432615
 20
-10.664531400285746
 40
0.7448824936482979
 50
110.37448948831251
 51
240.09822713023539
  0
ARC
  8
_0-0_
  6
CONTINUOUS
 62
    7
 10
-7.8350208071639713
 20
-10.924476851210436
 40
0.4207729374137185
 50
246.46765143909874
 51
308.39516450324641
  0
ARC
  8
_0-0_
  6
CONTINUOUS
 62
    7
 10
-8.7890245009615029
 20
-9.7498611921164908
 40
0.7448824936482979
 50
110.37448948831251
 51
240.09822713023539
  0
ARC
  8
_0-0_
  6
CONTINUOUS
 62
    7
 10
-8.9923586215822127
 20
-10.009806643041181
 40
0.4207729374137185
 50
246.46765143909874
 51
308.39516450324641
  0
ARC
  8
_0-0_
  6
CONTINUOUS
 62
    7
 10
-9.778361664899677
 20
-8.872524461831695
 40
0.7448824936482979
 50
110.37448948831251
 51
240.09822713023539
  0
ARC
  8
_0-0_
  6
CONTINUOUS
 62
    7
 10
-9.9816957855203867
 20
-9.1324699127563846
 40
0.4207729374137185
 50
246.46765143909874
 51
308.39516450324641
  0
ARC
  8
_0-0_
  6
CONTINUOUS
 62
    7
 10
-15.658384431702032
 20
-17.029889379586074
 40
0.7448824936482979
 50
110.37448948831251
 51
240.09822713023539
  0
ARC
  8
_0-0_
  6
CONTINUOUS
 62
    7
 10
-15.861718552322742
 20
-17.289834830510763
 40
0.4207729374137185
 50
246.46765143909874
 51
308.39516450324641
  0
ARC
  8
_0-0_
  6
CONTINUOUS
 62
    7
 10
-14.669047267763858
 20
-17.925892848813099
 40
0.7448824936482979
 50
110.37448948831251
 51
240.09822713023539
  0
ARC
  8
_0-0_
  6
CONTINUOUS
 62
    7
 10
-14.872381388384568
 20
-18.185838299737789
 40
0.4207729374137185
 50
246.46765143909874
 51
308.39516450324641
  0
ARC
  8
_0-0_
  6
CONTINUOUS
 62
    7
 10
-13.717043581710143
 20
-18.709895884386746
 40
0.7448824936482979
 50
110.37448948831251
 51
240.09822713023539
  0
ARC
  8
_0-0_
  6
CONTINUOUS
 62
    7
 10
-13.920377702330853
 20
-18.969841335311436
 40
0.4207729374137185
 50
246.46765143909874
 51
308.39516450324641
  0
ARC
  8
_0-0_
  6
CONTINUOUS
 62
    7
 10
-12.597039245176362
 20
-19.643232831498231
 40
0.7448824936482979
 50
110.37448948831251
 51
240.09822713023539
  0
ARC
  8
_0-0_
  6
CONTINUOUS
 62
    7
 10
-12.800373365797071
 20
-19.903178282422921
 40
0.4207729374137185
 50
246.46765143909874
 51
308.39516450324641
  0
ARC
  8
_0-0_
  6
CONTINUOUS
 62
    7
 10
-11.159700346624675
 20
-21.117905207934378
 40
0.7448824936482979
 50
110.37448948831251
 51
240.09822713023539
  0
ARC
  8
_0-0_
  6
CONTINUOUS
 62
    7
 10
-11.363034467245384
 20
-21.377850658859067
 40
0.4207729374137185
 50
246.46765143909874
 51
308.39516450324641
  0
ARC
  8
_0-0_
  6
CONTINUOUS
 62
    7
 10
-10.021029271148663
 20
-22.013908677161403
 40
0.7448824936482979
 50
110.37448948831251
 51
240.09822713023539
  0
ARC
  8
_0-0_
  6
CONTINUOUS
 62
    7
 10
-10.224363391769373
 20
-22.273854128086093
 40
0.4207729374137185
 50
246.46765143909874
 51
308.39516450324641
  0
ARC
  8
_0-0_
  6
CONTINUOUS
 62
    7
 10
-9.0503588461527187
 20
-22.947245624272888
 40
0.7448824936482979
 50
110.37448948831251
 51
240.09822713023539
  0
ARC
  8
_0-0_
  6
CONTINUOUS
 62
    7
 10
-9.2536929667734285
 20
-23.207191075197578
 40
0.4207729374137185
 50
246.46765143909874
 51
308.39516450324641
  0
ARC
  8
_0-0_
  6
CONTINUOUS
 62
    7
 10
-7.911687770676707
 20
-23.787248876673225
 40
0.7448824936482979
 50
110.37448948831251
 51
240.09822713023539
  0
ARC
  8
_0-0_
  6
CONTINUOUS
 62
    7
 10
-8.1150218912974168
 20
-24.047194327597914
 40
0.4207729374137185
 50
246.46765143909874
 51
308.39516450324641
  0
ARC
  8
_0-0_
  6
CONTINUOUS
 62
    7
 10
-10.301030355282109
 20
-28.117932311270515
 40
0.7448824936482979
 50
110.37448948831251
 51
240.09822713023539
  0
ARC
  8
_0-0_
  6
CONTINUOUS
 62
    7
 10
-10.504364475902818
 20
-28.377877762195205
 40
0.4207729374137185
 50
246.46765143909874
 51
308.39516450324641
  0
ARC
  8
_0-0_
  6
CONTINUOUS
 62
    7
 10
-11.197033824509134
 20
-27.259262319927949
 40
0.7448824936482979
 50
110.37448948831251
 51
240.09822713023539
  0
ARC
  8
_0-0_
  6
CONTINUOUS
 62
    7
 10
-11.400367945129844
 20
-27.519207770852638
 40
0.4207729374137185
 50
246.46765143909874
 51
308.39516450324641
  0
ARC
  8
_0-0_
  6
CONTINUOUS
 62
    7
 10
-12.279704683158457
 20
-26.083257766567478
 40
0.7448824936482979
 50
110.37448948831251
 51
240.09822713023539
  0
ARC
  8
_0-0_
  6
CONTINUOUS
 62
    7
 10
-12.483038803779166
 20
-26.343203217492167
 40
0.4207729374137185
 50
246.46765143909874
 51
308.39516450324641
  0
ARC
  8
_0-0_
  6
CONTINUOUS
 62
    7
 10
-13.362375541807779
 20
-25.112587341571533
 40
0.7448824936482979
 50
110.37448948831251
 51
240.09822713023539
  0
ARC
  8
_0-0_
  6
CONTINUOUS
 62
    7
 10
-13.565709662428489
 20
-25.372532792496223
 40
0.4207729374137185
 50
246.46765143909874
 51
308.39516450324641
  0
ARC
  8
_0-0_
  6
CONTINUOUS
 62
    7
 10
-14.874381396128385
 20
-23.824582354557684
 40
0.7448824936482979
 50
110.37448948831251
 51
240.09822713023539
  0
ARC
  8
_0-0_
  6
CONTINUOUS
 62
    7
 10
-15.077715516749095
 20
-24.084527805482374
 40
0.4207729374137185
 50
246.46765143909874
 51
308.39516450324641
  0
ARC
  8
_0-0_
  6
CONTINUOUS
 62
    7
 10
-15.78905160429764
 20
-22.592577584370524
 40
0.7448824936482979
 50
110.37448948831251
 51
240.09822713023539
  0
ARC
  8
_0-0_
  6
CONTINUOUS
 62
    7
 10
-15.99238572491835
 20
-22.852523035295214
 40
0.4207729374137185
 50
246.46765143909874
 51
308.39516450324641
  0
ARC
  8
_0-0_
  6
CONTINUOUS
 62
    7
 10
-16.685055073524666
 20
-21.883241504565795
 40
0.7448824936482979
 50
110.37448948831251
 51
240.09822713023539
  0
ARC
  8
_0-0_
  6
CONTINUOUS
 62
    7
 10
-16.888389194145375
 20
-22.143186955490485
 40
0.4207729374137185
 50
246.46765143909874
 51
308.39516450324641
  0
ARC
  8
_0-0_
  6
CONTINUOUS
 62
    7
 10
-17.898393104769596
 20
-20.875237601685392
 40
0.7448824936482979
 50
110.37448948831251
 51
240.09822713023539
  0
ARC
  8
_0-0_
  6
CONTINUOUS
 62
    7
 10
-18.101727225390306
 20
-21.135183052610081
 40
0.4207729374137185
 50
246.46765143909874
 51
308.39516450324641
  0
ARC
  8
_0-0_
  6
CONTINUOUS
 62
    7
 10
-17.226390502849327
 20
-18.317894366599923
 40
0.7448824936482979
 50
110.37448948831251
 51
240.09822713023539
  0
ARC
  8
_0-0_
  6
CONTINUOUS
 62
    7
 10
-17.429724623470037
 20
-18.577839817524612
 40
0.4207729374137185
 50
246.46765143909874
 51
308.39516450324641
  0
ARC
  8
_0-0_
  6
CONTINUOUS
 62
    7
 10
-20.73573742398851
 20
-25.616589293011735
 40
0.7448824936482979
 50
110.37448948831251
 51
240.09822713023539
  0
ARC
  8
_0-0_
  6
CONTINUOUS
 62
    7
 10
-20.93907154460922
 20
-25.876534743936425
 40
0.4207729374137185
 50
246.46765143909874
 51
308.39516450324641
  0
ARC
  8
_0-0_
  6
CONTINUOUS
 62
    7
 10
-22.117076105713508
 20
-26.680593412718828
 40
0.7448824936482979
 50
110.37448948831251
 51
240.09822713023539
  0
ARC
  8
_0-0_
  6
CONTINUOUS
 62
    7
 10
-22.320410226334218
 20
-26.940538863643518
 40
0.4207729374137185
 50
246.46765143909874
 51
308.39516450324641
  0
ARC
  8
_0-0_
  6
CONTINUOUS
 62
    7
 10
-22.919745880229385
 20
-29.349937081457675
 40
0.7448824936482979
 50
110.37448948831251
 51
240.09822713023539
  0
ARC
  8
_0-0_
  6
CONTINUOUS
 62
    7
 10
-23.123080000850095
 20
-29.609882532382365
 40
0.4207729374137185
 50
246.46765143909874
 51
308.39516450324641
  0
ARC
  8
_0-0_
  6
CONTINUOUS
 62
    7
 10
-22.02374241100236
 20
-30.376607723280308
 40
0.7448824936482979
 50
110.37448948831251
 51
240.09822713023539
  0
ARC
  8
_0-0_
  6
CONTINUOUS
 62
    7
 10
-22.227076531623069
 20
-30.636553174204998
 40
0.4207729374137185
 50
246.46765143909874
 51
308.39516450324641
  0
ARC
  8
_0-0_
  6
CONTINUOUS
 62
    7
 10
-21.146405680717564
 20
-31.403278365102942
 40
0.7448824936482979
 50
110.37448948831251
 51
240.09822713023539
  0
ARC
  8
_0-0_
  6
CONTINUOUS
 62
    7
 10
-21.349739801338274
 20
-31.663223816027632
 40
0.4207729374137185
 50
246.46765143909874
 51
308.39516450324641
  0
ARC
  8
_0-0_
  6
CONTINUOUS
 62
    7
 10
-20.194401994663849
 20
-32.448615745867805
 40
0.7448824936482979
 50
110.37448948831251
 51
240.09822713023539
  0
ARC
  8
_0-0_
  6
CONTINUOUS
 62
    7
 10
-20.397736115284559
 20
-32.708561196792495
 40
0.4207729374137185
 50
246.46765143909874
 51
308.39516450324641
  0
ARC
  8
_0-0_
  6
CONTINUOUS
 62
    7
 10
-18.831730051881081
 20
-33.867287905477248
 40
0.7448824936482979
 50
110.37448948831251
 51
240.09822713023539
  0
ARC
  8
_0-0_
  6
CONTINUOUS
 62
    7
 10
-19.035064172501791
 20
-34.127233356401938
 40
0.4207729374137185
 50
246.46765143909874
 51
308.39516450324641
  0
ARC
  8
_0-0_
  6
CONTINUOUS
 62
    7
 10
-18.010393538422974
 20
-34.931292025184355
 40
0.7448824936482979
 50
110.37448948831251
 51
240.09822713023539
  0
ARC
  8
_0-0_
  6
CONTINUOUS
 62
    7
 10
-18.213727659043684
 20
-35.191237476109045
 40
0.4207729374137185
 50
246.46765143909874
 51
308.39516450324641
  0
ARC
  8
_0-0_
  6
CONTINUOUS
 62
    7
 10
-16.871722462946963
 20
-36.088629839602596
 40
0.7448824936482979
 50
110.37448948831251
 51
240.09822713023539
  0
ARC
  8
_0-0_
  6
CONTINUOUS
 62
    7
 10
-17.075056583567672
 20
-36.348575290527286
 40
0.4207729374137185
 50
246.46765143909874
 51
308.39516450324641
  0
ARC
  8
_0-0_
  6
CONTINUOUS
 62
    7
 10
-16.013052471604396
 20
-37.283301131905297
 40
0.7448824936482979
 50
110.37448948831251
 51
240.09822713023539
  0
ARC
  8
_0-0_
  6
CONTINUOUS
 62
    7
 10
-16.216386592225106
 20
-37.543246582829987
 40
0.4207729374137185
 50
246.46765143909874
 51
308.39516450324641
  0
ARC
  8
_0-0_
  6
CONTINUOUS
 62
    7
 10
-14.146378577381427
 20
-35.883295711238056
 40
0.7448824936482979
 50
110.37448948831251
 51
240.09822713023539
  0
ARC
  8
_0-0_
  6
CONTINUOUS
 62
    7
 10
-14.349712698002136
 20
-36.143241162162745
 40
0.4207729374137185
 50
246.46765143909874
 51
308.39516450324641
  0
ARC
  8
_0-0_
  6
CONTINUOUS
 62
    7
 10
-13.213041630269942
 20
-33.120618347788074
 40
0.7448824936482979
 50
110.37448948831251
 51
240.09822713023539
  0
ARC
  8
_0-0_
  6
CONTINUOUS
 62
    7
 10
-13.416375750890651
 20
-33.380563798712764
 40
0.4207729374137185
 50
246.46765143909874
 51
308.39516450324641
  0
ARC
  8
_0-0_
  6
CONTINUOUS
 62
    7
 10
-14.333045966803724
 20
-32.224614878561049
 40
0.7448824936482979
 50
110.37448948831251
 51
240.09822713023539
  0
ARC
  8
_0-0_
  6
CONTINUOUS
 62
    7
 10
-14.536380087424433
 20
-32.484560329485738
 40
0.4207729374137185
 50
246.46765143909874
 51
308.39516450324641
  0
ARC
  8
_0-0_
  6
CONTINUOUS
 62
    7
 10
-15.490383781221965
 20
-31.123277280969496
 40
0.7448824936482979
 50
110.37448948831251
 51
240.09822713023539
  0
ARC
  8
_0-0_
  6
CONTINUOUS
 62
    7
 10
-15.693717901842675
 20
-31.383222731894186
 40
0.4207729374137185
 50
246.46765143909874
 51
308.39516450324641
  0
ARC
  8
_0-0_
  6
CONTINUOUS
 62
    7
 10
-16.42372072833345
 20
-30.171273594915782
 40
0.7448824936482979
 50
110.37448948831251
 51
240.09822713023539
  0
ARC
  8
_0-0_
  6
CONTINUOUS
 62
    7
 10
-16.62705484895416
 20
-30.431219045840471
 40
0.4207729374137185
 50
246.46765143909874
 51
308.39516450324641
  0
ARC
  8
_0-0_
  6
CONTINUOUS
 62
    7
 10
-17.935726582654056
 20
-28.39793339540396
 40
0.7448824936482979
 50
110.37448948831251
 51
240.09822713023539
  0
ARC
  8
_0-0_
  6
CONTINUOUS
 62
    7
 10
-18.139060703274765
 20
-28.65787884632865
 40
0.4207729374137185
 50
246.46765143909874
 51
308.39516450324641
  0
ARC
  8
_0-0_
  6
CONTINUOUS
 62
    7
 10
-18.90639700765
 20
-27.501929926176935
 40
0.7448824936482979
 50
110.37448948831251
 51
240.09822713023539
  0
ARC
  8
_0-0_
  6
CONTINUOUS
 62
    7
 10
-19.10973112827071
 20
-27.761875377101624
 40
0.4207729374137185
 50
246.46765143909874
 51
308.39516450324641
  0
ARC
  8
_0-0_
  6
CONTINUOUS
 62
    7
 10
-19.746400260050336
 20
-26.58725971800768
 40
0.7448824936482979
 50
110.37448948831251
 51
240.09822713023539
  0
ARC
  8
_0-0_
  6
CONTINUOUS
 62
    7
 10
-19.949734380671046
 20
-26.847205168932369
 40
0.4207729374137185
 50
246.46765143909874
 51
308.39516450324641
  0
ARC
  8
_0-0_
  6
CONTINUOUS
 62
    7
 10
-27.124755830329903
 20
-29.350456557583598
 40
0.6132850576711524
 50
123.81915778196243
 51
182.10124442319156
  0
ARC
  8
_0-0_
  6
CONTINUOUS
 62
    7
 10
-7.732700253736013
 20
-34.023304293888444
 40
11.972921104888263
 50
228.48514917888986
 51
250.65852011091727
  0
ARC
  8
_0-0_
  6
CONTINUOUS
 62
    7
 10
-5.0502245545753937
 20
-32.900221904333932
 40
14.087489621675685
 50
241.8423371011919
 51
262.68328840480365
  0
ARC
  8
_0-0_
  6
CONTINUOUS
 62
    7
 10
12.735479340596896
 20
-7.2686978767387558
 40
3.2736894009668625
 50
75.815823326283834
 51
131.63392161662176
  0
ARC
  8
_0-0_
  6
CONTINUOUS
 62
    7
 10
12.529823589864975
 20
-7.520338992968199
 40
3.340583744569567
 50
126.12169001705162
 51
174.97096452910648
  0
ARC
  8
_0-0_
  6
CONTINUOUS
 62
    7
 10
13.357458166463076
 20
-7.7141839328132562
 40
4.1837618666703902
 50
173.31985810344321
 51
205.13991438401217
  0
ARC
  8
_0-0_
  6
CONTINUOUS
 62
    7
 10
10.854794936985982
 20
-9.0562337181425789
 40
1.3565355752693475
 50
198.71853134208976
 51
240.19991301138327
  0
ARC
  8
_0-0_
  6
CONTINUOUS
 62
    7
 10
13.296894270851837
 20
-7.9103147896809247
 40
1.0074045402474581
 50
62.332589069370108
 51
124.91038033886517
  0
ARC
  8
_0-0_
  6
CONTINUOUS
 62
    7
 10
13.351440716006323
 20
-8.0040183516337393
 40
1.1154980735719713
 50
124.45348187292612
 51
187.09102749116622
  0
ARC
  8
_0-0_
  6
CONTINUOUS
 62
    7
 10
13.310413354090059
 20
-8.0666717070399585
 40
1.0685773893243846
 50
184.02742968416945
 51
260.2882945485191
  0
ARC
  8
_0-0_
  6
CONTINUOUS
 62
    7
 10
13.200575769657704
 20
-8.0291294490135243
 40
1.093076707988107
 50
266.30615723761446
 51
334.56231426927269
  0
ARC
  8
_0-0_
  6
CONTINUOUS
 62
    7
 10
13.309933939027189
 20
-7.9764835074366331
 40
1.0213161444532792
 50
329.25245293038785
 51
30.747547069612128
  0
ARC
  8
_0-0_
  6
CONTINUOUS
 62
    7
 10
13.328107818977159
 20
-7.8646442462057777
 40
0.9524841731271979
 50
25.517331887058777
 51
62.71986011977679
  0
ARC
  8
_0-0_
  6
CONTINUOUS
 62
    7
 10
12.751501591896556
 20
-7.6109568748315226
 40
0.8063757240675316
 50
108.49979141954276
 51
171.65942430048648
  0
ARC
  8
_0-0_
  6
CONTINUOUS
 62
    7
 10
14.355539518855366
 20
-7.8188520188503006
 40
2.4237550452302528
 50
172.29723681268425
 51
196.6139688539696
  0
ARC
  8
_0-0_
  6
CONTINUOUS
 62
    7
 10
12.765280191537187
 20
-8.0730638440563212
 40
0.8537087892974843
 50
210.92960015336112
 51
254.37170175735866
  0
ARC
  8
_0-0_
  6
CONTINUOUS
 62
    7
 10
12.651674780242928
 20
-7.2322083248967886
 40
1.0237559462308168
 50
16.65541323489597
 51
85.411092777505317
  0
ARC
  8
_0-0_
  6
CONTINUOUS
 62
    7
 10
12.462547493903344
 20
-7.2943442405046071
 40
1.1160214895050076
 50
75.944764331096806
 51
147.87264532526663
  0
ARC
  8
_0-0_
  6
CONTINUOUS
 62
    7
 10
12.817743751113056
 20
-7.6698329575397821
 40
1.621658472233503
 50
143.30668174583073
 51
196.91734062301319
  0
ARC
  8
_0-0_
  6
CONTINUOUS
 62
    7
 10
12.077994495980249
 20
-7.9298149849529338
 40
0.8389367661797106
 50
194.63084148270184
 51
263.29846796300978
  0
ARC
  8
_0-0_
  6
CONTINUOUS
 62
    7
 10
12.158550646683665
 20
-7.6460060986125526
 40
1.1311793238379679
 50
260.92294619906988
 51
272.34413247407042
  0
ARC
  8
_0-0_
  6
CONTINUOUS
 62
    7
 10
12.448546633259866
 20
-7.0997376555575116
 40
0.5492509942476185
 50
46.573450366687574
 51
119.4644348196525
  0
ARC
  8
_0-0_
  6
CONTINUOUS
 62
    7
 10
12.871420460918557
 20
-7.7289859716281128
 40
1.3272672567405825
 50
158.51311879559597
 51
202.9945778705455
  0
LINE
  8
_0-0_
  6
CONTINUOUS
 62
    7
 10
12.707143145331827
 20
-6.7669361911400898
 11
13.698575371804409
 21
-6.9520035400816411
  0
LINE
  8
_0-0_
  6
CONTINUOUS
 62
    7
 10
12.971525072391188
 20
-9.0934971492623973
 11
12.151941098507194
 21
-8.7630197404382102
  0
ARC
  8
_0-0_
  6
CONTINUOUS
 62
    7
 10
26.170504288334854
 20
29.099021833510086
 40
7.0601086884202449
 50
57.276236383170748
 51
76.012633898256553
  0
ARC
  8
_0-0_
  6
CONTINUOUS
 62
    7
 10
35.637372400938432
 20
29.921760615932563
 40
1.0472329576439727
 50
345.93980258827276
 51
45.950989213575944
  0
ENDBLK
  0
ENDSEC
  0
SECTION
  2
ENTITIES
  0
INSERT
  2
-002-31
  8
_0-0_
 10
135.19897959183675
 20
108.70408163265307
 41
1
 42
1
 50
0
  0
ENDSEC
  0
EOF
