  0
SECTION
  2
HEADER
  9
$ACADVER
  1
AC1009
  9
$INSBASE
 10
0
 20
0
 30
0
  9
$EXTMIN
 10
0
 20
0
  9
$EXTMAX
 10
297
 20
210
  9
$LIMMIN
 10
0
 20
0
  9
$LIMMAX
 10
297
 20
210
  9
$LTSCALE
 40
1
  0
ENDSEC
  0
SECTION
  2
TABLES
  0
TABLE
  2
LTYPE
 70
     9
  0
LTYPE
  2
CONTINUOUS
 70
    64
  3
実線
 72
    65
 73
     0
 40
0.0
  0
LTYPE
  2
DASHED1
 70
    64
  3
--  --  --  --  --  --  --  --  
 72
    65
 73
     2
 40
2.5
 49
1.25
 49
-1.25
  0
LTYPE
  2
DASHED2
 70
    64
  3
----    ----    ----    ----    
 72
    65
 73
     2
 40
5.0
 49
2.5
 49
-2.5
  0
LTYPE
  2
DASHED3
 70
    64
  3
------  ------  ------  ------  
 72
    65
 73
     2
 40
5.0
 49
3.75
 49
-1.25
  0
LTYPE
  2
CENTER1
 70
    64
  3
----- - ----- - ----- - ----- - 
 72
    65
 73
     4
 40
10.0
 49
6.25
 49
-1.25
 49
1.25
 49
-1.25
  0
LTYPE
  2
CENTER2
 70
    64
  3
----------  --  ----------  --  
 72
    65
 73
     4
 40
20.0
 49
12.5
 49
-2.5
 49
2.5
 49
-2.5
  0
LTYPE
  2
PHANTOM1
 70
    64
  3
--- - - --- - - --- - - --- - - 
 72
    65
 73
     6
 40
10.0
 49
3.25
 49
-1.25
 49
1.25
 49
-1.25
 49
1.25
 49
-1.25
  0
LTYPE
  2
PHANTOM2
 70
    64
  3
--------  -  -  --------  -  -  
 72
    65
 73
     6
 40
20.0
 49
10.0
 49
-2.5
 49
1.25
 49
-2.5
 49
1.25
 49
-2.5
  0
LTYPE
  2
DOT
 70
    64
  3
-   -   -   -   -   -   -   -   
 72
    65
 73
     2
 40
2.5
 49
0.625
 49
-1.875
  0
LTYPE
  2
DUMMY
 70
    64
  3
ダミー
 72
    65
 73
     0
 40
0.0
  0
LTYPE
  2
RAND1
 70
    64
  3
ランダム線1
 72
    65
 73
     4
 40
10.0
 49
1.0
 49
-2.0
 49
3.0
 49
-4.0
  0
LTYPE
  2
RAND2
 70
    64
  3
ランダム線2
 72
    65
 73
     4
 40
14.0
 49
2.0
 49
-3.0
 49
4.0
 49
-5.0
  0
LTYPE
  2
RAND3
 70
    64
  3
ランダム線3
 72
    65
 73
     4
 40
18.0
 49
3.0
 49
-4.0
 49
5.0
 49
-6.0
  0
LTYPE
  2
RAND4
 70
    64
  3
ランダム線4
 72
    65
 73
     4
 40
22.0
 49
4.0
 49
-5.0
 49
6.0
 49
-7.0
  0
LTYPE
  2
RAND5
 70
    64
  3
ランダム線5
 72
    65
 73
     4
 40
26.0
 49
5.0
 49
-6.0
 49
7.0
 49
-8.0
  0
LTYPE
  2
LONG1
 70
    64
  3
----------  --  ----------  --  
 72
    65
 73
     4
 40
40.0
 49
32.5
 49
-2.5
 49
2.5
 49
-2.5
  0
LTYPE
  2
LONG2
 70
    64
  3
--------  -  -  --------  -  -  
 72
    65
 73
     6
 40
40.0
 49
30.0
 49
-2.5
 49
1.25
 49
-2.5
 49
1.25
 49
-2.5
  0
LTYPE
  2
LONG3
 70
    64
  3
+++++++++++++++..+++++++++++++++
 72
    65
 73
     2
 40
40.0
 49
37.5
 49
-2.5
  0
LTYPE
  2
LONG4
 70
    64
  3
+++++++++++++++..+++++++++++++++
 72
    65
 73
     2
 40
80.0
 49
75.0
 49
-5.0
  0
LTYPE
  2
LONG5
 70
    64
  3
----------  --  ----------  --  
 72
    65
 73
     4
 40
60.0
 49
37.5
 49
-7.5
 49
7.5
 49
-7.5
  0
LTYPE
  2
dashed
 70
   64
  3
-------   -------------   ------
 72
   65
 73
    2
 40
7.5
 49
6
 49
-1.5
  0
LTYPE
  2
dashed_spaced
 70
   64
  3
----        --------        ----
 72
   65
 73
    2
 40
12
 49
6
 49
-6
  0
LTYPE
  2
long_dashed_dotted
 70
   64
  3
------------- --- --------------
 72
   65
 73
    4
 40
15.25
 49
12
 49
-1.5
 49
0.25
 49
-1.5
  0
LTYPE
  2
long_dashed_double-dotted
 70
   64
  3
----------- --- --- ------------
 72
   65
 73
    6
 40
17
 49
12
 49
-1.5
 49
0.25
 49
-1.5
 49
0.25
 49
-1.5
  0
LTYPE
  2
long_dashed_triplicate-dotted
 70
   64
  3
--------- --- --- --- ----------
 72
   65
 73
    8
 40
18.75
 49
12
 49
-1.5
 49
0.25
 49
-1.5
 49
0.25
 49
-1.5
 49
0.25
 49
-1.5
  0
LTYPE
  2
dotted
 70
   64
  3
   -       -       -       -    
 72
   65
 73
    2
 40
1.75
 49
0.25
 49
-1.5
  0
LTYPE
  2
chain
 70
   64
  3
-------------- -- --------------
 72
   65
 73
    4
 40
18.5
 49
12
 49
-1.5
 49
3.5
 49
-1.5
  0
LTYPE
  2
chain_double_dash
 70
   64
  3
------------ -- -- -------------
 72
   65
 73
    6
 40
23.5
 49
12
 49
-1.5
 49
3.5
 49
-1.5
 49
3.5
 49
-1.5
  0
LTYPE
  2
dashed_dotted
 70
   64
  3
-----------     -     ----------
 72
   65
 73
    4
 40
9.25
 49
6
 49
-1.5
 49
0.25
 49
-1.5
  0
LTYPE
  2
double-dashed_dotted
 70
   64
  3
------   -----------   -   -----
 72
   65
 73
    6
 40
16.75
 49
6
 49
-1.5
 49
6
 49
-1.5
 49
0.25
 49
-1.5
  0
LTYPE
  2
dashed_double-dotted
 70
   64
  3
---------    -    -    ---------
 72
   65
 73
    6
 40
11
 49
6
 49
-1.5
 49
0.25
 49
-1.5
 49
0.25
 49
-1.5
  0
LTYPE
  2
double-dashed_double-dotted
 70
   64
  3
-----   ---------   -   -   ----
 72
   65
 73
    8
 40
18.5
 49
6
 49
-1.5
 49
6
 49
-1.5
 49
0.25
 49
-1.5
 49
0.25
 49
-1.5
  0
LTYPE
  2
dashed_triplicate-dotted
 70
   64
  3
-------    -    -    -    ------
 72
   65
 73
    8
 40
12.75
 49
6
 49
-1.5
 49
0.25
 49
-1.5
 49
0.25
 49
-1.5
 49
0.25
 49
-1.5
  0
LTYPE
  2
double-dashed_triplicate-dotted
 70
   64
  3
-----  ---------  -  -  -  -----
 72
   65
 73
   10
 40
20.25
 49
6
 49
-1.5
 49
6
 49
-1.5
 49
0.25
 49
-1.5
 49
0.25
 49
-1.5
 49
0.25
 49
-1.5
  0
LTYPE
  2
undefined
 70
   64
  3
--------------------------------
 72
   65
 73
    0
 40
0
  0
LTYPE
  2
_
 70
   64
  3
                                
 72
   65
 73
    0
 40
0
  0
LTYPE
  2
__18
 70
   64
  3
                                
 72
   65
 73
    0
 40
0
  0
LTYPE
  2
__19
 70
   64
  3
                                
 72
   65
 73
    0
 40
0
  0
LTYPE
  2
__20
 70
   64
  3
                                
 72
   65
 73
    0
 40
0
  0
LTYPE
  2
__21
 70
   64
  3
                                
 72
   65
 73
    0
 40
0
  0
LTYPE
  2
__22
 70
   64
  3
                                
 72
   65
 73
    0
 40
0
  0
LTYPE
  2
__23
 70
   64
  3
                                
 72
   65
 73
    0
 40
0
  0
LTYPE
  2
__24
 70
   64
  3
                                
 72
   65
 73
    0
 40
0
  0
LTYPE
  2
__25
 70
   64
  3
                                
 72
   65
 73
    0
 40
0
  0
LTYPE
  2
__26
 70
   64
  3
                                
 72
   65
 73
    0
 40
0
  0
LTYPE
  2
__27
 70
   64
  3
                                
 72
   65
 73
    0
 40
0
  0
LTYPE
  2
__28
 70
   64
  3
                                
 72
   65
 73
    0
 40
0
  0
LTYPE
  2
__29
 70
   64
  3
                                
 72
   65
 73
    0
 40
0
  0
LTYPE
  2
__30
 70
   64
  3
                                
 72
   65
 73
    0
 40
0
  0
LTYPE
  2
__31
 70
   64
  3
                                
 72
   65
 73
    0
 40
0
  0
LTYPE
  2
__32
 70
   64
  3
                                
 72
   65
 73
    0
 40
0
  0
ENDTAB
  0
TABLE
  2
STYLE
  5
3
100
AcDbSymbolTable
 70
     1
  0
STYLE
  5
10
100
AcDbSymbolTableRecord
100
AcDbTextStyleTableRecord
  2
STANDARD
 70
     0
 40
0.0
 41
1.0
 50
0.0
 71
     0
 42
0.2
  3
txt
  4
bigfont.shx
  0
STYLE
  5
26
100
AcDbSymbolTableRecord
100
AcDbTextStyleTableRecord
  2
TATEGAKI
 70
    68
 40
0.0
 41
1.0
 50
0.0
 71
     0
 42
1.0
  3
txt
  4
bigfont.shx
  0
ENDTAB
  0
TABLE
  2
LAYER
 70
    2
  0
LAYER
  2
_0-0_
 70
   64
 62
    7
  6
CONTINUOUS
  0
LAYER
  2
ADD_LINE
 70
   64
 62
    7
  6
CONTINUOUS
  0
ENDTAB
  0
ENDSEC
  0
SECTION
  2
BLOCKS
  0
BLOCK
  2
-000-3
 70
   64
 10
0
 20
0
 30
0
  0
LINE
  8
_0-0_
  6
CONTINUOUS
 62
    7
 10
-6.7136703898306962
 20
32.52729747216388
 11
12.919199231694748
 21
35.981861639017652
  0
LINE
  8
_0-0_
  6
CONTINUOUS
 62
    7
 10
13.192828076594054
 20
35.776640005343168
 11
3.0685608153196142
 21
-35.230045246027601
  0
LINE
  8
_0-0_
  6
CONTINUOUS
 62
    7
 10
4.2314834061416775
 20
-35.982524569500711
 11
-15.298775398546525
 21
-26.747551054149014
  0
LINE
  8
_0-0_
  6
CONTINUOUS
 62
    7
 10
-15.298775398546525
 20
-26.747551054149014
 11
-7.3977425020789696
 21
32.493093866551433
  0
LINE
  8
_0-0_
  6
CONTINUOUS
 62
    7
 10
-7.3977425020789696
 20
32.493093866551433
 11
-6.7136703898306962
 21
32.52729747216388
  0
LINE
  8
_0-0_
  6
CONTINUOUS
 62
    7
 10
19.999345593464383
 20
35.263585921156974
 11
8.9653786134920495
 21
-37.221697236528797
  0
LINE
  8
_0-0_
  6
CONTINUOUS
 62
    7
 10
20.674195077447749
 20
35.091551225412147
 11
15.498194666342869
 21
1.5731796311698787
  0
LINE
  8
_0-0_
  6
CONTINUOUS
 62
    7
 10
14.493146042827362
 20
-2.3967624317163683
 11
11.980524484038597
 21
-46.367639710519924
  0
LINE
  8
_0-0_
  6
CONTINUOUS
 62
    7
 10
11.980524484038597
 20
-46.367639710519924
 11
11.973696128210022
 21
-47.303551231271314
  0
LINE
  8
_0-0_
  6
CONTINUOUS
 62
    7
 10
11.973696128210022
 20
-47.303551231271314
 11
17.310482980465409
 21
-45.991226595470806
  0
LINE
  8
_0-0_
  6
CONTINUOUS
 62
    7
 10
17.310482980465409
 20
-45.991226595470806
 11
17.747924525732245
 21
-45.531912972940631
  0
LINE
  8
_0-0_
  6
CONTINUOUS
 62
    7
 10
11.973696128210022
 20
-47.303551231271314
 11
10.136441638089309
 21
-46.73487722242443
  0
LINE
  8
_0-0_
  6
CONTINUOUS
 62
    7
 10
10.136441638089309
 20
-46.73487722242443
 11
10.311418256196049
 21
-44.022739641770052
  0
LINE
  8
_0-0_
  6
CONTINUOUS
 62
    7
 10
10.311418256196049
 20
-44.022739641770052
 11
11.317533810309769
 21
-44.197716259876785
  0
LINE
  8
_0-0_
  6
CONTINUOUS
 62
    7
 10
11.317533810309769
 20
-44.197716259876785
 11
12.083056514526731
 21
-44.1539721053501
  0
LINE
  8
_0-0_
  6
CONTINUOUS
 62
    7
 10
17.747924525732245
 20
-45.531912972940631
 11
20.460062106386644
 21
-0.54105004224661
  0
LINE
  8
_0-0_
  6
CONTINUOUS
 62
    7
 10
19.257097856902845
 20
-19.504141029563925
 11
23.762745773151252
 21
-19.504141029563925
  0
LINE
  8
_0-0_
  6
CONTINUOUS
 62
    7
 10
23.762745773151252
 20
-19.504141029563925
 11
29.116528761878797
 21
17.59591726244895
  0
LINE
  8
_0-0_
  6
CONTINUOUS
 62
    7
 10
29.116528761878797
 20
17.59591726244895
 11
25.522263835800985
 21
18.598967939493932
  0
LINE
  8
_0-0_
  6
CONTINUOUS
 62
    7
 10
25.522263835800985
 20
18.598967939493932
 11
25.355088722960147
 21
18.975111943385784
  0
LINE
  8
_0-0_
  6
CONTINUOUS
 62
    7
 10
25.355088722960147
 20
18.975111943385784
 11
25.731232726852014
 21
21.148388410316571
  0
LINE
  8
_0-0_
  6
CONTINUOUS
 62
    7
 10
25.731232726852014
 20
21.148388410316571
 11
22.972843364978331
 21
21.942470196310509
  0
LINE
  8
_0-0_
  6
CONTINUOUS
 62
    7
 10
20.04727889026384
 20
1.5471064297293822
 11
24.769975828017252
 21
33.770109429799149
  0
LINE
  8
_0-0_
  6
CONTINUOUS
 62
    7
 10
25.355088722960147
 20
18.975111943385784
 11
19.921897555633223
 21
-10.280532803759257
  0
LINE
  8
_0-0_
  6
CONTINUOUS
 62
    7
 10
25.522263835800985
 20
18.598967939493932
 11
19.629341108161768
 21
-15.128611076143287
  0
LINE
  8
_0-0_
  6
CONTINUOUS
 62
    7
 10
-5.8254656435352672
 20
32.14361271091785
 11
-13.568761316009841
 21
-26.038650605870245
  0
LINE
  8
_0-0_
  6
CONTINUOUS
 62
    7
 10
-13.568761316009841
 20
-26.038650605870245
 11
-14.106490182153919
 21
-27.221654111387195
  0
LINE
  8
_0-0_
  6
CONTINUOUS
 62
    7
 10
-14.321581728611534
 20
-26.30751503894227
 11
-10.557479665603068
 21
0.9015655879475303
  0
LINE
  8
_0-0_
  6
CONTINUOUS
 62
    7
 10
-6.8471504892089996
 20
31.713429618002593
 11
-8.3527913144123858
 21
18.861709717159371
  0
LINE
  8
_0-0_
  6
CONTINUOUS
 62
    7
 10
-9.4282490467005289
 20
9.8278647659390543
 11
-9.6433405931581575
 21
8.322223940735654
  0
ARC
  8
_0-0_
  6
CONTINUOUS
 62
    7
 10
16.088485573608864
 20
9.5167819384866306
 40
26.654170770678693
 50
85.518741110230508
 51
96.828850983711277
  0
ARC
  8
_0-0_
  6
CONTINUOUS
 62
    7
 10
17.45166309285554
 20
24.982567287903592
 40
11.130175248834425
 50
66.591479727656647
 51
86.29413441327209
  0
ARC
  8
_0-0_
  6
CONTINUOUS
 62
    7
 10
18.414507320835199
 20
24.519883504363946
 40
11.223130562252958
 50
55.508564500878052
 51
72.04904332621156
  0
ARC
  8
_0-0_
  6
CONTINUOUS
 62
    7
 10
7.6230699037511442
 20
-30.844298520669327
 40
6.1566407967053083
 50
236.57241357035494
 51
267.38343428014667
  0
ARC
  8
_0-0_
  6
CONTINUOUS
 62
    7
 10
9.4724606559968976
 20
-25.834481324777556
 40
11.361571288183084
 50
259.1922661470328
 51
271.28045047151494
  0
ARC
  8
_0-0_
  6
CONTINUOUS
 62
    7
 10
9.6576019734130796
 20
-24.10498196151849
 40
13.088414125007978
 50
270.30094710900914
 51
282.48004352028477
  0
ARC
  8
_0-0_
  6
CONTINUOUS
 62
    7
 10
7.7173209668916627
 20
-37.362474293261286
 40
0.3788316369977815
 50
114.07549825507883
 51
209.05460409907712
  0
ARC
  8
_0-0_
  6
CONTINUOUS
 62
    7
 10
11.867839980121644
 20
-39.378861189759547
 40
0.4286622443920206
 50
235.49147701233159
 51
325.49147701233159
  0
LINE
  8
_0-0_
  6
CONTINUOUS
 62
    7
 10
7.3861625349850186
 20
-37.546451199876088
 11
11.624990463390105
 21
-39.732096850459968
  0
LINE
  8
_0-0_
  6
CONTINUOUS
 62
    7
 10
-6.7566695988387409
 20
-30.801225016564828
 11
-6.7924806451199373
 21
-33.146848547983424
  0
LINE
  8
_0-0_
  6
CONTINUOUS
 62
    7
 10
-6.7924806451199373
 20
-33.146848547983424
 11
-6.9178193071041392
 21
-33.128943024842826
  0
LINE
  8
_0-0_
  6
CONTINUOUS
 62
    7
 10
-6.9178193071041392
 20
-33.128943024842826
 11
-7.8489065104153468
 21
-32.60968285376542
  0
LINE
  8
_0-0_
  6
CONTINUOUS
 62
    7
 10
-7.8489065104153468
 20
-32.60968285376542
 11
-7.8310009872747344
 21
-30.711697400861823
  0
LINE
  8
_0-0_
  6
CONTINUOUS
 62
    7
 10
-7.8310009872747344
 20
-30.711697400861823
 11
-7.6877568021499343
 21
-30.478925600034017
  0
LINE
  8
_0-0_
  6
CONTINUOUS
 62
    7
 10
-7.6877568021499343
 20
-30.478925600034017
 11
-7.5445126170251342
 21
-30.389397984331026
  0
LINE
  8
_0-0_
  6
CONTINUOUS
 62
    7
 10
-12.540153573252539
 20
-28.043774452912416
 11
-12.540153573252539
 21
-34.131652320716427
  0
LINE
  8
_0-0_
  6
CONTINUOUS
 62
    7
 10
-12.540153573252539
 20
-34.131652320716427
 11
10.136441638089309
 21
-46.73487722242443
  0
LINE
  8
_0-0_
  6
CONTINUOUS
 62
    7
 10
10.311418256196049
 20
-44.022739641770052
 11
-11.752310555066146
 21
-32.824549131452628
  0
ARC
  8
_0-0_
  6
CONTINUOUS
 62
    7
 10
22.75697688394591
 20
-2.6486273445029553
 40
8.2676681177291513
 50
150.57481174060345
 51
178.25428049240838
  0
ARC
  8
_0-0_
  6
CONTINUOUS
 62
    7
 10
17.89138275197881
 20
-1.1814980648791504
 40
3.4909857606391137
 50
88.761656271050413
 51
131.99121415662273
  0
ARC
  8
_0-0_
  6
CONTINUOUS
 62
    7
 10
18.205413607270032
 20
0.3121693918626533
 40
2.0107081093868073
 50
33.985793822711898
 51
96.814624966973369
  0
ARC
  8
_0-0_
  6
CONTINUOUS
 62
    7
 10
17.722709596966638
 20
-0.1506409424837471
 40
2.6720896463438257
 50
6.4661037547114697
 51
36.429368899498634
  0
ARC
  8
_0-0_
  6
CONTINUOUS
 62
    7
 10
17.113843400471922
 20
-0.5886581961214858
 40
3.3465573600536112
 50
0.8151177490500237
 51
12.756302912238159
  0
LINE
  8
_0-0_
  6
CONTINUOUS
 62
    7
 10
-6.6139135267715972
 20
32.264343135853252
 11
-5.938815155606207
 21
32.176286826570802
  0
LINE
  8
_0-0_
  6
CONTINUOUS
 62
    7
 10
-3.8192941824956961
 20
31.687521339166565
 11
12.426565171248058
 21
34.442786430567836
  0
LINE
  8
_0-0_
  6
CONTINUOUS
 62
    7
 10
-5.3091782689571261
 20
23.687047888579187
 11
10.691768632217631
 21
24.870791409329357
  0
LINE
  8
_0-0_
  6
CONTINUOUS
 62
    7
 10
11.548962216209134
 20
24.115644680574931
 11
-6.2071905950434569
 21
22.666579336208343
  0
LINE
  8
_0-0_
  6
CONTINUOUS
 62
    7
 10
-6.3908749344702187
 20
23.850322856958527
 11
-5.574500092573544
 21
30.360912221084462
  0
LINE
  8
_0-0_
  6
CONTINUOUS
 62
    7
 10
-6.1459624819012078
 20
22.217573173165178
 11
11.344868505734979
 21
23.340088580773099
  0
LINE
  8
_0-0_
  6
CONTINUOUS
 62
    7
 10
-5.3091782689571261
 20
30.075181026420651
 11
11.548962216209134
 21
32.381439954778742
  0
LINE
  8
_0-0_
  6
CONTINUOUS
 62
    7
 10
11.753055926683302
 20
31.932433791735562
 11
10.97749982688147
 21
26.258628640553709
  0
LINE
  8
_0-0_
  6
CONTINUOUS
 62
    7
 10
10.365218695458964
 20
25.646347509131189
 11
-5.4316344952416244
 21
24.176872793717195
  0
LINE
  8
_0-0_
  6
CONTINUOUS
 62
    7
 10
10.936681084786642
 20
25.58511939598894
 11
11.242821650497888
 21
25.238160088182866
  0
LINE
  8
_0-0_
  6
CONTINUOUS
 62
    7
 10
-5.2479501558148769
 20
29.544537379187815
 11
-5.8398219161899618
 21
24.687107069902609
  0
ARC
  8
_0-0_
  6
CONTINUOUS
 62
    7
 10
-4.3787899262091514
 20
29.031586747862818
 40
1.0092362730822686
 50
96.486556083920291
 51
149.45225172300164
  0
ARC
  8
_0-0_
  6
CONTINUOUS
 62
    7
 10
-5.5320354334587307
 20
24.534695153854969
 40
0.2761897803057079
 50
165.15216201868569
 51
269.65855124413014
  0
ARC
  8
_0-0_
  6
CONTINUOUS
 62
    7
 10
10.348066138940396
 20
26.135521051363455
 40
0.527387234945249
 50
297.27184964885384
 51
0.0707646155357767
  0
ARC
  8
_0-0_
  6
CONTINUOUS
 62
    7
 10
11.176090487046991
 20
31.600273949322442
 40
0.6657471587972716
 50
29.929096793639594
 51
98.338189618169167
  0
ARC
  8
_0-0_
  6
CONTINUOUS
 62
    7
 10
11.664598725826608
 20
31.100975926845436
 40
1.2856748924933252
 50
43.974057094154873
 51
95.160285547046712
  0
LINE
  8
_0-0_
  6
CONTINUOUS
 62
    7
 10
12.32451831601098
 20
31.585474483929474
 11
11.548962216209134
 21
25.544300653894126
  0
ARC
  8
_0-0_
  6
CONTINUOUS
 62
    7
 10
10.603902314007044
 20
25.820092219801055
 40
0.980007116364326
 50
288.58686166955562
 51
337.32232135266963
  0
ARC
  8
_0-0_
  6
CONTINUOUS
 62
    7
 10
-4.982628332198459
 20
24.54424147257069
 40
0.9172871424113995
 50
200.8544580395783
 51
249.1455419604217
  0
ARC
  8
_0-0_
  6
CONTINUOUS
 62
    7
 10
-4.2971135752531069
 20
23.569093729437483
 40
2.1125639520537387
 50
172.34995111241105
 51
205.29080799163222
  0
ARC
  8
_0-0_
  6
CONTINUOUS
 62
    7
 10
-3.5708011385148239
 20
29.534305150653168
 40
2.1675074964998444
 50
96.583126926301517
 51
157.5818670040419
  0
ARC
  8
_0-0_
  6
CONTINUOUS
 62
    7
 10
12.370248404079788
 20
33.949796435802156
 40
0.4961962446485819
 50
333.50821704323249
 51
83.483060193258993
  0
ARC
  8
_0-0_
  6
CONTINUOUS
 62
    7
 10
-4.4783203929191444
 20
28.316189141388136
 40
0.4044454614261525
 50
96.566954860770295
 51
250.46689775343683
  0
ARC
  8
_0-0_
  6
CONTINUOUS
 62
    7
 10
-4.4812002252525218
 20
28.265331744298791
 40
0.3558391637903439
 50
248.16533701795476
 51
331.43241569109983
  0
ARC
  8
_0-0_
  6
CONTINUOUS
 62
    7
 10
-4.6654910813379757
 20
26.234376024315125
 40
0.4044454614261525
 50
96.566954860770295
 51
250.46689775343683
  0
ARC
  8
_0-0_
  6
CONTINUOUS
 62
    7
 10
-4.6683709136713532
 20
26.18351862722578
 40
0.3558391637903439
 50
248.16533701795476
 51
331.43241569109983
  0
ARC
  8
_0-0_
  6
CONTINUOUS
 62
    7
 10
-4.7188747763565715
 20
24.88198908384436
 40
0.4044454614261525
 50
96.566954860770295
 51
250.46689775343683
  0
ARC
  8
_0-0_
  6
CONTINUOUS
 62
    7
 10
-4.7217546086899489
 20
24.831131686755015
 40
0.3558391637903439
 50
248.16533701795476
 51
331.43241569109983
  0
ARC
  8
_0-0_
  6
CONTINUOUS
 62
    7
 10
-3.4910497909291536
 20
26.305554284339919
 40
0.4044454614261525
 50
96.566954860770295
 51
250.46689775343683
  0
ARC
  8
_0-0_
  6
CONTINUOUS
 62
    7
 10
-3.493929623262531
 20
26.254696887250574
 40
0.3558391637903439
 50
248.16533701795476
 51
331.43241569109983
  0
ARC
  8
_0-0_
  6
CONTINUOUS
 62
    7
 10
-3.4376660959105578
 20
24.899783648850544
 40
0.4044454614261525
 50
96.566954860770295
 51
250.46689775343683
  0
ARC
  8
_0-0_
  6
CONTINUOUS
 62
    7
 10
-3.4405459282439352
 20
24.848926251761199
 40
0.3558391637903439
 50
248.16533701795476
 51
331.43241569109983
  0
ARC
  8
_0-0_
  6
CONTINUOUS
 62
    7
 10
-1.8183606803468706
 20
25.095523863918686
 40
0.4044454614261525
 50
96.566954860770295
 51
250.46689775343683
  0
ARC
  8
_0-0_
  6
CONTINUOUS
 62
    7
 10
-1.821240512680248
 20
25.044666466829341
 40
0.3558391637903439
 50
248.16533701795476
 51
331.43241569109983
  0
ARC
  8
_0-0_
  6
CONTINUOUS
 62
    7
 10
-1.6404150302849274
 20
26.46570536939565
 40
0.4044454614261525
 50
96.566954860770295
 51
250.46689775343683
  0
ARC
  8
_0-0_
  6
CONTINUOUS
 62
    7
 10
-1.6432948626183048
 20
26.414847972306305
 40
0.3558391637903439
 50
248.16533701795476
 51
331.43241569109983
  0
ARC
  8
_0-0_
  6
CONTINUOUS
 62
    7
 10
-0.3058226548203464
 20
26.536883629420444
 40
0.4044454614261525
 50
96.566954860770295
 51
250.46689775343683
  0
ARC
  8
_0-0_
  6
CONTINUOUS
 62
    7
 10
-0.3087024871537238
 20
26.486026232331099
 40
0.3558391637903439
 50
248.16533701795476
 51
331.43241569109983
  0
ARC
  8
_0-0_
  6
CONTINUOUS
 62
    7
 10
-0.4125900448575095
 20
25.291264078986828
 40
0.4044454614261525
 50
96.566954860770295
 51
250.46689775343683
  0
ARC
  8
_0-0_
  6
CONTINUOUS
 62
    7
 10
-0.4154698771908869
 20
25.240406681897483
 40
0.3558391637903439
 50
248.16533701795476
 51
331.43241569109983
  0
ARC
  8
_0-0_
  6
CONTINUOUS
 62
    7
 10
1.0109751556380502
 20
25.415826034030189
 40
0.4044454614261525
 50
96.566954860770295
 51
250.46689775343683
  0
ARC
  8
_0-0_
  6
CONTINUOUS
 62
    7
 10
1.0080953233046728
 20
25.364968636940844
 40
0.3558391637903439
 50
248.16533701795476
 51
331.43241569109983
  0
ARC
  8
_0-0_
  6
CONTINUOUS
 62
    7
 10
1.2600990657247735
 20
26.358937979358487
 40
0.4044454614261525
 50
96.566954860770295
 51
250.46689775343683
  0
ARC
  8
_0-0_
  6
CONTINUOUS
 62
    7
 10
1.2572192333913961
 20
26.308080582269142
 40
0.3558391637903439
 50
248.16533701795476
 51
331.43241569109983
  0
ARC
  8
_0-0_
  6
CONTINUOUS
 62
    7
 10
2.7904316562574962
 20
26.910569494550529
 40
0.4044454614261525
 50
96.566954860770295
 51
250.46689775343683
  0
ARC
  8
_0-0_
  6
CONTINUOUS
 62
    7
 10
2.7875518239241188
 20
26.859712097461184
 40
0.3558391637903439
 50
248.16533701795476
 51
331.43241569109983
  0
ARC
  8
_0-0_
  6
CONTINUOUS
 62
    7
 10
2.8082262212636806
 20
25.469209729048771
 40
0.4044454614261525
 50
96.566954860770295
 51
250.46689775343683
  0
ARC
  8
_0-0_
  6
CONTINUOUS
 62
    7
 10
2.8053463889303032
 20
25.418352331959426
 40
0.3558391637903439
 50
248.16533701795476
 51
331.43241569109983
  0
ARC
  8
_0-0_
  6
CONTINUOUS
 62
    7
 10
4.2139968567530417
 20
25.736128204141679
 40
0.4044454614261525
 50
96.566954860770295
 51
250.46689775343683
  0
ARC
  8
_0-0_
  6
CONTINUOUS
 62
    7
 10
4.2111170244196643
 20
25.685270807052333
 40
0.3558391637903439
 50
248.16533701795476
 51
331.43241569109983
  0
ARC
  8
_0-0_
  6
CONTINUOUS
 62
    7
 10
4.5520935918707437
 20
27.088515144612458
 40
0.4044454614261525
 50
96.566954860770295
 51
250.46689775343683
  0
ARC
  8
_0-0_
  6
CONTINUOUS
 62
    7
 10
4.5492137595373663
 20
27.037657747523113
 40
0.3558391637903439
 50
248.16533701795476
 51
331.43241569109983
  0
ARC
  8
_0-0_
  6
CONTINUOUS
 62
    7
 10
6.0112479223786863
 20
27.177487969643451
 40
0.4044454614261525
 50
96.566954860770295
 51
250.46689775343683
  0
ARC
  8
_0-0_
  6
CONTINUOUS
 62
    7
 10
6.0083680900453089
 20
27.126630572554106
 40
0.3558391637903439
 50
248.16533701795476
 51
331.43241569109983
  0
ARC
  8
_0-0_
  6
CONTINUOUS
 62
    7
 10
6.0290424873848849
 20
25.771717334154076
 40
0.4044454614261525
 50
96.566954860770295
 51
250.46689775343683
  0
ARC
  8
_0-0_
  6
CONTINUOUS
 62
    7
 10
6.0261626550515075
 20
25.720859937064731
 40
0.3558391637903439
 50
248.16533701795476
 51
331.43241569109983
  0
ARC
  8
_0-0_
  6
CONTINUOUS
 62
    7
 10
7.4881968178928275
 20
26.020841244240799
 40
0.4044454614261525
 50
96.566954860770295
 51
250.46689775343683
  0
ARC
  8
_0-0_
  6
CONTINUOUS
 62
    7
 10
7.4853169855594501
 20
25.969983847151454
 40
0.3558391637903439
 50
248.16533701795476
 51
331.43241569109983
  0
ARC
  8
_0-0_
  6
CONTINUOUS
 62
    7
 10
7.7195261629733523
 20
27.266460794674416
 40
0.4044454614261525
 50
96.566954860770295
 51
250.46689775343683
  0
ARC
  8
_0-0_
  6
CONTINUOUS
 62
    7
 10
7.7166463306399748
 20
27.21560339758507
 40
0.3558391637903439
 50
248.16533701795476
 51
331.43241569109983
  0
ARC
  8
_0-0_
  6
CONTINUOUS
 62
    7
 10
9.8904630937290818
 20
27.479995574748742
 40
0.4044454614261525
 50
96.566954860770295
 51
250.46689775343683
  0
ARC
  8
_0-0_
  6
CONTINUOUS
 62
    7
 10
9.8875832613957044
 20
27.429138177659397
 40
0.3558391637903439
 50
248.16533701795476
 51
331.43241569109983
  0
ARC
  8
_0-0_
  6
CONTINUOUS
 62
    7
 10
9.5701609236175784
 20
26.180992329296558
 40
0.4044454614261525
 50
96.566954860770295
 51
250.46689775343683
  0
ARC
  8
_0-0_
  6
CONTINUOUS
 62
    7
 10
9.567281091284201
 20
26.130134932207213
 40
0.3558391637903439
 50
248.16533701795476
 51
331.43241569109983
  0
ARC
  8
_0-0_
  6
CONTINUOUS
 62
    7
 10
9.9972304837662449
 20
30.64742814585135
 40
0.4044454614261525
 50
96.566954860770295
 51
250.46689775343683
  0
ARC
  8
_0-0_
  6
CONTINUOUS
 62
    7
 10
9.9943506514328675
 20
30.596570748762005
 40
0.3558391637903439
 50
248.16533701795476
 51
331.43241569109983
  0
ARC
  8
_0-0_
  6
CONTINUOUS
 62
    7
 10
8.1821848531344159
 20
30.362715105752258
 40
0.4044454614261525
 50
96.566954860770295
 51
250.46689775343683
  0
ARC
  8
_0-0_
  6
CONTINUOUS
 62
    7
 10
8.1793050208010385
 20
30.311857708662913
 40
0.3558391637903439
 50
248.16533701795476
 51
331.43241569109983
  0
ARC
  8
_0-0_
  6
CONTINUOUS
 62
    7
 10
6.3493446574963883
 20
29.882261850584982
 40
0.4044454614261525
 50
96.566954860770295
 51
250.46689775343683
  0
ARC
  8
_0-0_
  6
CONTINUOUS
 62
    7
 10
6.3464648251630109
 20
29.831404453495637
 40
0.3558391637903439
 50
248.16533701795476
 51
331.43241569109983
  0
ARC
  8
_0-0_
  6
CONTINUOUS
 62
    7
 10
4.6588609819079068
 20
29.668727070510656
 40
0.4044454614261525
 50
96.566954860770295
 51
250.46689775343683
  0
ARC
  8
_0-0_
  6
CONTINUOUS
 62
    7
 10
4.6559811495745294
 20
29.61786967342131
 40
0.3558391637903439
 50
248.16533701795476
 51
331.43241569109983
  0
ARC
  8
_0-0_
  6
CONTINUOUS
 62
    7
 10
3.1463229563813826
 20
29.419603160423932
 40
0.4044454614261525
 50
96.566954860770295
 51
250.46689775343683
  0
ARC
  8
_0-0_
  6
CONTINUOUS
 62
    7
 10
3.1434431240480052
 20
29.368745763334587
 40
0.3558391637903439
 50
248.16533701795476
 51
331.43241569109983
  0
ARC
  8
_0-0_
  6
CONTINUOUS
 62
    7
 10
1.6159903658486598
 20
29.295041205380571
 40
0.4044454614261525
 50
96.566954860770295
 51
250.46689775343683
  0
ARC
  8
_0-0_
  6
CONTINUOUS
 62
    7
 10
1.6131105335152824
 20
29.244183808291226
 40
0.3558391637903439
 50
248.16533701795476
 51
331.43241569109983
  0
ARC
  8
_0-0_
  6
CONTINUOUS
 62
    7
 10
-0.0033150497150415
 20
28.956944470262883
 40
0.4044454614261525
 50
96.566954860770295
 51
250.46689775343683
  0
ARC
  8
_0-0_
  6
CONTINUOUS
 62
    7
 10
-0.006194882048419
 20
28.906087073173538
 40
0.3558391637903439
 50
248.16533701795476
 51
331.43241569109983
  0
ARC
  8
_0-0_
  6
CONTINUOUS
 62
    7
 10
-1.4268802502105871
 20
28.690025995169961
 40
0.4044454614261525
 50
96.566954860770295
 51
250.46689775343683
  0
ARC
  8
_0-0_
  6
CONTINUOUS
 62
    7
 10
-1.4297600825439645
 20
28.639168598080616
 40
0.3558391637903439
 50
248.16533701795476
 51
331.43241569109983
  0
ARC
  8
_0-0_
  6
CONTINUOUS
 62
    7
 10
-3.0105965357619056
 20
28.654436865157564
 40
0.4044454614261525
 50
96.566954860770295
 51
250.46689775343683
  0
ARC
  8
_0-0_
  6
CONTINUOUS
 62
    7
 10
-3.013476368095283
 20
28.603579468068219
 40
0.3558391637903439
 50
248.16533701795476
 51
331.43241569109983
  0
ARC
  8
_0-0_
  6
CONTINUOUS
 62
    7
 10
10.210765263840585
 20
31.750691176235406
 40
0.4044454614261525
 50
96.566954860770295
 51
250.46689775343683
  0
ARC
  8
_0-0_
  6
CONTINUOUS
 62
    7
 10
10.207885431507208
 20
31.699833779146061
 40
0.3558391637903439
 50
248.16533701795476
 51
331.43241569109983
  0
ARC
  8
_0-0_
  6
CONTINUOUS
 62
    7
 10
8.5202815882521037
 20
31.501567266148683
 40
0.4044454614261525
 50
96.566954860770295
 51
250.46689775343683
  0
ARC
  8
_0-0_
  6
CONTINUOUS
 62
    7
 10
8.5174017559187263
 20
31.450709869059338
 40
0.3558391637903439
 50
248.16533701795476
 51
331.43241569109983
  0
ARC
  8
_0-0_
  6
CONTINUOUS
 62
    7
 10
6.7230305226264733
 20
31.181265096037194
 40
0.4044454614261525
 50
96.566954860770295
 51
250.46689775343683
  0
ARC
  8
_0-0_
  6
CONTINUOUS
 62
    7
 10
6.7201506902930959
 20
31.130407698947849
 40
0.3558391637903439
 50
248.16533701795476
 51
331.43241569109983
  0
ARC
  8
_0-0_
  6
CONTINUOUS
 62
    7
 10
5.0503414120441903
 20
30.932141185950471
 40
0.4044454614261525
 50
96.566954860770295
 51
250.46689775343683
  0
ARC
  8
_0-0_
  6
CONTINUOUS
 62
    7
 10
5.0474615797108129
 20
30.881283788861126
 40
0.3558391637903439
 50
248.16533701795476
 51
331.43241569109983
  0
ARC
  8
_0-0_
  6
CONTINUOUS
 62
    7
 10
3.466625126492886
 20
30.771990100894712
 40
0.4044454614261525
 50
96.566954860770295
 51
250.46689775343683
  0
ARC
  8
_0-0_
  6
CONTINUOUS
 62
    7
 10
3.4637452941595086
 20
30.721132703805367
 40
0.3558391637903439
 50
248.16533701795476
 51
331.43241569109983
  0
ARC
  8
_0-0_
  6
CONTINUOUS
 62
    7
 10
2.1142381860221064
 20
30.522866190807989
 40
0.4044454614261525
 50
96.566954860770295
 51
250.46689775343683
  0
ARC
  8
_0-0_
  6
CONTINUOUS
 62
    7
 10
2.111358353688729
 20
30.472008793718643
 40
0.3558391637903439
 50
248.16533701795476
 51
331.43241569109983
  0
ARC
  8
_0-0_
  6
CONTINUOUS
 62
    7
 10
0.4237545104336248
 20
30.255947715715067
 40
0.4044454614261525
 50
96.566954860770295
 51
250.46689775343683
  0
ARC
  8
_0-0_
  6
CONTINUOUS
 62
    7
 10
0.4208746781002474
 20
30.205090318625722
 40
0.3558391637903439
 50
248.16533701795476
 51
331.43241569109983
  0
ARC
  8
_0-0_
  6
CONTINUOUS
 62
    7
 10
-1.2667291651548425
 20
30.060207500646939
 40
0.4044454614261525
 50
96.566954860770295
 51
250.46689775343683
  0
ARC
  8
_0-0_
  6
CONTINUOUS
 62
    7
 10
-1.2696089974882199
 20
30.009350103557594
 40
0.3558391637903439
 50
248.16533701795476
 51
331.43241569109983
  0
ARC
  8
_0-0_
  6
CONTINUOUS
 62
    7
 10
-2.6013215406194234
 20
29.864467285578812
 40
0.4044454614261525
 50
96.566954860770295
 51
250.46689775343683
  0
ARC
  8
_0-0_
  6
CONTINUOUS
 62
    7
 10
-2.6042013729528009
 20
29.813609888489466
 40
0.3558391637903439
 50
248.16533701795476
 51
331.43241569109983
  0
ARC
  8
_0-0_
  6
CONTINUOUS
 62
    7
 10
-4.0248867411149831
 20
29.704316200523053
 40
0.4044454614261525
 50
96.566954860770295
 51
250.46689775343683
  0
ARC
  8
_0-0_
  6
CONTINUOUS
 62
    7
 10
-4.0277665734483605
 20
29.653458803433708
 40
0.3558391637903439
 50
248.16533701795476
 51
331.43241569109983
  0
LINE
  8
_0-0_
  6
CONTINUOUS
 62
    7
 10
-6.4191856153121023
 20
22.691063831106376
 11
-6.2138114000813687
 21
22.280315400644923
  0
LINE
  8
_0-0_
  6
CONTINUOUS
 62
    7
 10
-6.1111242924660161
 20
21.441704021786123
 11
11.242996894530535
 21
22.485689615875657
  0
LINE
  8
_0-0_
  6
CONTINUOUS
 62
    7
 10
9.103682152543783
 20
20.68866523260678
 11
-6.6759033843505193
 21
20.02119903310691
  0
LINE
  8
_0-0_
  6
CONTINUOUS
 62
    7
 10
9.6684612444282862
 20
19.969855479299227
 11
9.1550257063514664
 21
14.407637150133681
  0
LINE
  8
_0-0_
  6
CONTINUOUS
 62
    7
 10
9.1550257063514664
 20
13.842858058249178
 11
9.3946289574539747
 21
13.620369325082549
  0
LINE
  8
_0-0_
  6
CONTINUOUS
 62
    7
 10
9.7711483520436389
 20
13.825743540313283
 11
10.609759730902454
 21
19.969855479299227
  0
LINE
  8
_0-0_
  6
CONTINUOUS
 62
    7
 10
9.9765225672743725
 20
20.141000658658172
 11
10.267469372184578
 21
20.123886140722277
  0
LINE
  8
_0-0_
  6
CONTINUOUS
 62
    7
 10
8.2479562557490738
 20
13.842858058249178
 11
-6.6759033843505193
 21
13.859972576185072
  0
LINE
  8
_0-0_
  6
CONTINUOUS
 62
    7
 10
-6.6587888664146249
 20
13.637483843018444
 11
9.2405982960309245
 21
13.43210962778771
  0
LINE
  8
_0-0_
  6
CONTINUOUS
 62
    7
 10
9.8567209417231112
 20
12.422353069569965
 11
-7.7883470501836314
 21
12.850216017967313
  0
LINE
  8
_0-0_
  6
CONTINUOUS
 62
    7
 10
-7.4289421735298475
 20
12.405238551634071
 11
9.7369193161718499
 21
11.857573977685462
  0
LINE
  8
_0-0_
  6
CONTINUOUS
 62
    7
 10
-6.7957050099017806
 20
19.610450602645457
 11
-7.4289421735298475
 21
14.322064560454209
  0
LINE
  8
_0-0_
  6
CONTINUOUS
 62
    7
 10
-6.9839647071966056
 20
20.175229694529961
 11
-7.8225760860554203
 21
13.671712878890233
  0
ARC
  8
_0-0_
  6
CONTINUOUS
 62
    7
 10
8.3592006223324091
 20
14.62156862433234
 40
0.7866164597985979
 50
261.86989764584212
 51
337.61986494804086
  0
ARC
  8
_0-0_
  6
CONTINUOUS
 62
    7
 10
8.9605693732522553
 20
19.994937100412173
 40
0.7083360706576759
 50
357.97077748107574
 51
78.343675693662632
  0
ARC
  8
_0-0_
  6
CONTINUOUS
 62
    7
 10
-6.2085453945626909
 20
19.420764695522664
 40
0.6170390240869246
 50
103.32218348046744
 51
162.09659643425283
  0
ARC
  8
_0-0_
  6
CONTINUOUS
 62
    7
 10
-6.6544614312712014
 20
14.739548171928348
 40
0.8798369087387771
 50
208.32687392364812
 51
268.60354226597497
  0
ARC
  8
_0-0_
  6
CONTINUOUS
 62
    7
 10
-6.5002543844820906
 20
14.288736288684348
 40
0.6702707885231418
 50
197.92361035059952
 51
256.31858244272325
  0
ARC
  8
_0-0_
  6
CONTINUOUS
 62
    7
 10
-0.3948753018649569
 20
13.56973887618939
 40
7.4284007455636401
 50
179.21344261086259
 51
185.55844544991521
  0
ARC
  8
_0-0_
  6
CONTINUOUS
 62
    7
 10
-7.285024636341646
 20
12.889112649639813
 40
0.5048231375751232
 50
184.41902060512535
 51
253.43606658046087
  0
ARC
  8
_0-0_
  6
CONTINUOUS
 62
    7
 10
9.2967174306223939
 20
18.596063912804738
 40
2.0296386298445572
 50
50.319811990914594
 51
85.782789842031718
  0
ARC
  8
_0-0_
  6
CONTINUOUS
 62
    7
 10
-5.767394017581438
 20
19.413390568023516
 40
0.4044454614261525
 50
96.566954860770295
 51
250.46689775343683
  0
ARC
  8
_0-0_
  6
CONTINUOUS
 62
    7
 10
-5.7702738499148154
 20
19.362533170934171
 40
0.3558391637903439
 50
248.16533701795476
 51
331.43241569109983
  0
ARC
  8
_0-0_
  6
CONTINUOUS
 62
    7
 10
-4.2270874033509784
 20
19.481848639767094
 40
0.4044454614261525
 50
96.566954860770295
 51
250.46689775343683
  0
ARC
  8
_0-0_
  6
CONTINUOUS
 62
    7
 10
-4.2299672356843558
 20
19.430991242677749
 40
0.3558391637903439
 50
248.16533701795476
 51
331.43241569109983
  0
ARC
  8
_0-0_
  6
CONTINUOUS
 62
    7
 10
-5.9898827507480661
 20
17.992885579344318
 40
0.4044454614261525
 50
96.566954860770295
 51
250.46689775343683
  0
ARC
  8
_0-0_
  6
CONTINUOUS
 62
    7
 10
-5.9927625830814435
 20
17.942028182254973
 40
0.3558391637903439
 50
248.16533701795476
 51
331.43241569109983
  0
ARC
  8
_0-0_
  6
CONTINUOUS
 62
    7
 10
-4.3468890289022397
 20
18.027114615216107
 40
0.4044454614261525
 50
96.566954860770295
 51
250.46689775343683
  0
ARC
  8
_0-0_
  6
CONTINUOUS
 62
    7
 10
-4.3497688612356171
 20
17.976257218126761
 40
0.3558391637903439
 50
248.16533701795476
 51
331.43241569109983
  0
ARC
  8
_0-0_
  6
CONTINUOUS
 62
    7
 10
-2.618322717376941
 20
19.413390568023516
 40
0.4044454614261525
 50
96.566954860770295
 51
250.46689775343683
  0
ARC
  8
_0-0_
  6
CONTINUOUS
 62
    7
 10
-2.6212025497103184
 20
19.362533170934171
 40
0.3558391637903439
 50
248.16533701795476
 51
331.43241569109983
  0
ARC
  8
_0-0_
  6
CONTINUOUS
 62
    7
 10
-2.8921550043512383
 20
17.855969435857162
 40
0.4044454614261525
 50
96.566954860770295
 51
250.46689775343683
  0
ARC
  8
_0-0_
  6
CONTINUOUS
 62
    7
 10
-2.8950348366846157
 20
17.805112038767817
 40
0.3558391637903439
 50
248.16533701795476
 51
331.43241569109983
  0
ARC
  8
_0-0_
  6
CONTINUOUS
 62
    7
 10
-1.2662758004413064
 20
19.533192193574777
 40
0.4044454614261525
 50
96.566954860770295
 51
250.46689775343683
  0
ARC
  8
_0-0_
  6
CONTINUOUS
 62
    7
 10
-1.2691556327746838
 20
19.482334796485432
 40
0.3558391637903439
 50
248.16533701795476
 51
331.43241569109983
  0
ARC
  8
_0-0_
  6
CONTINUOUS
 62
    7
 10
-1.6770242309027736
 20
18.129801722831459
 40
0.4044454614261525
 50
96.566954860770295
 51
250.46689775343683
  0
ARC
  8
_0-0_
  6
CONTINUOUS
 62
    7
 10
-1.679904063236151
 20
18.078944325742114
 40
0.3558391637903439
 50
248.16533701795476
 51
331.43241569109983
  0
ARC
  8
_0-0_
  6
CONTINUOUS
 62
    7
 10
0.2398017779173642
 20
18.43786304567756
 40
0.4044454614261525
 50
96.566954860770295
 51
250.46689775343683
  0
ARC
  8
_0-0_
  6
CONTINUOUS
 62
    7
 10
0.2369219455839868
 20
18.387005648588215
 40
0.3558391637903439
 50
248.16533701795476
 51
331.43241569109983
  0
ARC
  8
_0-0_
  6
CONTINUOUS
 62
    7
 10
0.4280614752121891
 20
19.687222854997827
 40
0.4044454614261525
 50
96.566954860770295
 51
250.46689775343683
  0
ARC
  8
_0-0_
  6
CONTINUOUS
 62
    7
 10
0.4251816428788117
 20
19.636365457908482
 40
0.3558391637903439
 50
248.16533701795476
 51
331.43241569109983
  0
ARC
  8
_0-0_
  6
CONTINUOUS
 62
    7
 10
1.8999100176990851
 20
19.687222854997827
 40
0.4044454614261525
 50
96.566954860770295
 51
250.46689775343683
  0
ARC
  8
_0-0_
  6
CONTINUOUS
 62
    7
 10
1.8970301853657077
 20
19.636365457908482
 40
0.3558391637903439
 50
248.16533701795476
 51
331.43241569109983
  0
ARC
  8
_0-0_
  6
CONTINUOUS
 62
    7
 10
1.643192248660668
 20
18.472092081549349
 40
0.4044454614261525
 50
96.566954860770295
 51
250.46689775343683
  0
ARC
  8
_0-0_
  6
CONTINUOUS
 62
    7
 10
1.6403124163272906
 20
18.421234684460003
 40
0.3558391637903439
 50
248.16533701795476
 51
331.43241569109983
  0
ARC
  8
_0-0_
  6
CONTINUOUS
 62
    7
 10
3.1492698270193387
 20
18.198259794575037
 40
0.4044454614261525
 50
96.566954860770295
 51
250.46689775343683
  0
ARC
  8
_0-0_
  6
CONTINUOUS
 62
    7
 10
3.1463899946859613
 20
18.147402397485692
 40
0.3558391637903439
 50
248.16533701795476
 51
331.43241569109983
  0
ARC
  8
_0-0_
  6
CONTINUOUS
 62
    7
 10
3.4059875960577557
 20
19.721451890869616
 40
0.4044454614261525
 50
96.566954860770295
 51
250.46689775343683
  0
ARC
  8
_0-0_
  6
CONTINUOUS
 62
    7
 10
3.4031077637243783
 20
19.670594493780271
 40
0.3558391637903439
 50
248.16533701795476
 51
331.43241569109983
  0
ARC
  8
_0-0_
  6
CONTINUOUS
 62
    7
 10
5.1687829434548433
 20
19.755680926741391
 40
0.4044454614261525
 50
96.566954860770295
 51
250.46689775343683
  0
ARC
  8
_0-0_
  6
CONTINUOUS
 62
    7
 10
5.1659031111214659
 20
19.704823529652046
 40
0.3558391637903439
 50
248.16533701795476
 51
331.43241569109983
  0
ARC
  8
_0-0_
  6
CONTINUOUS
 62
    7
 10
4.7751490309292848
 20
18.232488830446826
 40
0.4044454614261525
 50
96.566954860770295
 51
250.46689775343683
  0
ARC
  8
_0-0_
  6
CONTINUOUS
 62
    7
 10
4.7722691985959074
 20
18.181631433357481
 40
0.3558391637903439
 50
248.16533701795476
 51
331.43241569109983
  0
ARC
  8
_0-0_
  6
CONTINUOUS
 62
    7
 10
6.5379443783263582
 20
18.266717866318615
 40
0.4044454614261525
 50
96.566954860770295
 51
250.46689775343683
  0
ARC
  8
_0-0_
  6
CONTINUOUS
 62
    7
 10
6.5350645459929808
 20
18.21586046922927
 40
0.3558391637903439
 50
248.16533701795476
 51
331.43241569109983
  0
ARC
  8
_0-0_
  6
CONTINUOUS
 62
    7
 10
6.8460057011724587
 20
19.772795444677286
 40
0.4044454614261525
 50
96.566954860770295
 51
250.46689775343683
  0
ARC
  8
_0-0_
  6
CONTINUOUS
 62
    7
 10
6.8431258688390812
 20
19.72193804758794
 40
0.3558391637903439
 50
248.16533701795476
 51
331.43241569109983
  0
ARC
  8
_0-0_
  6
CONTINUOUS
 62
    7
 10
8.5061139409541795
 20
19.875482552292652
 40
0.4044454614261525
 50
96.566954860770295
 51
250.46689775343683
  0
ARC
  8
_0-0_
  6
CONTINUOUS
 62
    7
 10
8.5032341086208021
 20
19.824625155203307
 40
0.3558391637903439
 50
248.16533701795476
 51
331.43241569109983
  0
ARC
  8
_0-0_
  6
CONTINUOUS
 62
    7
 10
8.5061139409541795
 20
18.09557268695967
 40
0.4044454614261525
 50
96.566954860770295
 51
250.46689775343683
  0
ARC
  8
_0-0_
  6
CONTINUOUS
 62
    7
 10
8.5032341086208021
 20
18.044715289870325
 40
0.3558391637903439
 50
248.16533701795476
 51
331.43241569109983
  0
ARC
  8
_0-0_
  6
CONTINUOUS
 62
    7
 10
-6.4177456991454278
 20
16.247204749883124
 40
0.4044454614261525
 50
96.566954860770295
 51
250.46689775343683
  0
ARC
  8
_0-0_
  6
CONTINUOUS
 62
    7
 10
-6.4206255314788052
 20
16.196347352793779
 40
0.3558391637903439
 50
248.16533701795476
 51
331.43241569109983
  0
ARC
  8
_0-0_
  6
CONTINUOUS
 62
    7
 10
-4.911668120786743
 20
15.990486980844707
 40
0.4044454614261525
 50
96.566954860770295
 51
250.46689775343683
  0
ARC
  8
_0-0_
  6
CONTINUOUS
 62
    7
 10
-4.9145479531201204
 20
15.939629583755362
 40
0.3558391637903439
 50
248.16533701795476
 51
331.43241569109983
  0
ARC
  8
_0-0_
  6
CONTINUOUS
 62
    7
 10
-6.1439134121711163
 20
14.569981992165509
 40
0.4044454614261525
 50
96.566954860770295
 51
250.46689775343683
  0
ARC
  8
_0-0_
  6
CONTINUOUS
 62
    7
 10
-6.1467932445044937
 20
14.519124595076164
 40
0.3558391637903439
 50
248.16533701795476
 51
331.43241569109983
  0
ARC
  8
_0-0_
  6
CONTINUOUS
 62
    7
 10
-4.9630116745944264
 20
14.587096510101404
 40
0.4044454614261525
 50
96.566954860770295
 51
250.46689775343683
  0
ARC
  8
_0-0_
  6
CONTINUOUS
 62
    7
 10
-4.9658915069278038
 20
14.536239113012059
 40
0.3558391637903439
 50
248.16533701795476
 51
331.43241569109983
  0
ARC
  8
_0-0_
  6
CONTINUOUS
 62
    7
 10
-3.165987291325564
 20
16.024716016716496
 40
0.4044454614261525
 50
96.566954860770295
 51
250.46689775343683
  0
ARC
  8
_0-0_
  6
CONTINUOUS
 62
    7
 10
-3.1688671236589414
 20
15.973858619627151
 40
0.3558391637903439
 50
248.16533701795476
 51
331.43241569109983
  0
ARC
  8
_0-0_
  6
CONTINUOUS
 62
    7
 10
-3.2344453630691277
 20
14.484409402486037
 40
0.4044454614261525
 50
96.566954860770295
 51
250.46689775343683
  0
ARC
  8
_0-0_
  6
CONTINUOUS
 62
    7
 10
-3.2373251954025051
 20
14.433552005396692
 40
0.3558391637903439
 50
248.16533701795476
 51
331.43241569109983
  0
ARC
  8
_0-0_
  6
CONTINUOUS
 62
    7
 10
-1.9679710358129796
 20
16.093174088460074
 40
0.4044454614261525
 50
96.566954860770295
 51
250.46689775343683
  0
ARC
  8
_0-0_
  6
CONTINUOUS
 62
    7
 10
-1.970850868146357
 20
16.042316691370729
 40
0.3558391637903439
 50
248.16533701795476
 51
331.43241569109983
  0
ARC
  8
_0-0_
  6
CONTINUOUS
 62
    7
 10
-1.8823984461335073
 20
14.621325545973193
 40
0.4044454614261525
 50
96.566954860770295
 51
250.46689775343683
  0
ARC
  8
_0-0_
  6
CONTINUOUS
 62
    7
 10
-1.8852782784668847
 20
14.570468148883847
 40
0.3558391637903439
 50
248.16533701795476
 51
331.43241569109983
  0
ARC
  8
_0-0_
  6
CONTINUOUS
 62
    7
 10
-0.3763208677748366
 20
14.433065848678353
 40
0.4044454614261525
 50
96.566954860770295
 51
250.46689775343683
  0
ARC
  8
_0-0_
  6
CONTINUOUS
 62
    7
 10
-0.379200700108214
 20
14.382208451589008
 40
0.3558391637903439
 50
248.16533701795476
 51
331.43241569109983
  0
ARC
  8
_0-0_
  6
CONTINUOUS
 62
    7
 10
-0.2736337601594698
 20
15.802227283549882
 40
0.4044454614261525
 50
96.566954860770295
 51
250.46689775343683
  0
ARC
  8
_0-0_
  6
CONTINUOUS
 62
    7
 10
-0.2765135924928472
 20
15.751369886460537
 40
0.3558391637903439
 50
248.16533701795476
 51
331.43241569109983
  0
ARC
  8
_0-0_
  6
CONTINUOUS
 62
    7
 10
1.1811002643915316
 20
15.802227283549882
 40
0.4044454614261525
 50
96.566954860770295
 51
250.46689775343683
  0
ARC
  8
_0-0_
  6
CONTINUOUS
 62
    7
 10
1.1782204320581542
 20
15.751369886460537
 40
0.3558391637903439
 50
248.16533701795476
 51
331.43241569109983
  0
ARC
  8
_0-0_
  6
CONTINUOUS
 62
    7
 10
1.0612986388402703
 20
14.501523920421931
 40
0.4044454614261525
 50
96.566954860770295
 51
250.46689775343683
  0
ARC
  8
_0-0_
  6
CONTINUOUS
 62
    7
 10
1.0584188065068929
 20
14.450666523332586
 40
0.3558391637903439
 50
248.16533701795476
 51
331.43241569109983
  0
ARC
  8
_0-0_
  6
CONTINUOUS
 62
    7
 10
2.6529488068784133
 20
14.501523920421931
 40
0.4044454614261525
 50
96.566954860770295
 51
250.46689775343683
  0
ARC
  8
_0-0_
  6
CONTINUOUS
 62
    7
 10
2.6500689745450359
 20
14.450666523332586
 40
0.3558391637903439
 50
248.16533701795476
 51
331.43241569109983
  0
ARC
  8
_0-0_
  6
CONTINUOUS
 62
    7
 10
2.9267810938527106
 20
16.110288606395969
 40
0.4044454614261525
 50
96.566954860770295
 51
250.46689775343683
  0
ARC
  8
_0-0_
  6
CONTINUOUS
 62
    7
 10
2.9239012615193332
 20
16.059431209306624
 40
0.3558391637903439
 50
248.16533701795476
 51
331.43241569109983
  0
ARC
  8
_0-0_
  6
CONTINUOUS
 62
    7
 10
4.4328586722113954
 20
16.041830534652391
 40
0.4044454614261525
 50
96.566954860770295
 51
250.46689775343683
  0
ARC
  8
_0-0_
  6
CONTINUOUS
 62
    7
 10
4.429978839878018
 20
15.990973137563046
 40
0.3558391637903439
 50
248.16533701795476
 51
331.43241569109983
  0
ARC
  8
_0-0_
  6
CONTINUOUS
 62
    7
 10
4.3301715645960286
 20
14.53575295629372
 40
0.4044454614261525
 50
96.566954860770295
 51
250.46689775343683
  0
ARC
  8
_0-0_
  6
CONTINUOUS
 62
    7
 10
4.3272917322626512
 20
14.484895559204375
 40
0.3558391637903439
 50
248.16533701795476
 51
331.43241569109983
  0
ARC
  8
_0-0_
  6
CONTINUOUS
 62
    7
 10
5.9047072146982771
 20
14.415951330742459
 40
0.4044454614261525
 50
96.566954860770295
 51
250.46689775343683
  0
ARC
  8
_0-0_
  6
CONTINUOUS
 62
    7
 10
5.9018273823648997
 20
14.365093933653114
 40
0.3558391637903439
 50
248.16533701795476
 51
331.43241569109983
  0
ARC
  8
_0-0_
  6
CONTINUOUS
 62
    7
 10
6.1785395016725744
 20
15.887799873229355
 40
0.4044454614261525
 50
96.566954860770295
 51
250.46689775343683
  0
ARC
  8
_0-0_
  6
CONTINUOUS
 62
    7
 10
6.175659669339197
 20
15.83694247614001
 40
0.3558391637903439
 50
248.16533701795476
 51
331.43241569109983
  0
ARC
  8
_0-0_
  6
CONTINUOUS
 62
    7
 10
8.1467090643003957
 20
15.887799873229355
 40
0.4044454614261525
 50
96.566954860770295
 51
250.46689775343683
  0
ARC
  8
_0-0_
  6
CONTINUOUS
 62
    7
 10
8.1438292319670182
 20
15.83694247614001
 40
0.3558391637903439
 50
248.16533701795476
 51
331.43241569109983
  0
ARC
  8
_0-0_
  6
CONTINUOUS
 62
    7
 10
7.6332735262235758
 20
14.433065848678353
 40
0.4044454614261525
 50
96.566954860770295
 51
250.46689775343683
  0
ARC
  8
_0-0_
  6
CONTINUOUS
 62
    7
 10
7.6303936938901984
 20
14.382208451589008
 40
0.3558391637903439
 50
248.16533701795476
 51
331.43241569109983
  0
LINE
  8
_0-0_
  6
CONTINUOUS
 62
    7
 10
-7.5412124113554313
 20
11.586996011193349
 11
9.5930015580607488
 21
10.969219473589803
  0
LINE
  8
_0-0_
  6
CONTINUOUS
 62
    7
 10
9.3386229837534103
 20
10.551311815799153
 11
-7.577552207685045
 21
11.332617436885997
  0
LINE
  8
_0-0_
  6
CONTINUOUS
 62
    7
 10
7.9758806213926334
 20
9.1158898607791343
 11
-8.1044792544645503
 21
9.9698750745252198
  0
LINE
  8
_0-0_
  6
CONTINUOUS
 62
    7
 10
-8.3043481342774612
 20
9.4429480277457287
 11
-8.6132364030792417
 21
4.3190367452692016
  0
LINE
  8
_0-0_
  6
CONTINUOUS
 62
    7
 10
-8.3588578287718889
 20
10.242423546997387
 11
-9.1765032461883607
 21
3.6104107168415993
  0
LINE
  8
_0-0_
  6
CONTINUOUS
 62
    7
 10
-8.7585955883977249
 20
2.9381244847436108
 11
8.1212398067111167
 21
0.79407650129599
  0
LINE
  8
_0-0_
  6
CONTINUOUS
 62
    7
 10
7.8850311305685779
 20
0.212639760022057
 11
-8.8131052828921526
 21
2.4475372342937334
  0
LINE
  8
_0-0_
  6
CONTINUOUS
 62
    7
 10
-9.0856537553643051
 20
2.9744642810732387
 11
-9.0856537553643051
 21
2.7019158086010719
  0
LINE
  8
_0-0_
  6
CONTINUOUS
 62
    7
 10
-8.2498384397830336
 20
3.7921096984896963
 11
7.6851622507556669
 21
1.7934209003605588
  0
LINE
  8
_0-0_
  6
CONTINUOUS
 62
    7
 10
8.0122204177222471
 20
2.2294984563160085
 11
8.9570551222923882
 21
8.4617735268459597
  0
LINE
  8
_0-0_
  6
CONTINUOUS
 62
    7
 10
8.066730112216689
 20
8.3345842396922905
 11
7.485293370942756
 21
2.5747265214474027
  0
LINE
  8
_0-0_
  6
CONTINUOUS
 62
    7
 10
7.5216331672723697
 20
2.2840081508104362
 11
7.7033321489204809
 21
2.0841392709975253
  0
LINE
  8
_0-0_
  6
CONTINUOUS
 62
    7
 10
-7.9591200691460671
 20
10.187913852502945
 11
8.0849000103814888
 21
9.2612490460976176
  0
LINE
  8
_0-0_
  6
CONTINUOUS
 62
    7
 10
8.3392785846888415
 20
9.170399555273562
 11
8.1212398067111167
 21
9.1340597589439483
  0
ARC
  8
_0-0_
  6
CONTINUOUS
 62
    7
 10
-7.6430147847180194
 20
9.4934671371291728
 40
0.6632601146250233
 50
134.087162414441
 51
184.36832822146783
  0
ARC
  8
_0-0_
  6
CONTINUOUS
 62
    7
 10
-7.7774210874981122
 20
9.9153653800309058
 40
0.3275624975157442
 50
123.69006752596945
 51
160.55996517183249
  0
ARC
  8
_0-0_
  6
CONTINUOUS
 62
    7
 10
7.5061049918903819
 20
8.4780748893838904
 40
0.5786968913773428
 50
345.64348155087106
 51
77.571522941626469
  0
ARC
  8
_0-0_
  6
CONTINUOUS
 62
    7
 10
8.0381538178301923
 20
8.1367305667667296
 40
0.8733598163376611
 50
14.32062004188664
 51
77.293238868318682
  0
ARC
  8
_0-0_
  6
CONTINUOUS
 62
    7
 10
7.5050664954162301
 20
2.3101941805185362
 40
0.5472559768303356
 50
289.21347233944243
 51
343.72412908932984
  0
LINE
  8
_0-0_
  6
CONTINUOUS
 62
    7
 10
-8.2316685416182196
 20
4.1191678654562907
 11
7.0492158149873063
 21
2.3385178453048638
  0
ARC
  8
_0-0_
  6
CONTINUOUS
 62
    7
 10
7.1892066213025316
 20
2.55160119651039
 40
0.2234621087451244
 50
252.46911760482641
 51
1.2706776868620449
  0
ARC
  8
_0-0_
  6
CONTINUOUS
 62
    7
 10
-8.2770932870302687
 20
4.4553109815052352
 40
0.3391984698710246
 50
200.37643521383015
 51
277.69605172202154
  0
ARC
  8
_0-0_
  6
CONTINUOUS
 62
    7
 10
-8.3316029815246821
 20
4.1282528145386834
 40
0.2829491311790887
 50
174.47245984834274
 51
264.47245984834558
  0
ARC
  8
_0-0_
  6
CONTINUOUS
 62
    7
 10
-6.9605258034919899
 20
10.065350388047207
 40
1.4094989735874144
 50
115.96123432367671
 51
172.78295109348085
  0
ARC
  8
_0-0_
  6
CONTINUOUS
 62
    7
 10
-7.1335772776906623
 20
10.619894274558519
 40
1.0495009152925994
 50
112.8555112116878
 51
163.68546463468061
  0
ARC
  8
_0-0_
  6
CONTINUOUS
 62
    7
 10
-8.6312208941198776
 20
3.5701773709052702
 40
0.6447597720451079
 50
189.38377181021801
 51
258.60605617927308
  0
ARC
  8
_0-0_
  6
CONTINUOUS
 62
    7
 10
-8.8638158168612193
 20
2.6664019167334914
 40
0.2246626526035913
 50
170.90473143294315
 51
283.0451365888228
  0
LINE
  8
_0-0_
  6
CONTINUOUS
 62
    7
 10
-8.9039547737162081
 20
1.539042326053206
 11
6.8856867315040091
 21
-0.8593842317017674
  0
LINE
  8
_0-0_
  6
CONTINUOUS
 62
    7
 10
-8.2861782361126473
 20
1.9024402893494141
 11
7.5579729636019977
 21
-0.2779474904278345
  0
LINE
  8
_0-0_
  6
CONTINUOUS
 62
    7
 10
7.6306525562612393
 20
-2.1494470014033027
 11
6.540458666372615
 21
-8.9631588132071869
  0
LINE
  8
_0-0_
  6
CONTINUOUS
 62
    7
 10
5.6864734526265295
 20
-8.5089113590869232
 11
6.6131382590318566
 21
-2.5128449646995108
  0
LINE
  8
_0-0_
  6
CONTINUOUS
 62
    7
 10
6.7948372406799535
 20
-2.4583352702050689
 11
7.3762739819538865
 21
-2.4401653720402692
  0
LINE
  8
_0-0_
  6
CONTINUOUS
 62
    7
 10
7.5034632691075558
 20
-2.0040878160848195
 11
-8.4315374214311305
 21
0.5942076214830649
  0
LINE
  8
_0-0_
  6
CONTINUOUS
 62
    7
 10
-8.9039547737162081
 20
0.3034892508460984
 11
6.2497402957356485
 21
-2.1857867977329164
  0
LINE
  8
_0-0_
  6
CONTINUOUS
 62
    7
 10
5.7228132489561432
 20
-9.1448577948552838
 11
5.959021925098682
 21
-9.4900858599866922
  0
LINE
  8
_0-0_
  6
CONTINUOUS
 62
    7
 10
5.0686969150229686
 20
-9.5809353508107336
 11
-9.7942797837919073
 21
-5.7470868380357558
  0
LINE
  8
_0-0_
  6
CONTINUOUS
 62
    7
 10
-9.7942797837919073
 20
-5.7470868380357558
 11
4.8688280352100577
 21
-8.9994986095368006
  0
LINE
  8
_0-0_
  6
CONTINUOUS
 62
    7
 10
-9.6307507003086243
 20
-0.2234377959333926
 11
-10.139507848923301
 21
-4.9657812169488977
  0
LINE
  8
_0-0_
  6
CONTINUOUS
 62
    7
 10
-10.430226219560268
 20
-5.4018587729043475
 11
-9.7216001911326657
 21
0.7032270104719344
  0
LINE
  8
_0-0_
  6
CONTINUOUS
 62
    7
 10
-10.030488459934446
 20
-6.7827710334299383
 11
6.4859489718781873
 21
-10.671129240699358
  0
LINE
  8
_0-0_
  6
CONTINUOUS
 62
    7
 10
6.3950994810541317
 20
-11.198056287478863
 11
-10.157677747088115
 21
-7.1643388948909603
  0
LINE
  8
_0-0_
  6
CONTINUOUS
 62
    7
 10
-10.212187441582543
 20
-6.8191108297595662
 11
-10.194017543417743
 21
-7.0553195059020908
  0
ARC
  8
_0-0_
  6
CONTINUOUS
 62
    7
 10
-8.3272876307105435
 20
0.5610475573323014
 40
1.4015429044613648
 50
104.05876273710157
 51
174.17761667087603
  0
ARC
  8
_0-0_
  6
CONTINUOUS
 62
    7
 10
-8.6004338277738128
 20
0.565279842435487
 40
1.0199697736340625
 50
107.31221251174394
 51
167.03727571747768
  0
ARC
  8
_0-0_
  6
CONTINUOUS
 62
    7
 10
-8.4930950809088444
 20
-0.715206497160679
 40
1.3108602822360362
 50
87.308415153992897
 51
144.33356879438492
  0
ARC
  8
_0-0_
  6
CONTINUOUS
 62
    7
 10
-9.0129741627050919
 20
-0.4778163702406743
 40
0.7888749588605847
 50
82.056528189407302
 51
128.45370921670704
  0
ARC
  8
_0-0_
  6
CONTINUOUS
 62
    7
 10
5.9155098005460474
 20
-2.7332745187515997
 40
0.6421768728235947
 50
13.301589791352383
 51
52.74614532024205
  0
ARC
  8
_0-0_
  6
CONTINUOUS
 62
    7
 10
5.0686969150229686
 20
-8.360661508151324
 40
0.6157760285738961
 50
258.07967918349618
 51
340.7752336228836
  0
ARC
  8
_0-0_
  6
CONTINUOUS
 62
    7
 10
5.6733734324140528
 20
-8.877175044176326
 40
0.8039389779831894
 50
247.01283911717579
 51
340.55122172926821
  0
ARC
  8
_0-0_
  6
CONTINUOUS
 62
    7
 10
-9.5489861585669615
 20
-5.1383952495146019
 40
0.6141586848874055
 50
172.34934904464049
 51
240.78075330951549
  0
ARC
  8
_0-0_
  6
CONTINUOUS
 62
    7
 10
-8.8595394670911389
 20
-5.7041856895910712
 40
1.5995181896231483
 50
169.10491306468995
 51
218.96757387116236
  0
LINE
  8
_0-0_
  6
CONTINUOUS
 62
    7
 10
-10.164853120885681
 20
-7.8986573907872497
 11
6.1821529038359841
 21
-12.435692535723945
  0
LINE
  8
_0-0_
  6
CONTINUOUS
 62
    7
 10
6.2505504185837708
 20
-11.888512417741637
 11
-9.0932920565036426
 21
-7.8302598760394631
  0
LINE
  8
_0-0_
  6
CONTINUOUS
 62
    7
 10
-9.7316688608163417
 20
-7.8530590476220681
 11
-9.3212837723296076
 21
-7.8530590476220681
  0
LINE
  8
_0-0_
  6
CONTINUOUS
 62
    7
 10
-9.9368614050597159
 20
-9.2210093425778439
 11
5.7261694721840541
 21
-13.507253600105983
  0
LINE
  8
_0-0_
  6
CONTINUOUS
 62
    7
 10
-10.233250635633468
 20
-9.403402715238613
 11
4.4722150351412466
 21
-13.57565111485377
  0
LINE
  8
_0-0_
  6
CONTINUOUS
 62
    7
 10
4.837001780462785
 20
-14.305224605496861
 11
4.2670224908978724
 21
-19.799824956902597
  0
LINE
  8
_0-0_
  6
CONTINUOUS
 62
    7
 10
5.7033703006014491
 20
-14.48761797815763
 11
4.6546084078020158
 21
-21.053779393945405
  0
LINE
  8
_0-0_
  6
CONTINUOUS
 62
    7
 10
4.0618299466545125
 20
-20.757390163371653
 11
4.2670224908978724
 21
-21.167775251858387
  0
LINE
  8
_0-0_
  6
CONTINUOUS
 62
    7
 10
3.3322564560114216
 20
-20.278607560137132
 11
-11.168016670519918
 21
-15.581978214122259
  0
LINE
  8
_0-0_
  6
CONTINUOUS
 62
    7
 10
-11.555602587424062
 20
-14.601613836070612
 11
-10.894426611528758
 21
-9.5857960878993964
  0
LINE
  8
_0-0_
  6
CONTINUOUS
 62
    7
 10
-11.076819984189541
 20
-15.832769101530815
 11
3.8338382308285475
 21
-21.030980222362814
  0
LINE
  8
_0-0_
  6
CONTINUOUS
 62
    7
 10
-11.578401759006653
 20
-16.471145905843514
 11
4.7914034372975891
 21
-22.148139629910034
  0
LINE
  8
_0-0_
  6
CONTINUOUS
 62
    7
 10
4.6774075793846066
 20
-22.64972140472716
 11
-11.46440590109367
 21
-16.927129337495444
  0
LINE
  8
_0-0_
  6
CONTINUOUS
 62
    7
 10
-11.601200930589258
 20
-16.76753513641728
 11
-11.760795131667436
 21
-16.493945077426119
  0
ARC
  8
_0-0_
  6
CONTINUOUS
 62
    7
 10
-9.3979718949255613
 20
-9.5457248166330402
 40
1.857183030517753
 50
117.51830397019421
 51
158.20650648202982
  0
ARC
  8
_0-0_
  6
CONTINUOUS
 62
    7
 10
-10.144776927285506
 20
-15.5652249767043
 40
1.7991938873266269
 50
157.44830780708497
 51
200.57617139363435
  0
ARC
  8
_0-0_
  6
CONTINUOUS
 62
    7
 10
-10.3894419752814
 20
-14.933733111661866
 40
1.2125319734061524
 50
164.10319539652485
 51
217.57741551213678
  0
ARC
  8
_0-0_
  6
CONTINUOUS
 62
    7
 10
-10.412401924261843
 20
-10.043557436601347
 40
0.6647505182398857
 50
74.365392239293385
 51
136.47893039818493
  0
ARC
  8
_0-0_
  6
CONTINUOUS
 62
    7
 10
-10.004763285642682
 20
-9.7706676313843275
 40
0.5538365280842135
 50
82.957661486226201
 51
141.54038582819851
  0
ARC
  8
_0-0_
  6
CONTINUOUS
 62
    7
 10
4.2450119699045956
 20
-14.093077596965728
 40
0.5567777793600344
 50
340.11837769490705
 51
57.932834380231505
  0
ARC
  8
_0-0_
  6
CONTINUOUS
 62
    7
 10
5.2557963994513273
 20
-13.942119766275667
 40
0.4710097140362899
 50
334.40080214267914
 51
55.736174176305951
  0
ARC
  8
_0-0_
  6
CONTINUOUS
 62
    7
 10
4.1857121710059602
 20
-20.778373471730845
 40
0.4816561326723163
 50
233.94615797826174
 51
331.50255339258314
  0
ARC
  8
_0-0_
  6
CONTINUOUS
 62
    7
 10
3.5809857162023917
 20
-19.591236791359677
 40
0.7309889319578378
 50
250.10703729087075
 51
327.66513744854842
  0
LINE
  8
_0-0_
  6
CONTINUOUS
 62
    7
 10
-11.099619155772132
 20
-17.519907798642961
 11
4.7458050941324075
 21
-23.288098209039859
  0
LINE
  8
_0-0_
  6
CONTINUOUS
 62
    7
 10
4.4494158635586416
 20
-23.949274184935163
 11
-11.510004244258866
 21
-17.998690401877482
  0
LINE
  8
_0-0_
  6
CONTINUOUS
 62
    7
 10
-10.871627439946167
 20
-19.04745229467693
 11
3.9022357455763341
 21
-24.701646847160845
  0
LINE
  8
_0-0_
  6
CONTINUOUS
 62
    7
 10
3.5374490002547816
 20
-24.998036077734596
 11
3.9022357455763341
 21
-24.92963856298681
  0
LINE
  8
_0-0_
  6
CONTINUOUS
 62
    7
 10
4.0390307750719074
 20
-24.92963856298681
 11
3.3094572844288166
 21
-31.700992523017959
  0
LINE
  8
_0-0_
  6
CONTINUOUS
 62
    7
 10
2.7394779948639183
 20
-32.476164356826231
 11
3.1270639117680474
 21
-32.384967670495854
  0
LINE
  8
_0-0_
  6
CONTINUOUS
 62
    7
 10
2.2150970484642016
 20
-32.156975954669889
 11
3.0586663970202608
 21
-25.636412882047296
  0
LINE
  8
_0-0_
  6
CONTINUOUS
 62
    7
 10
2.9902688822724741
 20
-24.975236906152006
 11
-11.669598445337044
 21
-19.25264483892029
  0
LINE
  8
_0-0_
  6
CONTINUOUS
 62
    7
 10
-11.851991817997813
 20
-19.161448152589912
 11
-10.985623297859149
 21
-19.093050637842111
  0
LINE
  8
_0-0_
  6
CONTINUOUS
 62
    7
 10
-12.239577734901957
 20
-19.70862827057222
 11
-12.809557024466869
 21
-25.089232764064988
  0
LINE
  8
_0-0_
  6
CONTINUOUS
 62
    7
 10
-12.148381048571565
 20
-25.682011225212491
 11
2.0327036758034183
 21
-32.17977512625248
  0
LINE
  8
_0-0_
  6
CONTINUOUS
 62
    7
 10
3.1726622549332433
 20
-33.730118793869039
 11
-13.493532171944764
 21
-26.137994656864421
  0
LINE
  8
_0-0_
  6
CONTINUOUS
 62
    7
 10
-12.37637276439753
 20
-18.249481289286038
 11
-13.265540456118799
 21
-25.978400455786243
  0
ARC
  8
_0-0_
  6
CONTINUOUS
 62
    7
 10
-11.202215427893762
 20
-20.33560548909368
 40
1.1983128331765831
 50
115.34617594194798
 51
145.85641334806127
  0
ARC
  8
_0-0_
  6
CONTINUOUS
 62
    7
 10
-11.770859201131714
 20
-18.613457185409018
 40
0.6678199657533802
 50
67.007744328529952
 51
146.97390225544243
  0
ARC
  8
_0-0_
  6
CONTINUOUS
 62
    7
 10
-10.965933104219815
 20
-18.548979497802705
 40
1.2149745431791048
 50
115.40661450551018
 51
149.38826108948922
  0
ARC
  8
_0-0_
  6
CONTINUOUS
 62
    7
 10
-11.640618606611952
 20
-24.693559242938235
 40
1.1148943370296367
 50
199.90896037622656
 51
236.18512468742648
  0
ARC
  8
_0-0_
  6
CONTINUOUS
 62
    7
 10
1.7330357028991727
 20
-31.520458995199306
 40
0.5116971346953893
 50
254.38017725050281
 51
350.011290618923
  0
ARC
  8
_0-0_
  6
CONTINUOUS
 62
    7
 10
2.9553115537354984
 20
-31.928822461282678
 40
0.3640294408632265
 50
288.17034101882632
 51
33.471642929550775
  0
ARC
  8
_0-0_
  6
CONTINUOUS
 62
    7
 10
0.751520928752754
 20
-42.601586254294631
 40
10.33706327202623
 50
80.137014536177603
 51
82.801454243922919
  0
ARC
  8
_0-0_
  6
CONTINUOUS
 62
    7
 10
2.64386580556544
 20
-25.338500229658962
 40
0.4549825904802636
 50
339.07144495028882
 51
47.713550557213054
  0
ARC
  8
_0-0_
  6
CONTINUOUS
 62
    7
 10
-7.1214044898045188
 20
9.4013145497403912
 40
0.4044454614261525
 50
96.566954860770295
 51
250.46689775343683
  0
ARC
  8
_0-0_
  6
CONTINUOUS
 62
    7
 10
-7.1242843221378962
 20
9.350457152651046
 40
0.3558391637903439
 50
248.16533701795476
 51
331.43241569109983
  0
ARC
  8
_0-0_
  6
CONTINUOUS
 62
    7
 10
-7.221065628471095
 20
8.2253131134747264
 40
0.4044454614261525
 50
96.566954860770295
 51
250.46689775343683
  0
ARC
  8
_0-0_
  6
CONTINUOUS
 62
    7
 10
-7.2239454608044724
 20
8.1744557163853813
 40
0.3558391637903439
 50
248.16533701795476
 51
331.43241569109983
  0
ARC
  8
_0-0_
  6
CONTINUOUS
 62
    7
 10
-5.5068940434058788
 20
9.2219245001405454
 40
0.4044454614261525
 50
96.566954860770295
 51
250.46689775343683
  0
ARC
  8
_0-0_
  6
CONTINUOUS
 62
    7
 10
-5.5097738757392563
 20
9.1710671030512003
 40
0.3558391637903439
 50
248.16533701795476
 51
331.43241569109983
  0
ARC
  8
_0-0_
  6
CONTINUOUS
 62
    7
 10
-5.7261485484723522
 20
8.0459230638748807
 40
0.4044454614261525
 50
96.566954860770295
 51
250.46689775343683
  0
ARC
  8
_0-0_
  6
CONTINUOUS
 62
    7
 10
-5.7290283808057296
 20
7.9950656667855355
 40
0.3558391637903439
 50
248.16533701795476
 51
331.43241569109983
  0
ARC
  8
_0-0_
  6
CONTINUOUS
 62
    7
 10
-4.3508248348735208
 20
7.8665330142750207
 40
0.4044454614261525
 50
96.566954860770295
 51
250.46689775343683
  0
ARC
  8
_0-0_
  6
CONTINUOUS
 62
    7
 10
-4.3537046672068982
 20
7.8156756171856756
 40
0.3558391637903439
 50
248.16533701795476
 51
331.43241569109983
  0
ARC
  8
_0-0_
  6
CONTINUOUS
 62
    7
 10
-4.1116381020737265
 20
9.1222633614739692
 40
0.4044454614261525
 50
96.566954860770295
 51
250.46689775343683
  0
ARC
  8
_0-0_
  6
CONTINUOUS
 62
    7
 10
-4.1145179344071039
 20
9.0714059643846241
 40
0.3558391637903439
 50
248.16533701795476
 51
331.43241569109983
  0
ARC
  8
_0-0_
  6
CONTINUOUS
 62
    7
 10
-2.5967887943416628
 20
9.1820600446739178
 40
0.4044454614261525
 50
96.566954860770295
 51
250.46689775343683
  0
ARC
  8
_0-0_
  6
CONTINUOUS
 62
    7
 10
-2.5996686266750402
 20
9.1312026475845727
 40
0.3558391637903439
 50
248.16533701795476
 51
331.43241569109983
  0
ARC
  8
_0-0_
  6
CONTINUOUS
 62
    7
 10
-2.855907754874778
 20
7.9063974697416626
 40
0.4044454614261525
 50
96.566954860770295
 51
250.46689775343683
  0
ARC
  8
_0-0_
  6
CONTINUOUS
 62
    7
 10
-2.8587875872081554
 20
7.8555400726523175
 40
0.3558391637903439
 50
248.16533701795476
 51
331.43241569109983
  0
ARC
  8
_0-0_
  6
CONTINUOUS
 62
    7
 10
-1.4008551303426771
 20
7.7668718756084445
 40
0.4044454614261525
 50
96.566954860770295
 51
250.46689775343683
  0
ARC
  8
_0-0_
  6
CONTINUOUS
 62
    7
 10
-1.4037349626760545
 20
7.7160144785190994
 40
0.3558391637903439
 50
248.16533701795476
 51
331.43241569109983
  0
ARC
  8
_0-0_
  6
CONTINUOUS
 62
    7
 10
-1.1417361698095618
 20
9.0624666782740206
 40
0.4044454614261525
 50
96.566954860770295
 51
250.46689775343683
  0
ARC
  8
_0-0_
  6
CONTINUOUS
 62
    7
 10
-1.1446160021429392
 20
9.0116092811846755
 40
0.3558391637903439
 50
248.16533701795476
 51
331.43241569109983
  0
ARC
  8
_0-0_
  6
CONTINUOUS
 62
    7
 10
0.2535197715225905
 20
8.863144400940854
 40
0.4044454614261525
 50
96.566954860770295
 51
250.46689775343683
  0
ARC
  8
_0-0_
  6
CONTINUOUS
 62
    7
 10
0.2506399391892131
 20
8.8122870038515089
 40
0.3558391637903439
 50
248.16533701795476
 51
331.43241569109983
  0
ARC
  8
_0-0_
  6
CONTINUOUS
 62
    7
 10
0.0741297219227448
 20
7.6672107369418541
 40
0.4044454614261525
 50
96.566954860770295
 51
250.46689775343683
  0
ARC
  8
_0-0_
  6
CONTINUOUS
 62
    7
 10
0.0712498895893673
 20
7.616353339852509
 40
0.3558391637903439
 50
248.16533701795476
 51
331.43241569109983
  0
ARC
  8
_0-0_
  6
CONTINUOUS
 62
    7
 10
1.7285046237880124
 20
7.3482950932087903
 40
0.4044454614261525
 50
96.566954860770295
 51
250.46689775343683
  0
ARC
  8
_0-0_
  6
CONTINUOUS
 62
    7
 10
1.725624791454635
 20
7.2974376961194451
 40
0.3558391637903439
 50
248.16533701795476
 51
331.43241569109983
  0
ARC
  8
_0-0_
  6
CONTINUOUS
 62
    7
 10
2.0274880397877695
 20
8.7834154900075845
 40
0.4044454614261525
 50
96.566954860770295
 51
250.46689775343683
  0
ARC
  8
_0-0_
  6
CONTINUOUS
 62
    7
 10
2.0246082074543921
 20
8.7325580929182394
 40
0.3558391637903439
 50
248.16533701795476
 51
331.43241569109983
  0
ARC
  8
_0-0_
  6
CONTINUOUS
 62
    7
 10
3.4626084365865495
 20
8.5442287572077902
 40
0.4044454614261525
 50
96.566954860770295
 51
250.46689775343683
  0
ARC
  8
_0-0_
  6
CONTINUOUS
 62
    7
 10
3.4597286042531721
 20
8.4933713601184451
 40
0.3558391637903439
 50
248.16533701795476
 51
331.43241569109983
  0
ARC
  8
_0-0_
  6
CONTINUOUS
 62
    7
 10
3.3031506147200247
 20
7.4280240041420598
 40
0.4044454614261525
 50
96.566954860770295
 51
250.46689775343683
  0
ARC
  8
_0-0_
  6
CONTINUOUS
 62
    7
 10
3.3002707823866473
 20
7.3771666070527147
 40
0.3558391637903439
 50
248.16533701795476
 51
331.43241569109983
  0
ARC
  8
_0-0_
  6
CONTINUOUS
 62
    7
 10
4.9575255165852923
 20
7.3482950932087903
 40
0.4044454614261525
 50
96.566954860770295
 51
250.46689775343683
  0
ARC
  8
_0-0_
  6
CONTINUOUS
 62
    7
 10
4.9546456842519149
 20
7.2974376961194451
 40
0.3558391637903439
 50
248.16533701795476
 51
331.43241569109983
  0
ARC
  8
_0-0_
  6
CONTINUOUS
 62
    7
 10
5.1767800216517799
 20
8.5840932126744178
 40
0.4044454614261525
 50
96.566954860770295
 51
250.46689775343683
  0
ARC
  8
_0-0_
  6
CONTINUOUS
 62
    7
 10
5.1739001893184025
 20
8.5332358155850727
 40
0.3558391637903439
 50
248.16533701795476
 51
331.43241569109983
  0
ARC
  8
_0-0_
  6
CONTINUOUS
 62
    7
 10
6.5521037352506113
 20
8.5641609849410969
 40
0.4044454614261525
 50
96.566954860770295
 51
250.46689775343683
  0
ARC
  8
_0-0_
  6
CONTINUOUS
 62
    7
 10
6.5492239029172339
 20
8.5133035878517518
 40
0.3558391637903439
 50
248.16533701795476
 51
331.43241569109983
  0
ARC
  8
_0-0_
  6
CONTINUOUS
 62
    7
 10
6.5919681907172532
 20
7.2087694990755864
 40
0.4044454614261525
 50
96.566954860770295
 51
250.46689775343683
  0
ARC
  8
_0-0_
  6
CONTINUOUS
 62
    7
 10
6.5890883583838757
 20
7.1579121019862413
 40
0.3558391637903439
 50
248.16533701795476
 51
331.43241569109983
  0
ARC
  8
_0-0_
  6
CONTINUOUS
 62
    7
 10
6.5122392797839836
 20
5.076021131610716
 40
0.4044454614261525
 50
96.566954860770295
 51
250.46689775343683
  0
ARC
  8
_0-0_
  6
CONTINUOUS
 62
    7
 10
6.5093594474506062
 20
5.0251637345213709
 40
0.3558391637903439
 50
248.16533701795476
 51
331.43241569109983
  0
ARC
  8
_0-0_
  6
CONTINUOUS
 62
    7
 10
6.1733914083175989
 20
3.4216462297454484
 40
0.4044454614261525
 50
96.566954860770295
 51
250.46689775343683
  0
ARC
  8
_0-0_
  6
CONTINUOUS
 62
    7
 10
6.1705115759842215
 20
3.3707888326561033
 40
0.3558391637903439
 50
248.16533701795476
 51
331.43241569109983
  0
ARC
  8
_0-0_
  6
CONTINUOUS
 62
    7
 10
5.3561700712516256
 20
5.2952756366771894
 40
0.4044454614261525
 50
96.566954860770295
 51
250.46689775343683
  0
ARC
  8
_0-0_
  6
CONTINUOUS
 62
    7
 10
5.3532902389182482
 20
5.2444182395878443
 40
0.3558391637903439
 50
248.16533701795476
 51
331.43241569109983
  0
ARC
  8
_0-0_
  6
CONTINUOUS
 62
    7
 10
4.3396264568524856
 20
3.5213073684120246
 40
0.4044454614261525
 50
96.566954860770295
 51
250.46689775343683
  0
ARC
  8
_0-0_
  6
CONTINUOUS
 62
    7
 10
4.3367466245191082
 20
3.4704499713226795
 40
0.3558391637903439
 50
248.16533701795476
 51
331.43241569109983
  0
ARC
  8
_0-0_
  6
CONTINUOUS
 62
    7
 10
2.944370515520319
 20
5.5145301417436769
 40
0.4044454614261525
 50
96.566954860770295
 51
250.46689775343683
  0
ARC
  8
_0-0_
  6
CONTINUOUS
 62
    7
 10
2.9414906831869416
 20
5.4636727446543318
 40
0.3558391637903439
 50
248.16533701795476
 51
331.43241569109983
  0
ARC
  8
_0-0_
  6
CONTINUOUS
 62
    7
 10
2.8447093768537428
 20
3.9598163785449856
 40
0.4044454614261525
 50
96.566954860770295
 51
250.46689775343683
  0
ARC
  8
_0-0_
  6
CONTINUOUS
 62
    7
 10
2.8418295445203654
 20
3.9089589814556405
 40
0.3558391637903439
 50
248.16533701795476
 51
331.43241569109983
  0
ARC
  8
_0-0_
  6
CONTINUOUS
 62
    7
 10
1.788301306987961
 20
5.7736491022767922
 40
0.4044454614261525
 50
96.566954860770295
 51
250.46689775343683
  0
ARC
  8
_0-0_
  6
CONTINUOUS
 62
    7
 10
1.7854214746545836
 20
5.7227917051874471
 40
0.3558391637903439
 50
248.16533701795476
 51
331.43241569109983
  0
ARC
  8
_0-0_
  6
CONTINUOUS
 62
    7
 10
1.4295212077882695
 20
4.059477517211576
 40
0.4044454614261525
 50
96.566954860770295
 51
250.46689775343683
  0
ARC
  8
_0-0_
  6
CONTINUOUS
 62
    7
 10
1.4266413754548921
 20
4.0086201201222309
 40
0.3558391637903439
 50
248.16533701795476
 51
331.43241569109983
  0
ARC
  8
_0-0_
  6
CONTINUOUS
 62
    7
 10
0.0143330387227962
 20
5.1158855870773436
 40
0.4044454614261525
 50
96.566954860770295
 51
250.46689775343683
  0
ARC
  8
_0-0_
  6
CONTINUOUS
 62
    7
 10
0.0114532063894188
 20
5.0650281899879985
 40
0.3558391637903439
 50
248.16533701795476
 51
331.43241569109983
  0
ARC
  8
_0-0_
  6
CONTINUOUS
 62
    7
 10
-0.224853694076998
 20
3.7604941012118189
 40
0.4044454614261525
 50
96.566954860770295
 51
250.46689775343683
  0
ARC
  8
_0-0_
  6
CONTINUOUS
 62
    7
 10
-0.2277335264103754
 20
3.7096367041224738
 40
0.3558391637903439
 50
248.16533701795476
 51
331.43241569109983
  0
ARC
  8
_0-0_
  6
CONTINUOUS
 62
    7
 10
-1.6599740908757923
 20
5.1756822702772922
 40
0.4044454614261525
 50
96.566954860770295
 51
250.46689775343683
  0
ARC
  8
_0-0_
  6
CONTINUOUS
 62
    7
 10
-1.6628539232091697
 20
5.1248248731879471
 40
0.3558391637903439
 50
248.16533701795476
 51
331.43241569109983
  0
ARC
  8
_0-0_
  6
CONTINUOUS
 62
    7
 10
-1.9190930514089075
 20
4.0196130617449342
 40
0.4044454614261525
 50
96.566954860770295
 51
250.46689775343683
  0
ARC
  8
_0-0_
  6
CONTINUOUS
 62
    7
 10
-1.9219728837422849
 20
3.968755664655589
 40
0.3558391637903439
 50
248.16533701795476
 51
331.43241569109983
  0
ARC
  8
_0-0_
  6
CONTINUOUS
 62
    7
 10
-3.2545523095411113
 20
5.3351400921438312
 40
0.4044454614261525
 50
96.566954860770295
 51
250.46689775343683
  0
ARC
  8
_0-0_
  6
CONTINUOUS
 62
    7
 10
-3.2574321418744887
 20
5.2842826950544861
 40
0.3558391637903439
 50
248.16533701795476
 51
331.43241569109983
  0
ARC
  8
_0-0_
  6
CONTINUOUS
 62
    7
 10
-3.3542134482076875
 20
4.0794097449448827
 40
0.4044454614261525
 50
96.566954860770295
 51
250.46689775343683
  0
ARC
  8
_0-0_
  6
CONTINUOUS
 62
    7
 10
-3.3570932805410649
 20
4.0285523478555376
 40
0.3558391637903439
 50
248.16533701795476
 51
331.43241569109983
  0
ARC
  8
_0-0_
  6
CONTINUOUS
 62
    7
 10
-4.7096049340732122
 20
5.5344623694769979
 40
0.4044454614261525
 50
96.566954860770295
 51
250.46689775343683
  0
ARC
  8
_0-0_
  6
CONTINUOUS
 62
    7
 10
-4.7124847664065896
 20
5.4836049723876528
 40
0.3558391637903439
 50
248.16533701795476
 51
331.43241569109983
  0
ARC
  8
_0-0_
  6
CONTINUOUS
 62
    7
 10
-4.609943795406636
 20
4.3983253886779465
 40
0.4044454614261525
 50
96.566954860770295
 51
250.46689775343683
  0
ARC
  8
_0-0_
  6
CONTINUOUS
 62
    7
 10
-4.6128236277400134
 20
4.3474679915886014
 40
0.3558391637903439
 50
248.16533701795476
 51
331.43241569109983
  0
ARC
  8
_0-0_
  6
CONTINUOUS
 62
    7
 10
-6.204522014071955
 20
5.8135135577434198
 40
0.4044454614261525
 50
96.566954860770295
 51
250.46689775343683
  0
ARC
  8
_0-0_
  6
CONTINUOUS
 62
    7
 10
-6.2074018464053324
 20
5.7626561606540747
 40
0.3558391637903439
 50
248.16533701795476
 51
331.43241569109983
  0
ARC
  8
_0-0_
  6
CONTINUOUS
 62
    7
 10
-6.1646575586053274
 20
4.5976476660111132
 40
0.4044454614261525
 50
96.566954860770295
 51
250.46689775343683
  0
ARC
  8
_0-0_
  6
CONTINUOUS
 62
    7
 10
-6.1675373909387048
 20
4.5467902689217681
 40
0.3558391637903439
 50
248.16533701795476
 51
331.43241569109983
  0
ARC
  8
_0-0_
  6
CONTINUOUS
 62
    7
 10
-7.5399812722041588
 20
4.916563309744177
 40
0.4044454614261525
 50
96.566954860770295
 51
250.46689775343683
  0
ARC
  8
_0-0_
  6
CONTINUOUS
 62
    7
 10
-7.5428611045375362
 20
4.8657059126548319
 40
0.3558391637903439
 50
248.16533701795476
 51
331.43241569109983
  0
ARC
  8
_0-0_
  6
CONTINUOUS
 62
    7
 10
-7.5399812722041588
 20
6.4513448452095474
 40
0.4044454614261525
 50
96.566954860770295
 51
250.46689775343683
  0
ARC
  8
_0-0_
  6
CONTINUOUS
 62
    7
 10
-7.5428611045375362
 20
6.4004874481202023
 40
0.3558391637903439
 50
248.16533701795476
 51
331.43241569109983
  0
ARC
  8
_0-0_
  6
CONTINUOUS
 62
    7
 10
-8.3372703815368254
 20
-0.5448670891845495
 40
0.4044454614261525
 50
96.566954860770295
 51
250.46689775343683
  0
ARC
  8
_0-0_
  6
CONTINUOUS
 62
    7
 10
-8.3401502138702028
 20
-0.5957244862738946
 40
0.3558391637903439
 50
248.16533701795476
 51
331.43241569109983
  0
ARC
  8
_0-0_
  6
CONTINUOUS
 62
    7
 10
-8.5365926588699921
 20
-1.8205296641168047
 40
0.4044454614261525
 50
96.566954860770295
 51
250.46689775343683
  0
ARC
  8
_0-0_
  6
CONTINUOUS
 62
    7
 10
-8.5394724912033695
 20
-1.8713870612061498
 40
0.3558391637903439
 50
248.16533701795476
 51
331.43241569109983
  0
ARC
  8
_0-0_
  6
CONTINUOUS
 62
    7
 10
-7.3207267671376854
 20
-2.1195130801165476
 40
0.4044454614261525
 50
96.566954860770295
 51
250.46689775343683
  0
ARC
  8
_0-0_
  6
CONTINUOUS
 62
    7
 10
-7.3236065994710629
 20
-2.1703704772058927
 40
0.3558391637903439
 50
248.16533701795476
 51
331.43241569109983
  0
ARC
  8
_0-0_
  6
CONTINUOUS
 62
    7
 10
-6.9619466679379798
 20
-0.7441893665177019
 40
0.4044454614261525
 50
96.566954860770295
 51
250.46689775343683
  0
ARC
  8
_0-0_
  6
CONTINUOUS
 62
    7
 10
-6.9648265002713572
 20
-0.795046763607047
 40
0.3558391637903439
 50
248.16533701795476
 51
331.43241569109983
  0
ARC
  8
_0-0_
  6
CONTINUOUS
 62
    7
 10
-5.5068940434058788
 20
-0.9833760993175104
 40
0.4044454614261525
 50
96.566954860770295
 51
250.46689775343683
  0
ARC
  8
_0-0_
  6
CONTINUOUS
 62
    7
 10
-5.5097738757392563
 20
-1.0342334964068556
 40
0.3558391637903439
 50
248.16533701795476
 51
331.43241569109983
  0
ARC
  8
_0-0_
  6
CONTINUOUS
 62
    7
 10
-5.785945231672315
 20
-2.3786320406496628
 40
0.4044454614261525
 50
96.566954860770295
 51
250.46689775343683
  0
ARC
  8
_0-0_
  6
CONTINUOUS
 62
    7
 10
-5.7888250640056924
 20
-2.4294894377390079
 40
0.3558391637903439
 50
248.16533701795476
 51
331.43241569109983
  0
ARC
  8
_0-0_
  6
CONTINUOUS
 62
    7
 10
-4.4305537458067903
 20
-2.5779543179828295
 40
0.4044454614261525
 50
96.566954860770295
 51
250.46689775343683
  0
ARC
  8
_0-0_
  6
CONTINUOUS
 62
    7
 10
-4.4334335781401677
 20
-2.6288117150721746
 40
0.3558391637903439
 50
248.16533701795476
 51
331.43241569109983
  0
ARC
  8
_0-0_
  6
CONTINUOUS
 62
    7
 10
-4.1315703298070332
 20
-1.2225628321173048
 40
0.4044454614261525
 50
96.566954860770295
 51
250.46689775343683
  0
ARC
  8
_0-0_
  6
CONTINUOUS
 62
    7
 10
-4.1344501621404106
 20
-1.2734202292066499
 40
0.3558391637903439
 50
248.16533701795476
 51
331.43241569109983
  0
ARC
  8
_0-0_
  6
CONTINUOUS
 62
    7
 10
-2.7562466162082018
 20
-1.4617495649170991
 40
0.4044454614261525
 50
96.566954860770295
 51
250.46689775343683
  0
ARC
  8
_0-0_
  6
CONTINUOUS
 62
    7
 10
-2.7591264485415792
 20
-1.5126069620064442
 40
0.3558391637903439
 50
248.16533701795476
 51
331.43241569109983
  0
ARC
  8
_0-0_
  6
CONTINUOUS
 62
    7
 10
-2.9555688935413684
 20
-2.5380898625162018
 40
0.4044454614261525
 50
96.566954860770295
 51
250.46689775343683
  0
ARC
  8
_0-0_
  6
CONTINUOUS
 62
    7
 10
-2.9584487258747458
 20
-2.5889472596055469
 40
0.3558391637903439
 50
248.16533701795476
 51
331.43241569109983
  0
ARC
  8
_0-0_
  6
CONTINUOUS
 62
    7
 10
-1.3410584471427285
 20
-2.8968699617158933
 40
0.4044454614261525
 50
96.566954860770295
 51
250.46689775343683
  0
ARC
  8
_0-0_
  6
CONTINUOUS
 62
    7
 10
-1.3439382794761059
 20
-2.9477273588052384
 40
0.3558391637903439
 50
248.16533701795476
 51
331.43241569109983
  0
ARC
  8
_0-0_
  6
CONTINUOUS
 62
    7
 10
-1.1218039420762409
 20
-1.7009362977169076
 40
0.4044454614261525
 50
96.566954860770295
 51
250.46689775343683
  0
ARC
  8
_0-0_
  6
CONTINUOUS
 62
    7
 10
-1.1246837744096183
 20
-1.7517936948062527
 40
0.3558391637903439
 50
248.16533701795476
 51
331.43241569109983
  0
ARC
  8
_0-0_
  6
CONTINUOUS
 62
    7
 10
0.4727742765890781
 20
-1.9201908027833809
 40
0.4044454614261525
 50
96.566954860770295
 51
250.46689775343683
  0
ARC
  8
_0-0_
  6
CONTINUOUS
 62
    7
 10
0.4698944442557007
 20
-1.9710481998727261
 40
0.3558391637903439
 50
248.16533701795476
 51
331.43241569109983
  0
ARC
  8
_0-0_
  6
CONTINUOUS
 62
    7
 10
0.1737908605893352
 20
-3.2755822886489057
 40
0.4044454614261525
 50
96.566954860770295
 51
250.46689775343683
  0
ARC
  8
_0-0_
  6
CONTINUOUS
 62
    7
 10
0.1709110282559578
 20
-3.3264396857382508
 40
0.3558391637903439
 50
248.16533701795476
 51
331.43241569109983
  0
ARC
  8
_0-0_
  6
CONTINUOUS
 62
    7
 10
1.6089112573881152
 20
-3.654294615581918
 40
0.4044454614261525
 50
96.566954860770295
 51
250.46689775343683
  0
ARC
  8
_0-0_
  6
CONTINUOUS
 62
    7
 10
1.6060314250547378
 20
-3.7051520126712632
 40
0.3558391637903439
 50
248.16533701795476
 51
331.43241569109983
  0
ARC
  8
_0-0_
  6
CONTINUOUS
 62
    7
 10
1.8082335347212819
 20
-2.4184964961162905
 40
0.4044454614261525
 50
96.566954860770295
 51
250.46689775343683
  0
ARC
  8
_0-0_
  6
CONTINUOUS
 62
    7
 10
1.8053537023879045
 20
-2.4693538932056356
 40
0.3558391637903439
 50
248.16533701795476
 51
331.43241569109983
  0
ARC
  8
_0-0_
  6
CONTINUOUS
 62
    7
 10
3.4626084365865495
 20
-2.5380898625162018
 40
0.4044454614261525
 50
96.566954860770295
 51
250.46689775343683
  0
ARC
  8
_0-0_
  6
CONTINUOUS
 62
    7
 10
3.4597286042531721
 20
-2.5889472596055469
 40
0.3558391637903439
 50
248.16533701795476
 51
331.43241569109983
  0
ARC
  8
_0-0_
  6
CONTINUOUS
 62
    7
 10
3.3828795256532942
 20
-4.1526003089148276
 40
0.4044454614261525
 50
96.566954860770295
 51
250.46689775343683
  0
ARC
  8
_0-0_
  6
CONTINUOUS
 62
    7
 10
3.3799996933199168
 20
-4.2034577060041727
 40
0.3558391637903439
 50
248.16533701795476
 51
331.43241569109983
  0
ARC
  8
_0-0_
  6
CONTINUOUS
 62
    7
 10
5.0571866552518685
 20
-2.5978865457161504
 40
0.4044454614261525
 50
96.566954860770295
 51
250.46689775343683
  0
ARC
  8
_0-0_
  6
CONTINUOUS
 62
    7
 10
5.0543068229184911
 20
-2.6487439428054955
 40
0.3558391637903439
 50
248.16533701795476
 51
331.43241569109983
  0
ARC
  8
_0-0_
  6
CONTINUOUS
 62
    7
 10
5.136915566185138
 20
-4.2123969921147761
 40
0.4044454614261525
 50
96.566954860770295
 51
250.46689775343683
  0
ARC
  8
_0-0_
  6
CONTINUOUS
 62
    7
 10
5.1340357338517606
 20
-4.2632543892041213
 40
0.3558391637903439
 50
248.16533701795476
 51
331.43241569109983
  0
ARC
  8
_0-0_
  6
CONTINUOUS
 62
    7
 10
5.3761022989849465
 20
-6.3052809041130189
 40
0.4044454614261525
 50
96.566954860770295
 51
250.46689775343683
  0
ARC
  8
_0-0_
  6
CONTINUOUS
 62
    7
 10
5.3732224666515691
 20
-6.356138301202364
 40
0.3558391637903439
 50
248.16533701795476
 51
331.43241569109983
  0
ARC
  8
_0-0_
  6
CONTINUOUS
 62
    7
 10
3.6021340307197676
 20
-5.7073140721135189
 40
0.4044454614261525
 50
96.566954860770295
 51
250.46689775343683
  0
ARC
  8
_0-0_
  6
CONTINUOUS
 62
    7
 10
3.5992541983863902
 20
-5.758171469202864
 40
0.3558391637903439
 50
248.16533701795476
 51
331.43241569109983
  0
ARC
  8
_0-0_
  6
CONTINUOUS
 62
    7
 10
4.1801686349859466
 20
-6.9231799638458256
 40
0.4044454614261525
 50
96.566954860770295
 51
250.46689775343683
  0
ARC
  8
_0-0_
  6
CONTINUOUS
 62
    7
 10
4.1772888026525692
 20
-6.9740373609351707
 40
0.3558391637903439
 50
248.16533701795476
 51
331.43241569109983
  0
ARC
  8
_0-0_
  6
CONTINUOUS
 62
    7
 10
4.3196942291191647
 20
-8.1789103110447741
 40
0.4044454614261525
 50
96.566954860770295
 51
250.46689775343683
  0
ARC
  8
_0-0_
  6
CONTINUOUS
 62
    7
 10
4.3168143967857873
 20
-8.2297677081341192
 40
0.3558391637903439
 50
248.16533701795476
 51
331.43241569109983
  0
ARC
  8
_0-0_
  6
CONTINUOUS
 62
    7
 10
2.9045060600536914
 20
-6.6441287755794036
 40
0.4044454614261525
 50
96.566954860770295
 51
250.46689775343683
  0
ARC
  8
_0-0_
  6
CONTINUOUS
 62
    7
 10
2.901626227720314
 20
-6.6949861726687487
 40
0.3558391637903439
 50
248.16533701795476
 51
331.43241569109983
  0
ARC
  8
_0-0_
  6
CONTINUOUS
 62
    7
 10
2.8447093768537428
 20
-7.8001979841117617
 40
0.4044454614261525
 50
96.566954860770295
 51
250.46689775343683
  0
ARC
  8
_0-0_
  6
CONTINUOUS
 62
    7
 10
2.8418295445203654
 20
-7.8510553812011068
 40
0.3558391637903439
 50
248.16533701795476
 51
331.43241569109983
  0
ARC
  8
_0-0_
  6
CONTINUOUS
 62
    7
 10
1.2102667027217819
 20
-7.600875706778595
 40
0.4044454614261525
 50
96.566954860770295
 51
250.46689775343683
  0
ARC
  8
_0-0_
  6
CONTINUOUS
 62
    7
 10
1.2073868703884045
 20
-7.6517331038679401
 40
0.3558391637903439
 50
248.16533701795476
 51
331.43241569109983
  0
ARC
  8
_0-0_
  6
CONTINUOUS
 62
    7
 10
1.2501311581884238
 20
-6.1258908545131732
 40
0.4044454614261525
 50
96.566954860770295
 51
250.46689775343683
  0
ARC
  8
_0-0_
  6
CONTINUOUS
 62
    7
 10
1.2472513258550464
 20
-6.1767482516025183
 40
0.3558391637903439
 50
248.16533701795476
 51
331.43241569109983
  0
ARC
  8
_0-0_
  6
CONTINUOUS
 62
    7
 10
-0.1052603276771009
 20
-5.846839666246737
 40
0.4044454614261525
 50
96.566954860770295
 51
250.46689775343683
  0
ARC
  8
_0-0_
  6
CONTINUOUS
 62
    7
 10
-0.1081401600104783
 20
-5.8976970633360821
 40
0.3558391637903439
 50
248.16533701795476
 51
331.43241569109983
  0
ARC
  8
_0-0_
  6
CONTINUOUS
 62
    7
 10
-0.3444470604768952
 20
-6.9231799638458256
 40
0.4044454614261525
 50
96.566954860770295
 51
250.46689775343683
  0
ARC
  8
_0-0_
  6
CONTINUOUS
 62
    7
 10
-0.3473268928102726
 20
-6.9740373609351707
 40
0.3558391637903439
 50
248.16533701795476
 51
331.43241569109983
  0
ARC
  8
_0-0_
  6
CONTINUOUS
 62
    7
 10
-1.9390252791422284
 20
-5.428262883847097
 40
0.4044454614261525
 50
96.566954860770295
 51
250.46689775343683
  0
ARC
  8
_0-0_
  6
CONTINUOUS
 62
    7
 10
-1.9419051114756058
 20
-5.4791202809364421
 40
0.3558391637903439
 50
248.16533701795476
 51
331.43241569109983
  0
ARC
  8
_0-0_
  6
CONTINUOUS
 62
    7
 10
-1.8592963682089589
 20
-6.6839932310460313
 40
0.4044454614261525
 50
96.566954860770295
 51
250.46689775343683
  0
ARC
  8
_0-0_
  6
CONTINUOUS
 62
    7
 10
-1.8621762005423363
 20
-6.7348506281353764
 40
0.3558391637903439
 50
248.16533701795476
 51
331.43241569109983
  0
ARC
  8
_0-0_
  6
CONTINUOUS
 62
    7
 10
-3.1548911708745351
 20
-5.3883984283804551
 40
0.4044454614261525
 50
96.566954860770295
 51
250.46689775343683
  0
ARC
  8
_0-0_
  6
CONTINUOUS
 62
    7
 10
-3.1577710032079125
 20
-5.4392558254698002
 40
0.3558391637903439
 50
248.16533701795476
 51
331.43241569109983
  0
ARC
  8
_0-0_
  6
CONTINUOUS
 62
    7
 10
-3.3143489927410599
 20
-6.4049420427795951
 40
0.4044454614261525
 50
96.566954860770295
 51
250.46689775343683
  0
ARC
  8
_0-0_
  6
CONTINUOUS
 62
    7
 10
-3.3172288250744373
 20
-6.4557994398689402
 40
0.3558391637903439
 50
248.16533701795476
 51
331.43241569109983
  0
ARC
  8
_0-0_
  6
CONTINUOUS
 62
    7
 10
-4.7295371618065332
 20
-4.9100249627808665
 40
0.4044454614261525
 50
96.566954860770295
 51
250.46689775343683
  0
ARC
  8
_0-0_
  6
CONTINUOUS
 62
    7
 10
-4.7324169941399106
 20
-4.9608823598702116
 40
0.3558391637903439
 50
248.16533701795476
 51
331.43241569109983
  0
ARC
  8
_0-0_
  6
CONTINUOUS
 62
    7
 10
-4.7893338450064817
 20
-6.0262297158465827
 40
0.4044454614261525
 50
96.566954860770295
 51
250.46689775343683
  0
ARC
  8
_0-0_
  6
CONTINUOUS
 62
    7
 10
-4.7922136773398591
 20
-6.0770871129359278
 40
0.3558391637903439
 50
248.16533701795476
 51
331.43241569109983
  0
ARC
  8
_0-0_
  6
CONTINUOUS
 62
    7
 10
-5.9254708258055189
 20
-4.7505671409143275
 40
0.4044454614261525
 50
96.566954860770295
 51
250.46689775343683
  0
ARC
  8
_0-0_
  6
CONTINUOUS
 62
    7
 10
-5.9283506581388963
 20
-4.8014245380036726
 40
0.3558391637903439
 50
248.16533701795476
 51
331.43241569109983
  0
ARC
  8
_0-0_
  6
CONTINUOUS
 62
    7
 10
-6.0450641922054302
 20
-5.6873818443802122
 40
0.4044454614261525
 50
96.566954860770295
 51
250.46689775343683
  0
ARC
  8
_0-0_
  6
CONTINUOUS
 62
    7
 10
-6.0479440245388076
 20
-5.7382392414695573
 40
0.3558391637903439
 50
248.16533701795476
 51
331.43241569109983
  0
ARC
  8
_0-0_
  6
CONTINUOUS
 62
    7
 10
-7.3406589948709922
 20
-4.1326680811815208
 40
0.4044454614261525
 50
96.566954860770295
 51
250.46689775343683
  0
ARC
  8
_0-0_
  6
CONTINUOUS
 62
    7
 10
-7.3435388272043696
 20
-4.183525478270866
 40
0.3558391637903439
 50
248.16533701795476
 51
331.43241569109983
  0
ARC
  8
_0-0_
  6
CONTINUOUS
 62
    7
 10
-7.4203879058042617
 20
-5.4083306561137761
 40
0.4044454614261525
 50
96.566954860770295
 51
250.46689775343683
  0
ARC
  8
_0-0_
  6
CONTINUOUS
 62
    7
 10
-7.4232677381376391
 20
-5.4591880532031212
 40
0.3558391637903439
 50
248.16533701795476
 51
331.43241569109983
  0
ARC
  8
_0-0_
  6
CONTINUOUS
 62
    7
 10
-8.6761182530032102
 20
-3.8934813483817123
 40
0.4044454614261525
 50
96.566954860770295
 51
250.46689775343683
  0
ARC
  8
_0-0_
  6
CONTINUOUS
 62
    7
 10
-8.6789980853365876
 20
-3.9443387454710575
 40
0.3558391637903439
 50
248.16533701795476
 51
331.43241569109983
  0
ARC
  8
_0-0_
  6
CONTINUOUS
 62
    7
 10
-8.9153049858030045
 20
-4.9299571905141732
 40
0.4044454614261525
 50
96.566954860770295
 51
250.46689775343683
  0
ARC
  8
_0-0_
  6
CONTINUOUS
 62
    7
 10
-8.9181848181363819
 20
-4.9808145876035184
 40
0.3558391637903439
 50
248.16533701795476
 51
331.43241569109983
  0
ARC
  8
_0-0_
  6
CONTINUOUS
 62
    7
 10
-9.6727296396690434
 20
-10.271794223043017
 40
0.4044454614261525
 50
96.566954860770295
 51
250.46689775343683
  0
ARC
  8
_0-0_
  6
CONTINUOUS
 62
    7
 10
-9.6756094720024208
 20
-10.322651620132362
 40
0.3558391637903439
 50
248.16533701795476
 51
331.43241569109983
  0
ARC
  8
_0-0_
  6
CONTINUOUS
 62
    7
 10
-9.9318486002021587
 20
-11.68698239210849
 40
0.4044454614261525
 50
96.566954860770295
 51
250.46689775343683
  0
ARC
  8
_0-0_
  6
CONTINUOUS
 62
    7
 10
-9.9347284325355361
 20
-11.737839789197835
 40
0.3558391637903439
 50
248.16533701795476
 51
331.43241569109983
  0
ARC
  8
_0-0_
  6
CONTINUOUS
 62
    7
 10
-8.6362537975365825
 20
-12.045762491308182
 40
0.4044454614261525
 50
96.566954860770295
 51
250.46689775343683
  0
ARC
  8
_0-0_
  6
CONTINUOUS
 62
    7
 10
-8.6391336298699599
 20
-12.096619888397527
 40
0.3558391637903439
 50
248.16533701795476
 51
331.43241569109983
  0
ARC
  8
_0-0_
  6
CONTINUOUS
 62
    7
 10
-8.4169992924700949
 20
-10.451184272642863
 40
0.4044454614261525
 50
96.566954860770295
 51
250.46689775343683
  0
ARC
  8
_0-0_
  6
CONTINUOUS
 62
    7
 10
-8.4198791248034723
 20
-10.502041669732208
 40
0.3558391637903439
 50
248.16533701795476
 51
331.43241569109983
  0
ARC
  8
_0-0_
  6
CONTINUOUS
 62
    7
 10
-7.1812011730044816
 20
-10.969422193709093
 40
0.4044454614261525
 50
96.566954860770295
 51
250.46689775343683
  0
ARC
  8
_0-0_
  6
CONTINUOUS
 62
    7
 10
-7.184081005337859
 20
-11.020279590798438
 40
0.3558391637903439
 50
248.16533701795476
 51
331.43241569109983
  0
ARC
  8
_0-0_
  6
CONTINUOUS
 62
    7
 10
-7.1612689452711606
 20
-12.424474818241194
 40
0.4044454614261525
 50
96.566954860770295
 51
250.46689775343683
  0
ARC
  8
_0-0_
  6
CONTINUOUS
 62
    7
 10
-7.1641487776045381
 20
-12.475332215330539
 40
0.3558391637903439
 50
248.16533701795476
 51
331.43241569109983
  0
ARC
  8
_0-0_
  6
CONTINUOUS
 62
    7
 10
-5.7660130039390083
 20
-12.902848283840797
 40
0.4044454614261525
 50
96.566954860770295
 51
250.46689775343683
  0
ARC
  8
_0-0_
  6
CONTINUOUS
 62
    7
 10
-5.7688928362723857
 20
-12.953705680930142
 40
0.3558391637903439
 50
248.16533701795476
 51
331.43241569109983
  0
ARC
  8
_0-0_
  6
CONTINUOUS
 62
    7
 10
-5.5068940434058931
 20
-11.447795659308682
 40
0.4044454614261525
 50
96.566954860770295
 51
250.46689775343683
  0
ARC
  8
_0-0_
  6
CONTINUOUS
 62
    7
 10
-5.5097738757392705
 20
-11.498653056398027
 40
0.3558391637903439
 50
248.16533701795476
 51
331.43241569109983
  0
ARC
  8
_0-0_
  6
CONTINUOUS
 62
    7
 10
-4.350824834873535
 20
-11.866372441708336
 40
0.4044454614261525
 50
96.566954860770295
 51
250.46689775343683
  0
ARC
  8
_0-0_
  6
CONTINUOUS
 62
    7
 10
-4.3537046672069124
 20
-11.917229838797681
 40
0.3558391637903439
 50
248.16533701795476
 51
331.43241569109983
  0
ARC
  8
_0-0_
  6
CONTINUOUS
 62
    7
 10
-4.4106215180734836
 20
-13.102170561173949
 40
0.4044454614261525
 50
96.566954860770295
 51
250.46689775343683
  0
ARC
  8
_0-0_
  6
CONTINUOUS
 62
    7
 10
-4.413501350406861
 20
-13.153027958263294
 40
0.3558391637903439
 50
248.16533701795476
 51
331.43241569109983
  0
ARC
  8
_0-0_
  6
CONTINUOUS
 62
    7
 10
-2.9954333490080103
 20
-13.72006962090677
 40
0.4044454614261525
 50
96.566954860770295
 51
250.46689775343683
  0
ARC
  8
_0-0_
  6
CONTINUOUS
 62
    7
 10
-2.9983131813413877
 20
-13.770927017996115
 40
0.3558391637903439
 50
248.16533701795476
 51
331.43241569109983
  0
ARC
  8
_0-0_
  6
CONTINUOUS
 62
    7
 10
-2.7761788439415227
 20
-12.1852880854414
 40
0.4044454614261525
 50
96.566954860770295
 51
250.46689775343683
  0
ARC
  8
_0-0_
  6
CONTINUOUS
 62
    7
 10
-2.7790586762749001
 20
-12.236145482530745
 40
0.3558391637903439
 50
248.16533701795476
 51
331.43241569109983
  0
ARC
  8
_0-0_
  6
CONTINUOUS
 62
    7
 10
-1.2812617639427941
 20
-12.70352600650763
 40
0.4044454614261525
 50
96.566954860770295
 51
250.46689775343683
  0
ARC
  8
_0-0_
  6
CONTINUOUS
 62
    7
 10
-1.2841415962761715
 20
-12.754383403596975
 40
0.3558391637903439
 50
248.16533701795476
 51
331.43241569109983
  0
ARC
  8
_0-0_
  6
CONTINUOUS
 62
    7
 10
-1.4805840412759466
 20
-14.158578631039731
 40
0.4044454614261525
 50
96.566954860770295
 51
250.46689775343683
  0
ARC
  8
_0-0_
  6
CONTINUOUS
 62
    7
 10
-1.483463873609324
 20
-14.209436028129076
 40
0.3558391637903439
 50
248.16533701795476
 51
331.43241569109983
  0
ARC
  8
_0-0_
  6
CONTINUOUS
 62
    7
 10
0.0541974941894238
 20
-14.716681007572589
 40
0.4044454614261525
 50
96.566954860770295
 51
250.46689775343683
  0
ARC
  8
_0-0_
  6
CONTINUOUS
 62
    7
 10
0.0513176618560464
 20
-14.767538404661934
 40
0.3558391637903439
 50
248.16533701795476
 51
331.43241569109983
  0
ARC
  8
_0-0_
  6
CONTINUOUS
 62
    7
 10
0.3133164547225391
 20
-13.281560610773809
 40
0.4044454614261525
 50
96.566954860770295
 51
250.46689775343683
  0
ARC
  8
_0-0_
  6
CONTINUOUS
 62
    7
 10
0.3104366223891617
 20
-13.332418007863154
 40
0.3558391637903439
 50
248.16533701795476
 51
331.43241569109983
  0
ARC
  8
_0-0_
  6
CONTINUOUS
 62
    7
 10
1.7085723960546915
 20
-13.441018432640334
 40
0.4044454614261525
 50
96.566954860770295
 51
250.46689775343683
  0
ARC
  8
_0-0_
  6
CONTINUOUS
 62
    7
 10
1.7056925637213141
 20
-13.491875829729679
 40
0.3558391637903439
 50
248.16533701795476
 51
331.43241569109983
  0
ARC
  8
_0-0_
  6
CONTINUOUS
 62
    7
 10
1.6886401683213705
 20
-14.935935512639077
 40
0.4044454614261525
 50
96.566954860770295
 51
250.46689775343683
  0
ARC
  8
_0-0_
  6
CONTINUOUS
 62
    7
 10
1.6857603359879931
 20
-14.986792909728422
 40
0.3558391637903439
 50
248.16533701795476
 51
331.43241569109983
  0
ARC
  8
_0-0_
  6
CONTINUOUS
 62
    7
 10
3.2832183869866896
 20
-13.979188581439885
 40
0.4044454614261525
 50
96.566954860770295
 51
250.46689775343683
  0
ARC
  8
_0-0_
  6
CONTINUOUS
 62
    7
 10
3.2803385546533121
 20
-14.03004597852923
 40
0.3558391637903439
 50
248.16533701795476
 51
331.43241569109983
  0
ARC
  8
_0-0_
  6
CONTINUOUS
 62
    7
 10
3.4426762088532286
 20
-15.653495711038474
 40
0.4044454614261525
 50
96.566954860770295
 51
250.46689775343683
  0
ARC
  8
_0-0_
  6
CONTINUOUS
 62
    7
 10
3.4397963765198512
 20
-15.704353108127819
 40
0.3558391637903439
 50
248.16533701795476
 51
331.43241569109983
  0
ARC
  8
_0-0_
  6
CONTINUOUS
 62
    7
 10
3.1237605651201648
 20
-17.905837444903241
 40
0.4044454614261525
 50
96.566954860770295
 51
250.46689775343683
  0
ARC
  8
_0-0_
  6
CONTINUOUS
 62
    7
 10
3.1208807327867873
 20
-17.956694841992586
 40
0.3558391637903439
 50
248.16533701795476
 51
331.43241569109983
  0
ARC
  8
_0-0_
  6
CONTINUOUS
 62
    7
 10
2.9045060600536772
 20
-19.520347891301867
 40
0.4044454614261525
 50
96.566954860770295
 51
250.46689775343683
  0
ARC
  8
_0-0_
  6
CONTINUOUS
 62
    7
 10
2.9016262277202998
 20
-19.571205288391212
 40
0.3558391637903439
 50
248.16533701795476
 51
331.43241569109983
  0
ARC
  8
_0-0_
  6
CONTINUOUS
 62
    7
 10
1.5291823464548457
 20
-17.547057345703536
 40
0.4044454614261525
 50
96.566954860770295
 51
250.46689775343683
  0
ARC
  8
_0-0_
  6
CONTINUOUS
 62
    7
 10
1.5263025141214683
 20
-17.597914742792881
 40
0.3558391637903439
 50
248.16533701795476
 51
331.43241569109983
  0
ARC
  8
_0-0_
  6
CONTINUOUS
 62
    7
 10
1.2301989304550887
 20
-19.081838881168906
 40
0.4044454614261525
 50
96.566954860770295
 51
250.46689775343683
  0
ARC
  8
_0-0_
  6
CONTINUOUS
 62
    7
 10
1.2273190981217112
 20
-19.132696278258251
 40
0.3558391637903439
 50
248.16533701795476
 51
331.43241569109983
  0
ARC
  8
_0-0_
  6
CONTINUOUS
 62
    7
 10
0.0342652664561029
 20
-16.988954969170678
 40
0.4044454614261525
 50
96.566954860770295
 51
250.46689775343683
  0
ARC
  8
_0-0_
  6
CONTINUOUS
 62
    7
 10
0.0313854341227255
 20
-17.039812366260023
 40
0.3558391637903439
 50
248.16533701795476
 51
331.43241569109983
  0
ARC
  8
_0-0_
  6
CONTINUOUS
 62
    7
 10
-0.2248536940770122
 20
-18.244685316369612
 40
0.4044454614261525
 50
96.566954860770295
 51
250.46689775343683
  0
ARC
  8
_0-0_
  6
CONTINUOUS
 62
    7
 10
-0.2277335264103896
 20
-18.295542713458957
 40
0.3558391637903439
 50
248.16533701795476
 51
331.43241569109983
  0
ARC
  8
_0-0_
  6
CONTINUOUS
 62
    7
 10
-1.5204484967425884
 20
-16.510581503571075
 40
0.4044454614261525
 50
96.566954860770295
 51
250.46689775343683
  0
ARC
  8
_0-0_
  6
CONTINUOUS
 62
    7
 10
-1.5233283290759658
 20
-16.56143890066042
 40
0.3558391637903439
 50
248.16533701795476
 51
331.43241569109983
  0
ARC
  8
_0-0_
  6
CONTINUOUS
 62
    7
 10
-1.7596352295423827
 20
-17.826108533969972
 40
0.4044454614261525
 50
96.566954860770295
 51
250.46689775343683
  0
ARC
  8
_0-0_
  6
CONTINUOUS
 62
    7
 10
-1.7625150618757601
 20
-17.876965931059317
 40
0.3558391637903439
 50
248.16533701795476
 51
331.43241569109983
  0
ARC
  8
_0-0_
  6
CONTINUOUS
 62
    7
 10
-3.2944167650077532
 20
-16.131869176638062
 40
0.4044454614261525
 50
96.566954860770295
 51
250.46689775343683
  0
ARC
  8
_0-0_
  6
CONTINUOUS
 62
    7
 10
-3.2972965973411306
 20
-16.182726573727408
 40
0.3558391637903439
 50
248.16533701795476
 51
331.43241569109983
  0
ARC
  8
_0-0_
  6
CONTINUOUS
 62
    7
 10
-3.4738068146075989
 20
-17.268006157437114
 40
0.4044454614261525
 50
96.566954860770295
 51
250.46689775343683
  0
ARC
  8
_0-0_
  6
CONTINUOUS
 62
    7
 10
-3.4766866469409763
 20
-17.318863554526459
 40
0.3558391637903439
 50
248.16533701795476
 51
331.43241569109983
  0
ARC
  8
_0-0_
  6
CONTINUOUS
 62
    7
 10
-4.6697404786065988
 20
-15.593699027838525
 40
0.4044454614261525
 50
96.566954860770295
 51
250.46689775343683
  0
ARC
  8
_0-0_
  6
CONTINUOUS
 62
    7
 10
-4.6726203109399762
 20
-15.64455642492787
 40
0.3558391637903439
 50
248.16533701795476
 51
331.43241569109983
  0
ARC
  8
_0-0_
  6
CONTINUOUS
 62
    7
 10
-5.0285205778062902
 20
-16.94909051370405
 40
0.4044454614261525
 50
96.566954860770295
 51
250.46689775343683
  0
ARC
  8
_0-0_
  6
CONTINUOUS
 62
    7
 10
-5.0314004101396677
 20
-16.999947910793395
 40
0.3558391637903439
 50
248.16533701795476
 51
331.43241569109983
  0
ARC
  8
_0-0_
  6
CONTINUOUS
 62
    7
 10
-5.9653352812721749
 20
-15.115325562238922
 40
0.4044454614261525
 50
96.566954860770295
 51
250.46689775343683
  0
ARC
  8
_0-0_
  6
CONTINUOUS
 62
    7
 10
-5.9682151136055523
 20
-15.166182959328268
 40
0.3558391637903439
 50
248.16533701795476
 51
331.43241569109983
  0
ARC
  8
_0-0_
  6
CONTINUOUS
 62
    7
 10
-6.1646575586053274
 20
-16.311259226237908
 40
0.4044454614261525
 50
96.566954860770295
 51
250.46689775343683
  0
ARC
  8
_0-0_
  6
CONTINUOUS
 62
    7
 10
-6.1675373909387048
 20
-16.362116623327253
 40
0.3558391637903439
 50
248.16533701795476
 51
331.43241569109983
  0
ARC
  8
_0-0_
  6
CONTINUOUS
 62
    7
 10
-7.4004556780709549
 20
-14.557223185706064
 40
0.4044454614261525
 50
96.566954860770295
 51
250.46689775343683
  0
ARC
  8
_0-0_
  6
CONTINUOUS
 62
    7
 10
-7.4033355104043324
 20
-14.608080582795409
 40
0.3558391637903439
 50
248.16533701795476
 51
331.43241569109983
  0
ARC
  8
_0-0_
  6
CONTINUOUS
 62
    7
 10
-7.7193713218040187
 20
-15.793021305171692
 40
0.4044454614261525
 50
96.566954860770295
 51
250.46689775343683
  0
ARC
  8
_0-0_
  6
CONTINUOUS
 62
    7
 10
-7.7222511541373962
 20
-15.843878702261037
 40
0.3558391637903439
 50
248.16533701795476
 51
331.43241569109983
  0
ARC
  8
_0-0_
  6
CONTINUOUS
 62
    7
 10
-8.5365926588700063
 20
-14.437629819306167
 40
0.4044454614261525
 50
96.566954860770295
 51
250.46689775343683
  0
ARC
  8
_0-0_
  6
CONTINUOUS
 62
    7
 10
-8.5394724912033837
 20
-14.488487216395512
 40
0.3558391637903439
 50
248.16533701795476
 51
331.43241569109983
  0
ARC
  8
_0-0_
  6
CONTINUOUS
 62
    7
 10
-8.7957116194031215
 20
-15.394376750505359
 40
0.4044454614261525
 50
96.566954860770295
 51
250.46689775343683
  0
ARC
  8
_0-0_
  6
CONTINUOUS
 62
    7
 10
-8.7985914517364989
 20
-15.445234147594704
 40
0.3558391637903439
 50
248.16533701795476
 51
331.43241569109983
  0
ARC
  8
_0-0_
  6
CONTINUOUS
 62
    7
 10
-9.294017312736031
 20
-13.580544026773552
 40
0.4044454614261525
 50
96.566954860770295
 51
250.46689775343683
  0
ARC
  8
_0-0_
  6
CONTINUOUS
 62
    7
 10
-9.2968971450694085
 20
-13.631401423862897
 40
0.3558391637903439
 50
248.16533701795476
 51
331.43241569109983
  0
ARC
  8
_0-0_
  6
CONTINUOUS
 62
    7
 10
-10.091306422068683
 20
-14.81634214623918
 40
0.4044454614261525
 50
96.566954860770295
 51
250.46689775343683
  0
ARC
  8
_0-0_
  6
CONTINUOUS
 62
    7
 10
-10.094186254402061
 20
-14.867199543328525
 40
0.3558391637903439
 50
248.16533701795476
 51
331.43241569109983
  0
ARC
  8
_0-0_
  6
CONTINUOUS
 62
    7
 10
-10.390289838068441
 20
-13.20183169984054
 40
0.4044454614261525
 50
96.566954860770295
 51
250.46689775343683
  0
ARC
  8
_0-0_
  6
CONTINUOUS
 62
    7
 10
-10.393169670401818
 20
-13.252689096929885
 40
0.3558391637903439
 50
248.16533701795476
 51
331.43241569109983
  0
ARC
  8
_0-0_
  6
CONTINUOUS
 62
    7
 10
2.0474202675210762
 20
-25.001710517963915
 40
0.4044454614261525
 50
96.566954860770295
 51
250.46689775343683
  0
ARC
  8
_0-0_
  6
CONTINUOUS
 62
    7
 10
2.0445404351876988
 20
-25.05256791505326
 40
0.3558391637903439
 50
248.16533701795476
 51
331.43241569109983
  0
ARC
  8
_0-0_
  6
CONTINUOUS
 62
    7
 10
2.0872847229877038
 20
-26.895272152628976
 40
0.4044454614261525
 50
96.566954860770295
 51
250.46689775343683
  0
ARC
  8
_0-0_
  6
CONTINUOUS
 62
    7
 10
2.0844048906543264
 20
-26.946129549718322
 40
0.3558391637903439
 50
248.16533701795476
 51
331.43241569109983
  0
ARC
  8
_0-0_
  6
CONTINUOUS
 62
    7
 10
0.4129775933891153
 20
-26.456763142496015
 40
0.4044454614261525
 50
96.566954860770295
 51
250.46689775343683
  0
ARC
  8
_0-0_
  6
CONTINUOUS
 62
    7
 10
0.4100977610557379
 20
-26.507620539585361
 40
0.3558391637903439
 50
248.16533701795476
 51
331.43241569109983
  0
ARC
  8
_0-0_
  6
CONTINUOUS
 62
    7
 10
0.4329098211224362
 20
-24.782456012897427
 40
0.4044454614261525
 50
96.566954860770295
 51
250.46689775343683
  0
ARC
  8
_0-0_
  6
CONTINUOUS
 62
    7
 10
0.4300299887890588
 20
-24.833313409986772
 40
0.3558391637903439
 50
248.16533701795476
 51
331.43241569109983
  0
ARC
  8
_0-0_
  6
CONTINUOUS
 62
    7
 10
-1.2812617639427941
 20
-24.044963586764723
 40
0.4044454614261525
 50
96.566954860770295
 51
250.46689775343683
  0
ARC
  8
_0-0_
  6
CONTINUOUS
 62
    7
 10
-1.2841415962761715
 20
-24.095820983854068
 40
0.3558391637903439
 50
248.16533701795476
 51
331.43241569109983
  0
ARC
  8
_0-0_
  6
CONTINUOUS
 62
    7
 10
-1.4805840412759608
 20
-25.061507201163863
 40
0.4044454614261525
 50
96.566954860770295
 51
250.46689775343683
  0
ARC
  8
_0-0_
  6
CONTINUOUS
 62
    7
 10
-1.4834638736093382
 20
-25.112364598253208
 40
0.3558391637903439
 50
248.16533701795476
 51
331.43241569109983
  0
ARC
  8
_0-0_
  6
CONTINUOUS
 62
    7
 10
-2.9954333490080103
 20
-24.941913834763966
 40
0.4044454614261525
 50
96.566954860770295
 51
250.46689775343683
  0
ARC
  8
_0-0_
  6
CONTINUOUS
 62
    7
 10
-2.9983131813413877
 20
-24.992771231853311
 40
0.3558391637903439
 50
248.16533701795476
 51
331.43241569109983
  0
ARC
  8
_0-0_
  6
CONTINUOUS
 62
    7
 10
-2.7363143884748951
 20
-23.506793437965172
 40
0.4044454614261525
 50
96.566954860770295
 51
250.46689775343683
  0
ARC
  8
_0-0_
  6
CONTINUOUS
 62
    7
 10
-2.7391942208082725
 20
-23.557650835054517
 40
0.3558391637903439
 50
248.16533701795476
 51
331.43241569109983
  0
ARC
  8
_0-0_
  6
CONTINUOUS
 62
    7
 10
-4.5501471122067016
 20
-22.789233239565775
 40
0.4044454614261525
 50
96.566954860770295
 51
250.46689775343683
  0
ARC
  8
_0-0_
  6
CONTINUOUS
 62
    7
 10
-4.5530269445400791
 20
-22.84009063665512
 40
0.3558391637903439
 50
248.16533701795476
 51
331.43241569109983
  0
ARC
  8
_0-0_
  6
CONTINUOUS
 62
    7
 10
-4.7096049340732264
 20
-24.064895814498044
 40
0.4044454614261525
 50
96.566954860770295
 51
250.46689775343683
  0
ARC
  8
_0-0_
  6
CONTINUOUS
 62
    7
 10
-4.7124847664066039
 20
-24.115753211587389
 40
0.3558391637903439
 50
248.16533701795476
 51
331.43241569109983
  0
ARC
  8
_0-0_
  6
CONTINUOUS
 62
    7
 10
-5.9852675090054817
 20
-23.526725665698493
 40
0.4044454614261525
 50
96.566954860770295
 51
250.46689775343683
  0
ARC
  8
_0-0_
  6
CONTINUOUS
 62
    7
 10
-5.9881473413388591
 20
-23.577583062787838
 40
0.3558391637903439
 50
248.16533701795476
 51
331.43241569109983
  0
ARC
  8
_0-0_
  6
CONTINUOUS
 62
    7
 10
-5.8258096871389569
 20
-22.310859773966186
 40
0.4044454614261525
 50
96.566954860770295
 51
250.46689775343683
  0
ARC
  8
_0-0_
  6
CONTINUOUS
 62
    7
 10
-5.8286895194723343
 20
-22.361717171055531
 40
0.3558391637903439
 50
248.16533701795476
 51
331.43241569109983
  0
ARC
  8
_0-0_
  6
CONTINUOUS
 62
    7
 10
-7.1812011730044816
 20
-21.892282991566532
 40
0.4044454614261525
 50
96.566954860770295
 51
250.46689775343683
  0
ARC
  8
_0-0_
  6
CONTINUOUS
 62
    7
 10
-7.184081005337859
 20
-21.943140388655877
 40
0.3558391637903439
 50
248.16533701795476
 51
331.43241569109983
  0
ARC
  8
_0-0_
  6
CONTINUOUS
 62
    7
 10
-7.3007945394043787
 20
-23.068284427832211
 40
0.4044454614261525
 50
96.566954860770295
 51
250.46689775343683
  0
ARC
  8
_0-0_
  6
CONTINUOUS
 62
    7
 10
-7.3036743717377561
 20
-23.119141824921556
 40
0.3558391637903439
 50
248.16533701795476
 51
331.43241569109983
  0
ARC
  8
_0-0_
  6
CONTINUOUS
 62
    7
 10
-8.6362537975365825
 20
-22.649707645432571
 40
0.4044454614261525
 50
96.566954860770295
 51
250.46689775343683
  0
ARC
  8
_0-0_
  6
CONTINUOUS
 62
    7
 10
-8.6391336298699599
 20
-22.700565042521916
 40
0.3558391637903439
 50
248.16533701795476
 51
331.43241569109983
  0
ARC
  8
_0-0_
  6
CONTINUOUS
 62
    7
 10
-8.3372703815368396
 20
-21.334180615033674
 40
0.4044454614261525
 50
96.566954860770295
 51
250.46689775343683
  0
ARC
  8
_0-0_
  6
CONTINUOUS
 62
    7
 10
-8.340150213870217
 20
-21.385038012123019
 40
0.3558391637903439
 50
248.16533701795476
 51
331.43241569109983
  0
ARC
  8
_0-0_
  6
CONTINUOUS
 62
    7
 10
-9.7524585506023129
 20
-20.915603832634034
 40
0.4044454614261525
 50
96.566954860770295
 51
250.46689775343683
  0
ARC
  8
_0-0_
  6
CONTINUOUS
 62
    7
 10
-9.7553383829356903
 20
-20.966461229723379
 40
0.3558391637903439
 50
248.16533701795476
 51
331.43241569109983
  0
ARC
  8
_0-0_
  6
CONTINUOUS
 62
    7
 10
-9.9916452834021072
 20
-21.892282991566532
 40
0.4044454614261525
 50
96.566954860770295
 51
250.46689775343683
  0
ARC
  8
_0-0_
  6
CONTINUOUS
 62
    7
 10
-9.9945251157354846
 20
-21.943140388655877
 40
0.3558391637903439
 50
248.16533701795476
 51
331.43241569109983
  0
ARC
  8
_0-0_
  6
CONTINUOUS
 62
    7
 10
-10.96832444233462
 20
-20.5169592779677
 40
0.4044454614261525
 50
96.566954860770295
 51
250.46689775343683
  0
ARC
  8
_0-0_
  6
CONTINUOUS
 62
    7
 10
-10.971204274667997
 20
-20.567816675057045
 40
0.3558391637903439
 50
248.16533701795476
 51
331.43241569109983
  0
ARC
  8
_0-0_
  6
CONTINUOUS
 62
    7
 10
-11.087917808734517
 20
-21.692960714233379
 40
0.4044454614261525
 50
96.566954860770295
 51
250.46689775343683
  0
ARC
  8
_0-0_
  6
CONTINUOUS
 62
    7
 10
-11.090797641067894
 20
-21.743818111322724
 40
0.3558391637903439
 50
248.16533701795476
 51
331.43241569109983
  0
ARC
  8
_0-0_
  6
CONTINUOUS
 62
    7
 10
-11.406833452467581
 20
-23.466928982498544
 40
0.4044454614261525
 50
96.566954860770295
 51
250.46689775343683
  0
ARC
  8
_0-0_
  6
CONTINUOUS
 62
    7
 10
-11.409713284800958
 20
-23.517786379587889
 40
0.3558391637903439
 50
248.16533701795476
 51
331.43241569109983
  0
ARC
  8
_0-0_
  6
CONTINUOUS
 62
    7
 10
-11.626087957534068
 20
-24.902049379297324
 40
0.4044454614261525
 50
96.566954860770295
 51
250.46689775343683
  0
ARC
  8
_0-0_
  6
CONTINUOUS
 62
    7
 10
-11.628967789867446
 20
-24.952906776386669
 40
0.3558391637903439
 50
248.16533701795476
 51
331.43241569109983
  0
ARC
  8
_0-0_
  6
CONTINUOUS
 62
    7
 10
-10.29062869940185
 20
-24.124692497697993
 40
0.4044454614261525
 50
96.566954860770295
 51
250.46689775343683
  0
ARC
  8
_0-0_
  6
CONTINUOUS
 62
    7
 10
-10.293508531735228
 20
-24.175549894787338
 40
0.3558391637903439
 50
248.16533701795476
 51
331.43241569109983
  0
ARC
  8
_0-0_
  6
CONTINUOUS
 62
    7
 10
-10.37035761033512
 20
-25.440219528096875
 40
0.4044454614261525
 50
96.566954860770295
 51
250.46689775343683
  0
ARC
  8
_0-0_
  6
CONTINUOUS
 62
    7
 10
-10.373237442668497
 20
-25.491076925186221
 40
0.3558391637903439
 50
248.16533701795476
 51
331.43241569109983
  0
ARC
  8
_0-0_
  6
CONTINUOUS
 62
    7
 10
-8.7359149362031729
 20
-24.343947002764466
 40
0.4044454614261525
 50
96.566954860770295
 51
250.46689775343683
  0
ARC
  8
_0-0_
  6
CONTINUOUS
 62
    7
 10
-8.7387947685365504
 20
-24.394804399853811
 40
0.3558391637903439
 50
248.16533701795476
 51
331.43241569109983
  0
ARC
  8
_0-0_
  6
CONTINUOUS
 62
    7
 10
-8.9751016690029672
 20
-25.958457449163106
 40
0.4044454614261525
 50
96.566954860770295
 51
250.46689775343683
  0
ARC
  8
_0-0_
  6
CONTINUOUS
 62
    7
 10
-8.9779815013363446
 20
-26.009314846252451
 40
0.3558391637903439
 50
248.16533701795476
 51
331.43241569109983
  0
ARC
  8
_0-0_
  6
CONTINUOUS
 62
    7
 10
-7.699439094070712
 20
-25.420287300363555
 40
0.4044454614261525
 50
96.566954860770295
 51
250.46689775343683
  0
ARC
  8
_0-0_
  6
CONTINUOUS
 62
    7
 10
-7.7023189264040894
 20
-25.4711446974529
 40
0.3558391637903439
 50
248.16533701795476
 51
331.43241569109983
  0
ARC
  8
_0-0_
  6
CONTINUOUS
 62
    7
 10
-7.4801845890042244
 20
-26.676017647562503
 40
0.4044454614261525
 50
96.566954860770295
 51
250.46689775343683
  0
ARC
  8
_0-0_
  6
CONTINUOUS
 62
    7
 10
-7.4830644213376019
 20
-26.726875044651848
 40
0.3558391637903439
 50
248.16533701795476
 51
331.43241569109983
  0
ARC
  8
_0-0_
  6
CONTINUOUS
 62
    7
 10
-6.1447253308720207
 20
-26.018254132363055
 40
0.4044454614261525
 50
96.566954860770295
 51
250.46689775343683
  0
ARC
  8
_0-0_
  6
CONTINUOUS
 62
    7
 10
-6.1476051632053981
 20
-26.0691115294524
 40
0.3558391637903439
 50
248.16533701795476
 51
331.43241569109983
  0
ARC
  8
_0-0_
  6
CONTINUOUS
 62
    7
 10
-6.2244542418052902
 20
-27.154391113162092
 40
0.4044454614261525
 50
96.566954860770295
 51
250.46689775343683
  0
ARC
  8
_0-0_
  6
CONTINUOUS
 62
    7
 10
-6.2273340741386676
 20
-27.205248510251437
 40
0.3558391637903439
 50
248.16533701795476
 51
331.43241569109983
  0
ARC
  8
_0-0_
  6
CONTINUOUS
 62
    7
 10
-4.8491305282064445
 20
-26.735814330762452
 40
0.4044454614261525
 50
96.566954860770295
 51
250.46689775343683
  0
ARC
  8
_0-0_
  6
CONTINUOUS
 62
    7
 10
-4.8520103605398219
 20
-26.786671727851797
 40
0.3558391637903439
 50
248.16533701795476
 51
331.43241569109983
  0
ARC
  8
_0-0_
  6
CONTINUOUS
 62
    7
 10
-4.8491305282064445
 20
-28.230731410761194
 40
0.4044454614261525
 50
96.566954860770295
 51
250.46689775343683
  0
ARC
  8
_0-0_
  6
CONTINUOUS
 62
    7
 10
-4.8520103605398219
 20
-28.28158880785054
 40
0.3558391637903439
 50
248.16533701795476
 51
331.43241569109983
  0
ARC
  8
_0-0_
  6
CONTINUOUS
 62
    7
 10
-3.3143489927410741
 20
-27.174323340895413
 40
0.4044454614261525
 50
96.566954860770295
 51
250.46689775343683
  0
ARC
  8
_0-0_
  6
CONTINUOUS
 62
    7
 10
-3.3172288250744515
 20
-27.225180737984758
 40
0.3558391637903439
 50
248.16533701795476
 51
331.43241569109983
  0
ARC
  8
_0-0_
  6
CONTINUOUS
 62
    7
 10
-3.3143489927410741
 20
-28.629375965427514
 40
0.4044454614261525
 50
96.566954860770295
 51
250.46689775343683
  0
ARC
  8
_0-0_
  6
CONTINUOUS
 62
    7
 10
-3.3172288250744515
 20
-28.680233362516859
 40
0.3558391637903439
 50
248.16533701795476
 51
331.43241569109983
  0
ARC
  8
_0-0_
  6
CONTINUOUS
 62
    7
 10
-1.8393641404756522
 20
-28.051341361161334
 40
0.4044454614261525
 50
96.566954860770295
 51
250.46689775343683
  0
ARC
  8
_0-0_
  6
CONTINUOUS
 62
    7
 10
-1.8422439728090296
 20
-28.10219875825068
 40
0.3558391637903439
 50
248.16533701795476
 51
331.43241569109983
  0
ARC
  8
_0-0_
  6
CONTINUOUS
 62
    7
 10
-1.8792285959422799
 20
-29.327003936093604
 40
0.4044454614261525
 50
96.566954860770295
 51
250.46689775343683
  0
ARC
  8
_0-0_
  6
CONTINUOUS
 62
    7
 10
-1.8821084282756573
 20
-29.377861333182949
 40
0.3558391637903439
 50
248.16533701795476
 51
331.43241569109983
  0
ARC
  8
_0-0_
  6
CONTINUOUS
 62
    7
 10
-0.0853280999437942
 20
-28.709104876360783
 40
0.4044454614261525
 50
96.566954860770295
 51
250.46689775343683
  0
ARC
  8
_0-0_
  6
CONTINUOUS
 62
    7
 10
-0.0882079322771716
 20
-28.759962273450128
 40
0.3558391637903439
 50
248.16533701795476
 51
331.43241569109983
  0
ARC
  8
_0-0_
  6
CONTINUOUS
 62
    7
 10
-0.0454636444771665
 20
-30.164157500892898
 40
0.4044454614261525
 50
96.566954860770295
 51
250.46689775343683
  0
ARC
  8
_0-0_
  6
CONTINUOUS
 62
    7
 10
-0.0483434768105439
 20
-30.215014897982243
 40
0.3558391637903439
 50
248.16533701795476
 51
331.43241569109983
  0
ARC
  8
_0-0_
  6
CONTINUOUS
 62
    7
 10
1.4095889800549344
 20
-29.486461757960129
 40
0.4044454614261525
 50
96.566954860770295
 51
250.46689775343683
  0
ARC
  8
_0-0_
  6
CONTINUOUS
 62
    7
 10
1.406709147721557
 20
-29.537319155049474
 40
0.3558391637903439
 50
248.16533701795476
 51
331.43241569109983
  0
ARC
  8
_0-0_
  6
CONTINUOUS
 62
    7
 10
1.4494534355215762
 20
-30.921582154758923
 40
0.4044454614261525
 50
96.566954860770295
 51
250.46689775343683
  0
ARC
  8
_0-0_
  6
CONTINUOUS
 62
    7
 10
1.4465736031881988
 20
-30.972439551848268
 40
0.3558391637903439
 50
248.16533701795476
 51
331.43241569109983
  0
ARC
  8
_0-0_
  6
CONTINUOUS
 62
    7
 10
17.977794312526797
 20
-0.9590336684312887
 40
0.9776650413611599
 50
47.372036674843571
 51
121.34686446084258
  0
ARC
  8
_0-0_
  6
CONTINUOUS
 62
    7
 10
18.594320317266664
 20
-1.7328254349267809
 40
1.963156692874412
 50
124.96809600881878
 51
173.10439092703396
  0
ARC
  8
_0-0_
  6
CONTINUOUS
 62
    7
 10
19.447918238983689
 20
-0.9194090432168451
 40
2.8614801330615411
 50
191.64779091162055
 51
223.37621433608302
  0
ARC
  8
_0-0_
  6
CONTINUOUS
 62
    7
 10
17.896062840069405
 20
-2.1228505505973772
 40
0.9268971746307299
 50
235.27172301970069
 51
301.45512289706647
  0
ARC
  8
_0-0_
  6
CONTINUOUS
 62
    7
 10
18.182219272718029
 20
-2.4293577309960455
 40
0.522923267638513
 50
292.19350450839744
 51
331.07357416474588
  0
ARC
  8
_0-0_
  6
CONTINUOUS
 62
    7
 10
19.946148943322299
 20
-1.5373155257135522
 40
1.4460494755000062
 50
145.42262250969443
 51
197.58025973131785
  0
ARC
  8
_0-0_
  6
CONTINUOUS
 62
    7
 10
19.429696635109352
 20
-1.8270719040021106
 40
0.8745044426951385
 50
189.67778812890216
 51
254.03229694170295
  0
ARC
  8
_0-0_
  6
CONTINUOUS
 62
    7
 10
18.995210879263468
 20
-1.5559437852975861
 40
1.1286740617193229
 50
279.89287010781356
 51
323.06080859135363
  0
ARC
  8
_0-0_
  6
CONTINUOUS
 62
    7
 10
18.816976665050902
 20
-1.5414572117834808
 40
1.2833985933267456
 50
327.32976427857091
 51
15.056650332559029
  0
ARC
  8
_0-0_
  6
CONTINUOUS
 62
    7
 10
19.346203543715731
 20
-1.1847162218985403
 40
0.7104956476003011
 50
358.11687616690898
 51
64.540509568700685
  0
ARC
  8
_0-0_
  6
CONTINUOUS
 62
    7
 10
19.335749493756836
 20
-1.3128243387241554
 40
0.8319094387854579
 50
67.68483797568588
 51
134.22328731110957
  0
ARC
  8
_0-0_
  6
CONTINUOUS
 62
    7
 10
18.38629873168756
 20
-1.1496143975012387
 40
0.7368150169850504
 50
88.261473280369231
 51
150.69030472612096
  0
ARC
  8
_0-0_
  6
CONTINUOUS
 62
    7
 10
19.604412589768032
 20
-1.2605769087862484
 40
1.919457158799752
 50
165.77541045858808
 51
190.13377256363728
  0
ARC
  8
_0-0_
  6
CONTINUOUS
 62
    7
 10
18.621836956257454
 20
-1.583846460188866
 40
0.9070524608044267
 50
180.91300286681633
 51
224.51582183951888
  0
ARC
  8
_0-0_
  6
CONTINUOUS
 62
    7
 10
18.625450252286427
 20
-1.8440037742835216
 40
0.7511485395744688
 50
210.01836742760497
 51
258.90627698844753
  0
LINE
  8
_0-0_
  6
CONTINUOUS
 62
    7
 10
18.408652490541087
 20
-0.4131385467635482
 11
19.463734931035532
 21
-0.4709512832289988
  0
LINE
  8
_0-0_
  6
CONTINUOUS
 62
    7
 10
19.174671248708279
 20
-2.7111948212651384
 11
18.365292938191999
 21
-2.6822884530324131
  0
ARC
  8
_0-0_
  6
CONTINUOUS
 62
    7
 10
18.108660790955128
 20
-1.1428480862969508
 40
0.8326534410502065
 50
86.261762279245076
 51
173.53390721603972
  0
ARC
  8
_0-0_
  6
CONTINUOUS
 62
    7
 10
18.350646184645427
 20
-1.61313996728191
 40
1.1059705798219228
 50
173.22532977081576
 51
250.14740560489847
  0
ENDBLK
  0
ENDSEC
  0
SECTION
  2
ENTITIES
  0
INSERT
  2
-000-3
  8
_0-0_
 10
136.54591836734693
 20
108.19897959183673
 41
1
 42
1
 50
0
  0
ENDSEC
  0
EOF
