  0
SECTION
  2
HEADER
  9
$ACADVER
  1
AC1009
  9
$INSBASE
 10
0
 20
0
 30
0
  9
$EXTMIN
 10
0
 20
0
  9
$EXTMAX
 10
297
 20
210
  9
$LIMMIN
 10
0
 20
0
  9
$LIMMAX
 10
297
 20
210
  9
$LTSCALE
 40
1
  0
ENDSEC
  0
SECTION
  2
TABLES
  0
TABLE
  2
LTYPE
 70
     9
  0
LTYPE
  2
CONTINUOUS
 70
    64
  3
実線
 72
    65
 73
     0
 40
0.0
  0
LTYPE
  2
DASHED1
 70
    64
  3
--  --  --  --  --  --  --  --  
 72
    65
 73
     2
 40
2.5
 49
1.25
 49
-1.25
  0
LTYPE
  2
DASHED2
 70
    64
  3
----    ----    ----    ----    
 72
    65
 73
     2
 40
5.0
 49
2.5
 49
-2.5
  0
LTYPE
  2
DASHED3
 70
    64
  3
------  ------  ------  ------  
 72
    65
 73
     2
 40
5.0
 49
3.75
 49
-1.25
  0
LTYPE
  2
CENTER1
 70
    64
  3
----- - ----- - ----- - ----- - 
 72
    65
 73
     4
 40
10.0
 49
6.25
 49
-1.25
 49
1.25
 49
-1.25
  0
LTYPE
  2
CENTER2
 70
    64
  3
----------  --  ----------  --  
 72
    65
 73
     4
 40
20.0
 49
12.5
 49
-2.5
 49
2.5
 49
-2.5
  0
LTYPE
  2
PHANTOM1
 70
    64
  3
--- - - --- - - --- - - --- - - 
 72
    65
 73
     6
 40
10.0
 49
3.25
 49
-1.25
 49
1.25
 49
-1.25
 49
1.25
 49
-1.25
  0
LTYPE
  2
PHANTOM2
 70
    64
  3
--------  -  -  --------  -  -  
 72
    65
 73
     6
 40
20.0
 49
10.0
 49
-2.5
 49
1.25
 49
-2.5
 49
1.25
 49
-2.5
  0
LTYPE
  2
DOT
 70
    64
  3
-   -   -   -   -   -   -   -   
 72
    65
 73
     2
 40
2.5
 49
0.625
 49
-1.875
  0
LTYPE
  2
DUMMY
 70
    64
  3
ダミー
 72
    65
 73
     0
 40
0.0
  0
LTYPE
  2
RAND1
 70
    64
  3
ランダム線1
 72
    65
 73
     4
 40
10.0
 49
1.0
 49
-2.0
 49
3.0
 49
-4.0
  0
LTYPE
  2
RAND2
 70
    64
  3
ランダム線2
 72
    65
 73
     4
 40
14.0
 49
2.0
 49
-3.0
 49
4.0
 49
-5.0
  0
LTYPE
  2
RAND3
 70
    64
  3
ランダム線3
 72
    65
 73
     4
 40
18.0
 49
3.0
 49
-4.0
 49
5.0
 49
-6.0
  0
LTYPE
  2
RAND4
 70
    64
  3
ランダム線4
 72
    65
 73
     4
 40
22.0
 49
4.0
 49
-5.0
 49
6.0
 49
-7.0
  0
LTYPE
  2
RAND5
 70
    64
  3
ランダム線5
 72
    65
 73
     4
 40
26.0
 49
5.0
 49
-6.0
 49
7.0
 49
-8.0
  0
LTYPE
  2
LONG1
 70
    64
  3
----------  --  ----------  --  
 72
    65
 73
     4
 40
40.0
 49
32.5
 49
-2.5
 49
2.5
 49
-2.5
  0
LTYPE
  2
LONG2
 70
    64
  3
--------  -  -  --------  -  -  
 72
    65
 73
     6
 40
40.0
 49
30.0
 49
-2.5
 49
1.25
 49
-2.5
 49
1.25
 49
-2.5
  0
LTYPE
  2
LONG3
 70
    64
  3
+++++++++++++++..+++++++++++++++
 72
    65
 73
     2
 40
40.0
 49
37.5
 49
-2.5
  0
LTYPE
  2
LONG4
 70
    64
  3
+++++++++++++++..+++++++++++++++
 72
    65
 73
     2
 40
80.0
 49
75.0
 49
-5.0
  0
LTYPE
  2
LONG5
 70
    64
  3
----------  --  ----------  --  
 72
    65
 73
     4
 40
60.0
 49
37.5
 49
-7.5
 49
7.5
 49
-7.5
  0
LTYPE
  2
dashed
 70
   64
  3
-------   -------------   ------
 72
   65
 73
    2
 40
7.5
 49
6
 49
-1.5
  0
LTYPE
  2
dashed_spaced
 70
   64
  3
----        --------        ----
 72
   65
 73
    2
 40
12
 49
6
 49
-6
  0
LTYPE
  2
long_dashed_dotted
 70
   64
  3
------------- --- --------------
 72
   65
 73
    4
 40
15.25
 49
12
 49
-1.5
 49
0.25
 49
-1.5
  0
LTYPE
  2
long_dashed_double-dotted
 70
   64
  3
----------- --- --- ------------
 72
   65
 73
    6
 40
17
 49
12
 49
-1.5
 49
0.25
 49
-1.5
 49
0.25
 49
-1.5
  0
LTYPE
  2
long_dashed_triplicate-dotted
 70
   64
  3
--------- --- --- --- ----------
 72
   65
 73
    8
 40
18.75
 49
12
 49
-1.5
 49
0.25
 49
-1.5
 49
0.25
 49
-1.5
 49
0.25
 49
-1.5
  0
LTYPE
  2
dotted
 70
   64
  3
   -       -       -       -    
 72
   65
 73
    2
 40
1.75
 49
0.25
 49
-1.5
  0
LTYPE
  2
chain
 70
   64
  3
-------------- -- --------------
 72
   65
 73
    4
 40
18.5
 49
12
 49
-1.5
 49
3.5
 49
-1.5
  0
LTYPE
  2
chain_double_dash
 70
   64
  3
------------ -- -- -------------
 72
   65
 73
    6
 40
23.5
 49
12
 49
-1.5
 49
3.5
 49
-1.5
 49
3.5
 49
-1.5
  0
LTYPE
  2
dashed_dotted
 70
   64
  3
-----------     -     ----------
 72
   65
 73
    4
 40
9.25
 49
6
 49
-1.5
 49
0.25
 49
-1.5
  0
LTYPE
  2
double-dashed_dotted
 70
   64
  3
------   -----------   -   -----
 72
   65
 73
    6
 40
16.75
 49
6
 49
-1.5
 49
6
 49
-1.5
 49
0.25
 49
-1.5
  0
LTYPE
  2
dashed_double-dotted
 70
   64
  3
---------    -    -    ---------
 72
   65
 73
    6
 40
11
 49
6
 49
-1.5
 49
0.25
 49
-1.5
 49
0.25
 49
-1.5
  0
LTYPE
  2
double-dashed_double-dotted
 70
   64
  3
-----   ---------   -   -   ----
 72
   65
 73
    8
 40
18.5
 49
6
 49
-1.5
 49
6
 49
-1.5
 49
0.25
 49
-1.5
 49
0.25
 49
-1.5
  0
LTYPE
  2
dashed_triplicate-dotted
 70
   64
  3
-------    -    -    -    ------
 72
   65
 73
    8
 40
12.75
 49
6
 49
-1.5
 49
0.25
 49
-1.5
 49
0.25
 49
-1.5
 49
0.25
 49
-1.5
  0
LTYPE
  2
double-dashed_triplicate-dotted
 70
   64
  3
-----  ---------  -  -  -  -----
 72
   65
 73
   10
 40
20.25
 49
6
 49
-1.5
 49
6
 49
-1.5
 49
0.25
 49
-1.5
 49
0.25
 49
-1.5
 49
0.25
 49
-1.5
  0
LTYPE
  2
undefined
 70
   64
  3
--------------------------------
 72
   65
 73
    0
 40
0
  0
LTYPE
  2
_
 70
   64
  3
                                
 72
   65
 73
    0
 40
0
  0
LTYPE
  2
__18
 70
   64
  3
                                
 72
   65
 73
    0
 40
0
  0
LTYPE
  2
__19
 70
   64
  3
                                
 72
   65
 73
    0
 40
0
  0
LTYPE
  2
__20
 70
   64
  3
                                
 72
   65
 73
    0
 40
0
  0
LTYPE
  2
__21
 70
   64
  3
                                
 72
   65
 73
    0
 40
0
  0
LTYPE
  2
__22
 70
   64
  3
                                
 72
   65
 73
    0
 40
0
  0
LTYPE
  2
__23
 70
   64
  3
                                
 72
   65
 73
    0
 40
0
  0
LTYPE
  2
__24
 70
   64
  3
                                
 72
   65
 73
    0
 40
0
  0
LTYPE
  2
__25
 70
   64
  3
                                
 72
   65
 73
    0
 40
0
  0
LTYPE
  2
__26
 70
   64
  3
                                
 72
   65
 73
    0
 40
0
  0
LTYPE
  2
__27
 70
   64
  3
                                
 72
   65
 73
    0
 40
0
  0
LTYPE
  2
__28
 70
   64
  3
                                
 72
   65
 73
    0
 40
0
  0
LTYPE
  2
__29
 70
   64
  3
                                
 72
   65
 73
    0
 40
0
  0
LTYPE
  2
__30
 70
   64
  3
                                
 72
   65
 73
    0
 40
0
  0
LTYPE
  2
__31
 70
   64
  3
                                
 72
   65
 73
    0
 40
0
  0
LTYPE
  2
__32
 70
   64
  3
                                
 72
   65
 73
    0
 40
0
  0
ENDTAB
  0
TABLE
  2
STYLE
  5
3
100
AcDbSymbolTable
 70
     1
  0
STYLE
  5
10
100
AcDbSymbolTableRecord
100
AcDbTextStyleTableRecord
  2
STANDARD
 70
     0
 40
0.0
 41
1.0
 50
0.0
 71
     0
 42
0.2
  3
txt
  4
bigfont.shx
  0
STYLE
  5
26
100
AcDbSymbolTableRecord
100
AcDbTextStyleTableRecord
  2
TATEGAKI
 70
    68
 40
0.0
 41
1.0
 50
0.0
 71
     0
 42
1.0
  3
txt
  4
bigfont.shx
  0
ENDTAB
  0
TABLE
  2
LAYER
 70
    2
  0
LAYER
  2
_0-0_
 70
   64
 62
    7
  6
CONTINUOUS
  0
LAYER
  2
ADD_LINE
 70
   64
 62
    7
  6
CONTINUOUS
  0
ENDTAB
  0
ENDSEC
  0
SECTION
  2
BLOCKS
  0
BLOCK
  2
-001-1
 70
   64
 10
0
 20
0
 30
0
  0
LINE
  8
_0-0_
  6
CONTINUOUS
 62
    7
 10
-11.329225910858781
 20
22.514807839722323
 11
-9.9862192814554192
 21
22.804475936260275
  0
LINE
  8
_0-0_
  6
CONTINUOUS
 62
    7
 10
-9.9862192814554192
 20
22.804475936260275
 11
14.056232731196758
 21
24.911153001991039
  0
LINE
  8
_0-0_
  6
CONTINUOUS
 62
    7
 10
13.213561904904481
 20
24.832152612026135
 11
5.1555221284843071
 21
-26.307433158587841
  0
LINE
  8
_0-0_
  6
CONTINUOUS
 62
    7
 10
10.448548256132824
 20
-28.308776371032053
 11
5.3135229084141145
 21
-26.965769741628691
  0
LINE
  8
_0-0_
  6
CONTINUOUS
 62
    7
 10
5.3135229084141145
 20
-26.965769741628691
 11
4.4181851554785396
 21
-26.096765452014765
  0
LINE
  8
_0-0_
  6
CONTINUOUS
 62
    7
 10
4.4181851554785396
 20
-26.096765452014765
 11
-18.649928714273187
 21
-18.012392212272999
  0
LINE
  8
_0-0_
  6
CONTINUOUS
 62
    7
 10
-18.649928714273187
 20
-18.012392212272999
 11
-11.329225910858781
 21
22.514807839722323
  0
LINE
  8
_0-0_
  6
CONTINUOUS
 62
    7
 10
-10.328554304636697
 20
22.751809009617034
 11
-17.491256328121239
 21
-18.065059138916268
  0
LINE
  8
_0-0_
  6
CONTINUOUS
 62
    7
 10
-17.455607626073601
 20
-18.323915291975879
 11
-16.498825125387526
 21
-18.323915291975879
  0
LINE
  8
_0-0_
  6
CONTINUOUS
 62
    7
 10
-16.498825125387526
 20
-18.323915291975879
 11
-9.215562416083543
 21
22.231947033022607
  0
LINE
  8
_0-0_
  6
CONTINUOUS
 62
    7
 10
-9.215562416083543
 20
22.231947033022607
 11
-10.133292569802819
 21
22.641996676173761
  0
ARC
  8
_0-0_
  6
CONTINUOUS
 62
    7
 10
13.611835265873253
 20
-10.687098384782217
 40
17.9033494005193
 50
259.82316072968274
 51
274.11969762881756
  0
ARC
  8
_0-0_
  6
CONTINUOUS
 62
    7
 10
13.403011536790416
 20
-4.6131986694152545
 40
23.977641673900248
 50
273.57471205816711
 51
277.53123000790742
  0
ARC
  8
_0-0_
  6
CONTINUOUS
 62
    7
 10
16.06511120044479
 20
-27.171137437927044
 40
1.3045988598613869
 50
291.61477894278505
 51
338.38522105721216
  0
ARC
  8
_0-0_
  6
CONTINUOUS
 62
    7
 10
15.386396257231496
 20
7.2454457242795627
 40
17.715714736577279
 50
74.517130953101656
 51
94.306038382723955
  0
ARC
  8
_0-0_
  6
CONTINUOUS
 62
    7
 10
17.185438886129901
 20
12.748506657859139
 40
11.935039240602094
 50
58.688042094146589
 51
75.788023336982448
  0
ARC
  8
_0-0_
  6
CONTINUOUS
 62
    7
 10
20.829436233485552
 20
19.224203124264022
 40
4.5157947281791309
 50
36.337618987039768
 51
55.487104055514799
  0
LINE
  8
_0-0_
  6
CONTINUOUS
 62
    7
 10
11.762885766448676
 20
-28.383998863468548
 11
19.772348010590321
 21
24.38691523650462
  0
LINE
  8
_0-0_
  6
CONTINUOUS
 62
    7
 10
20.779251835568118
 20
24.066536746738961
 11
12.952863014149727
 21
-28.200925440745266
  0
LINE
  8
_0-0_
  6
CONTINUOUS
 62
    7
 10
17.482690191110834
 20
-4.2699036171919715
 11
31.157364972804771
 21
-21.988670665824273
  0
LINE
  8
_0-0_
  6
CONTINUOUS
 62
    7
 10
18.573654616610497
 20
-19.110781750282086
 11
30.98807738953758
 21
-22.308436100884521
  0
LINE
  8
_0-0_
  6
CONTINUOUS
 62
    7
 10
33.96001496245043
 20
-16.928852899282774
 11
31.232603898701313
 21
-22.308436100884521
  0
ARC
  8
_0-0_
  6
CONTINUOUS
 62
    7
 10
31.110340644119447
 20
-21.631919171621959
 40
0.6874761515862114
 50
259.75581750529375
 51
280.24418249470625
  0
ARC
  8
_0-0_
  6
CONTINUOUS
 62
    7
 10
30.925667029789935
 20
-22.211922184757498
 40
0.3217532867016219
 50
342.54464997040725
 51
43.93638985997336
  0
LINE
  8
_0-0_
  6
CONTINUOUS
 62
    7
 10
33.96001496245043
 20
-16.928852899282774
 11
21.731133617185378
 21
1.0447840140372477
  0
ARC
  8
_0-0_
  6
CONTINUOUS
 62
    7
 10
21.436199861094906
 20
-2.7248876590970497
 40
4.2446805558752629
 50
159.74458008762019
 51
201.34536173117766
  0
ARC
  8
_0-0_
  6
CONTINUOUS
 62
    7
 10
22.647826011663369
 20
-2.4234814403844211
 40
5.3235494982607996
 50
132.5070265864347
 51
167.3246602960152
  0
ARC
  8
_0-0_
  6
CONTINUOUS
 62
    7
 10
20.102710061323336
 20
-0.4206313874108502
 40
2.1907089208947137
 50
41.983989348735413
 51
118.69622449437885
  0
LINE
  8
_0-0_
  6
CONTINUOUS
 62
    7
 10
24.467086842762058
 20
21.90000208380502
 11
21.283748818430297
 21
1.4244575075475723
  0
LINE
  8
_0-0_
  6
CONTINUOUS
 62
    7
 10
20.231712144841282
 20
-7.8319100551755696
 11
17.277972625986223
 21
-27.651705172575575
  0
LINE
  8
_0-0_
  6
CONTINUOUS
 62
    7
 10
13.45631492663864
 20
-28.383998863468506
 11
17.29830058727012
 21
-3.6922129713613003
  0
LINE
  8
_0-0_
  6
CONTINUOUS
 62
    7
 10
17.858762599483811
 20
0.1214348499420054
 11
21.60308223782269
 21
23.883463324015736
  0
LINE
  8
_0-0_
  6
CONTINUOUS
 62
    7
 10
-8.523516868836623
 20
21.476448946058895
 11
12.857516046787708
 21
22.975943828755305
  0
LINE
  8
_0-0_
  6
CONTINUOUS
 62
    7
 10
-8.5587991013706528
 20
20.753163179111198
 11
12.751669349185619
 21
22.129170247938504
  0
LINE
  8
_0-0_
  6
CONTINUOUS
 62
    7
 10
-8.3118234736324155
 20
20.417981970037886
 11
12.681104884117531
 21
21.723424573797132
  0
LINE
  8
_0-0_
  6
CONTINUOUS
 62
    7
 10
-8.8586980779099349
 20
20.435623086304901
 11
-9.9171650539309439
 21
14.296514625383054
  0
LINE
  8
_0-0_
  6
CONTINUOUS
 62
    7
 10
-8.5940813339046827
 20
20.135724109765619
 11
-9.5290604960565872
 21
14.455284671786217
  0
LINE
  8
_0-0_
  6
CONTINUOUS
 62
    7
 10
-9.3879315659204394
 20
13.873127834974667
 11
11.428585629159357
 21
13.802563369906608
  0
LINE
  8
_0-0_
  6
CONTINUOUS
 62
    7
 10
-10.164140681669181
 20
13.043995370424881
 11
11.25217446648918
 21
12.991072021623836
  0
LINE
  8
_0-0_
  6
CONTINUOUS
 62
    7
 10
-9.8466005888628843
 20
12.585326347482436
 11
11.199251117688135
 21
12.532402998681391
  0
LINE
  8
_0-0_
  6
CONTINUOUS
 62
    7
 10
-10.234705146737241
 20
13.008713137890851
 11
-9.8466005888628843
 21
12.585326347482436
  0
ARC
  8
_0-0_
  6
CONTINUOUS
 62
    7
 10
-10.15371638569323
 20
13.630963420763777
 40
0.5870606085109539
 50
168.33705754632078
 51
268.98255896185952
  0
ARC
  8
_0-0_
  6
CONTINUOUS
 62
    7
 10
-8.5270040662383053
 20
20.501879836935785
 40
0.9745753480376665
 50
89.79498545679003
 51
162.89993096098232
  0
ARC
  8
_0-0_
  6
CONTINUOUS
 62
    7
 10
-8.4831279973832352
 20
20.381307017798605
 40
0.3794774310611966
 50
101.50238398469534
 51
171.77077009853801
  0
ARC
  8
_0-0_
  6
CONTINUOUS
 62
    7
 10
-8.2571360132047289
 20
20.081036649337932
 40
0.3413544601578176
 50
99.218926138098396
 51
170.7810738619016
  0
ARC
  8
_0-0_
  6
CONTINUOUS
 62
    7
 10
-9.0976982309287564
 20
14.251672386728274
 40
0.4770024804995639
 50
154.73167973681467
 51
232.52230998297159
  0
ARC
  8
_0-0_
  6
CONTINUOUS
 62
    7
 10
-9.4024364837399901
 20
14.397461012910981
 40
0.5245337683369487
 50
191.09578288455828
 51
271.58460060726173
  0
LINE
  8
_0-0_
  6
CONTINUOUS
 62
    7
 10
-10.252346263004256
 20
11.597423836529487
 11
11.040481071285001
 21
11.27988374372319
  0
LINE
  8
_0-0_
  6
CONTINUOUS
 62
    7
 10
-10.252346263004256
 20
10.7682913719797
 11
10.846428792347808
 21
10.221416767702181
  0
LINE
  8
_0-0_
  6
CONTINUOUS
 62
    7
 10
-9.9524472864649738
 20
10.486033511707433
 11
10.722940978478704
 21
9.7803888610267791
  0
LINE
  8
_0-0_
  6
CONTINUOUS
 62
    7
 10
-10.340551844339331
 20
10.203775651435166
 11
-11.39901882036034
 21
4.3998483995866593
  0
LINE
  8
_0-0_
  6
CONTINUOUS
 62
    7
 10
-11.734200029433651
 20
4.2057961206494667
 11
-10.516963007009508
 21
10.609521325576566
  0
LINE
  8
_0-0_
  6
CONTINUOUS
 62
    7
 10
-11.39901882036034
 20
3.5883570513038876
 11
9.5233450723215469
 21
1.7713220758011516
  0
LINE
  8
_0-0_
  6
CONTINUOUS
 62
    7
 10
-11.010914262485954
 20
2.7239423542200427
 11
9.3292927933843828
 21
0.6070084021780246
  0
ARC
  8
_0-0_
  6
CONTINUOUS
 62
    7
 10
-10.95324445862812
 20
4.1940212129229053
 40
1.4712095897872972
 50
170.56752271666215
 51
267.75349266030452
  0
ARC
  8
_0-0_
  6
CONTINUOUS
 62
    7
 10
-10.791526337846449
 20
4.3178359760898388
 40
0.9493084946516352
 50
186.77799483172788
 51
230.21328240476277
  0
ARC
  8
_0-0_
  6
CONTINUOUS
 62
    7
 10
-9.8965837516192323
 20
3.9941027254452592
 40
1.556258554311448
 50
164.88728973487505
 51
195.11271026512392
  0
ARC
  8
_0-0_
  6
CONTINUOUS
 62
    7
 10
-9.817198728417651
 20
9.8921159307176367
 40
0.60912253731303
 50
102.82878287146841
 51
149.22596389874175
  0
ARC
  8
_0-0_
  6
CONTINUOUS
 62
    7
 10
-10.254381776419706
 20
10.471784917799482
 40
0.2965134409860487
 50
89.60667130805875
 51
152.32084175608281
  0
ARC
  8
_0-0_
  6
CONTINUOUS
 62
    7
 10
-10.410150099859209
 20
10.705331911097375
 40
0.9059415292099789
 50
79.968611469444923
 51
156.38856875047239
  0
LINE
  8
_0-0_
  6
CONTINUOUS
 62
    7
 10
-11.469583285428428
 20
2.8121479355551173
 11
-11.240248773957205
 21
2.5828134240838949
  0
LINE
  8
_0-0_
  6
CONTINUOUS
 62
    7
 10
-11.240248773957205
 20
2.5828134240838949
 11
9.3469339096513693
 21
0.412956123240832
  0
LINE
  8
_0-0_
  6
CONTINUOUS
 62
    7
 10
-11.226952391208187
 20
1.548092664014689
 11
9.0603313158611058
 21
-1.2731750277327194
  0
LINE
  8
_0-0_
  6
CONTINUOUS
 62
    7
 10
-11.873044229012947
 20
0.8804644316164456
 11
8.8665037645196776
 21
-2.0269488385049499
  0
LINE
  8
_0-0_
  6
CONTINUOUS
 62
    7
 10
-11.313097969582145
 20
0.6004913019010587
 11
8.7803581861457189
 21
-2.2853855736268542
  0
LINE
  8
_0-0_
  6
CONTINUOUS
 62
    7
 10
-12.32530851547628
 20
0.6435640910880522
 11
-13.57441940189878
 21
-6.0327182328944104
  0
LINE
  8
_0-0_
  6
CONTINUOUS
 62
    7
 10
-13.315982666776904
 20
-6.0111818383009279
 11
-12.131480964134852
 21
0.4497365397466239
  0
LINE
  8
_0-0_
  6
CONTINUOUS
 62
    7
 10
-13.38059185055738
 20
-6.3342277572033083
 11
7.5097109051297082
 21
-10.835334227243095
  0
LINE
  8
_0-0_
  6
CONTINUOUS
 62
    7
 10
-12.863718380313571
 20
-7.4110474868778908
 11
7.4020289321622386
 21
-11.955226746104671
  0
ARC
  8
_0-0_
  6
CONTINUOUS
 62
    7
 10
-12.47948952222518
 20
-5.1068979971311421
 40
2.3359659001124333
 50
216.80987065940909
 51
260.53274360498114
  0
ARC
  8
_0-0_
  6
CONTINUOUS
 62
    7
 10
-13.326750864073603
 20
-6.086559219378131
 40
0.2534532628592495
 50
167.73522627211059
 51
257.73522627209803
  0
ARC
  8
_0-0_
  6
CONTINUOUS
 62
    7
 10
-12.971400353281069
 20
-6.2480821788293213
 40
0.4181611437192925
 50
145.49147701233079
 51
191.88865803963157
  0
ARC
  8
_0-0_
  6
CONTINUOUS
 62
    7
 10
-11.496157323626818
 20
-0.7024605710053037
 40
1.315748574087555
 50
82.002526528197166
 51
118.87242417403873
  0
ARC
  8
_0-0_
  6
CONTINUOUS
 62
    7
 10
-11.834169211653517
 20
0.2560915002237322
 40
0.625581988575947
 50
93.562779167080421
 51
141.72917156039171
  0
ARC
  8
_0-0_
  6
CONTINUOUS
 62
    7
 10
-11.517204254706826
 20
-0.597878533623259
 40
2.1655111464400356
 50
82.297242365440198
 51
133.74229619811297
  0
LINE
  8
_0-0_
  6
CONTINUOUS
 62
    7
 10
-13.165227904622441
 20
-8.8970587138288408
 11
7.0574466186663756
 21
-13.915038654112422
  0
LINE
  8
_0-0_
  6
CONTINUOUS
 62
    7
 10
-12.497599672224197
 20
-8.68169476789393
 11
7.1005194078533691
 21
-13.441237973055607
  0
LINE
  8
_0-0_
  6
CONTINUOUS
 62
    7
 10
-13.509810218118304
 20
-9.7800508921619951
 11
6.9066918565119408
 21
-14.884176410819563
  0
LINE
  8
_0-0_
  6
CONTINUOUS
 62
    7
 10
-15.254258180191158
 20
-16.607087978298907
 11
-14.091292872142589
 21
-9.9523420489099408
  0
LINE
  8
_0-0_
  6
CONTINUOUS
 62
    7
 10
-14.285120423484017
 20
-9.9092692597229473
 11
-15.448085731532586
 21
-16.520942399924934
  0
LINE
  8
_0-0_
  6
CONTINUOUS
 62
    7
 10
-15.297330969378123
 20
-16.843988318827314
 11
5.3776078403740257
 21
-23.843316561712157
  0
LINE
  8
_0-0_
  6
CONTINUOUS
 62
    7
 10
5.5283626025284605
 20
-23.520270642809777
 11
-15.189648996410682
 21
-16.693233556672865
  0
LINE
  8
_0-0_
  6
CONTINUOUS
 62
    7
 10
-15.103503418036695
 20
-17.813126075534441
 11
5.3560714457805148
 21
-24.640163161671353
  0
ARC
  8
_0-0_
  6
CONTINUOUS
 62
    7
 10
-14.92175370960922
 20
-16.352034494354726
 40
1.4723523916195114
 50
204.0330651133217
 51
262.90922415270825
  0
ARC
  8
_0-0_
  6
CONTINUOUS
 62
    7
 10
-15.188110682511137
 20
-16.596319781002151
 40
0.2706820564643287
 50
163.83096831239189
 51
246.2028186438119
  0
ARC
  8
_0-0_
  6
CONTINUOUS
 62
    7
 10
-15.178880799113898
 20
-16.617856175595605
 40
0.0761426532968774
 50
171.86989764588336
 51
261.86989764581983
  0
ARC
  8
_0-0_
  6
CONTINUOUS
 62
    7
 10
-13.6282603883825
 20
-10.447679124560267
 40
0.6780544959889578
 50
79.939310204678108
 51
133.06941255883305
  0
ARC
  8
_0-0_
  6
CONTINUOUS
 62
    7
 10
-13.811319742427145
 20
-10.361533546186365
 40
0.6550038703551486
 50
62.592424562170969
 51
136.33221985386712
  0
ARC
  8
_0-0_
  6
CONTINUOUS
 62
    7
 10
-13.452730017813593
 20
-11.221063310897335
 40
2.3417204855159146
 50
82.947781655006651
 51
127.80472084264549
  0
ARC
  8
_0-0_
  6
CONTINUOUS
 62
    7
 10
-12.990012932714535
 20
-11.464311049476677
 40
2.8258492864333982
 50
79.964798517638144
 51
132.19850539598863
  0
ARC
  8
_0-0_
  6
CONTINUOUS
 62
    7
 10
-6.3153749595580564
 20
19.324657119737481
 40
0.6183627120399826
 50
115.25316339457605
 51
216.67434966956981
  0
ARC
  8
_0-0_
  6
CONTINUOUS
 62
    7
 10
-6.4703964182542109
 20
19.348063825134716
 40
0.5200716735474827
 50
229.03876301391543
 51
323.64162047790052
  0
ARC
  8
_0-0_
  6
CONTINUOUS
 62
    7
 10
-6.3739983109626905
 20
19.681087096277508
 40
0.2885174310958459
 50
67.290582484199177
 51
135.32928246384432
  0
ARC
  8
_0-0_
  6
CONTINUOUS
 62
    7
 10
-4.5452552991520179
 20
19.398536754228843
 40
0.6183627120399826
 50
115.25316339457605
 51
216.67434966956981
  0
ARC
  8
_0-0_
  6
CONTINUOUS
 62
    7
 10
-4.7002767578481723
 20
19.421943459626078
 40
0.5200716735474827
 50
229.03876301391543
 51
323.64162047790052
  0
ARC
  8
_0-0_
  6
CONTINUOUS
 62
    7
 10
-4.603878650556652
 20
19.754966730768871
 40
0.2885174310958459
 50
67.290582484199177
 51
135.32928246384432
  0
ARC
  8
_0-0_
  6
CONTINUOUS
 62
    7
 10
-2.6458587136424399
 20
19.525163193262841
 40
0.6183627120399826
 50
115.25316339457605
 51
216.67434966956981
  0
ARC
  8
_0-0_
  6
CONTINUOUS
 62
    7
 10
-2.8008801723385943
 20
19.548569898660077
 40
0.5200716735474827
 50
229.03876301391543
 51
323.64162047790052
  0
ARC
  8
_0-0_
  6
CONTINUOUS
 62
    7
 10
-2.704482065047074
 20
19.881593169802869
 40
0.2885174310958459
 50
67.290582484199177
 51
135.32928246384432
  0
ARC
  8
_0-0_
  6
CONTINUOUS
 62
    7
 10
-0.5987312825932065
 20
19.630685225791126
 40
0.6183627120399826
 50
115.25316339457605
 51
216.67434966956981
  0
ARC
  8
_0-0_
  6
CONTINUOUS
 62
    7
 10
-0.7537527412893609
 20
19.654091931188361
 40
0.5200716735474827
 50
229.03876301391543
 51
323.64162047790052
  0
ARC
  8
_0-0_
  6
CONTINUOUS
 62
    7
 10
-0.6573546339978406
 20
19.987115202331154
 40
0.2885174310958459
 50
67.290582484199177
 51
135.32928246384432
  0
ARC
  8
_0-0_
  6
CONTINUOUS
 62
    7
 10
2.8623913843353819
 20
19.672894038802468
 40
0.6183627120399826
 50
115.25316339457605
 51
216.67434966956981
  0
ARC
  8
_0-0_
  6
CONTINUOUS
 62
    7
 10
2.7073699256392274
 20
19.696300744199704
 40
0.5200716735474827
 50
229.03876301391543
 51
323.64162047790052
  0
ARC
  8
_0-0_
  6
CONTINUOUS
 62
    7
 10
2.8037680329307477
 20
20.029324015342496
 40
0.2885174310958459
 50
67.290582484199177
 51
135.32928246384432
  0
ARC
  8
_0-0_
  6
CONTINUOUS
 62
    7
 10
4.6351615308109899
 20
19.736207258319439
 40
0.6183627120399826
 50
115.25316339457605
 51
216.67434966956981
  0
ARC
  8
_0-0_
  6
CONTINUOUS
 62
    7
 10
4.4801400721148354
 20
19.759613963716674
 40
0.5200716735474827
 50
229.03876301391543
 51
323.64162047790052
  0
ARC
  8
_0-0_
  6
CONTINUOUS
 62
    7
 10
4.5765381794063558
 20
20.092637234859467
 40
0.2885174310958459
 50
67.290582484199177
 51
135.32928246384432
  0
ARC
  8
_0-0_
  6
CONTINUOUS
 62
    7
 10
7.1887947179961031
 20
19.905042510364751
 40
0.6183627120399826
 50
115.25316339457605
 51
216.67434966956981
  0
ARC
  8
_0-0_
  6
CONTINUOUS
 62
    7
 10
7.0337732592999487
 20
19.928449215761987
 40
0.5200716735474827
 50
229.03876301391543
 51
323.64162047790052
  0
ARC
  8
_0-0_
  6
CONTINUOUS
 62
    7
 10
7.130171366591469
 20
20.261472486904779
 40
0.2885174310958459
 50
67.290582484199177
 51
135.32928246384432
  0
ARC
  8
_0-0_
  6
CONTINUOUS
 62
    7
 10
9.4891750271132764
 20
20.010564542893064
 40
0.6183627120399826
 50
115.25316339457605
 51
216.67434966956981
  0
ARC
  8
_0-0_
  6
CONTINUOUS
 62
    7
 10
9.334153568417122
 20
20.0339712482903
 40
0.5200716735474827
 50
229.03876301391543
 51
323.64162047790052
  0
ARC
  8
_0-0_
  6
CONTINUOUS
 62
    7
 10
9.4305516757086423
 20
20.366994519433092
 40
0.2885174310958459
 50
67.290582484199177
 51
135.32928246384432
  0
ARC
  8
_0-0_
  6
CONTINUOUS
 62
    7
 10
10.649917384924692
 20
17.414722542696609
 40
0.6183627120399826
 50
115.25316339457605
 51
216.67434966956981
  0
ARC
  8
_0-0_
  6
CONTINUOUS
 62
    7
 10
10.494895926228537
 20
17.438129248093844
 40
0.5200716735474827
 50
229.03876301391543
 51
323.64162047790052
  0
ARC
  8
_0-0_
  6
CONTINUOUS
 62
    7
 10
10.591294033520057
 20
17.771152519236637
 40
0.2885174310958459
 50
67.290582484199177
 51
135.32928246384432
  0
ARC
  8
_0-0_
  6
CONTINUOUS
 62
    7
 10
8.7294163929094566
 20
14.861089355511496
 40
0.6183627120399826
 50
115.25316339457605
 51
216.67434966956981
  0
ARC
  8
_0-0_
  6
CONTINUOUS
 62
    7
 10
8.5743949342133021
 20
14.884496060908731
 40
0.5200716735474827
 50
229.03876301391543
 51
323.64162047790052
  0
ARC
  8
_0-0_
  6
CONTINUOUS
 62
    7
 10
8.6707930415048224
 20
15.217519332051523
 40
0.2885174310958459
 50
67.290582484199177
 51
135.32928246384432
  0
ARC
  8
_0-0_
  6
CONTINUOUS
 62
    7
 10
6.513453709814911
 20
14.903298168522838
 40
0.6183627120399826
 50
115.25316339457605
 51
216.67434966956981
  0
ARC
  8
_0-0_
  6
CONTINUOUS
 62
    7
 10
6.3584322511187565
 20
14.926704873920073
 40
0.5200716735474827
 50
229.03876301391543
 51
323.64162047790052
  0
ARC
  8
_0-0_
  6
CONTINUOUS
 62
    7
 10
6.4548303584102769
 20
15.259728145062866
 40
0.2885174310958459
 50
67.290582484199177
 51
135.32928246384432
  0
ARC
  8
_0-0_
  6
CONTINUOUS
 62
    7
 10
3.9387161161241409
 20
14.861089355511496
 40
0.6183627120399826
 50
115.25316339457605
 51
216.67434966956981
  0
ARC
  8
_0-0_
  6
CONTINUOUS
 62
    7
 10
3.7836946574279864
 20
14.884496060908731
 40
0.5200716735474827
 50
229.03876301391543
 51
323.64162047790052
  0
ARC
  8
_0-0_
  6
CONTINUOUS
 62
    7
 10
3.8800927647195067
 20
15.217519332051523
 40
0.2885174310958459
 50
67.290582484199177
 51
135.32928246384432
  0
ARC
  8
_0-0_
  6
CONTINUOUS
 62
    7
 10
1.7649622460409375
 20
14.713358509971869
 40
0.6183627120399826
 50
115.25316339457605
 51
216.67434966956981
  0
ARC
  8
_0-0_
  6
CONTINUOUS
 62
    7
 10
1.6099407873447831
 20
14.736765215369104
 40
0.5200716735474827
 50
229.03876301391543
 51
323.64162047790052
  0
ARC
  8
_0-0_
  6
CONTINUOUS
 62
    7
 10
1.7063388946363034
 20
15.069788486511897
 40
0.2885174310958459
 50
67.290582484199177
 51
135.32928246384432
  0
ARC
  8
_0-0_
  6
CONTINUOUS
 62
    7
 10
-1.5273251688423386
 20
14.797776135994525
 40
0.6183627120399826
 50
115.25316339457605
 51
216.67434966956981
  0
ARC
  8
_0-0_
  6
CONTINUOUS
 62
    7
 10
-1.6823466275384931
 20
14.82118284139176
 40
0.5200716735474827
 50
229.03876301391543
 51
323.64162047790052
  0
ARC
  8
_0-0_
  6
CONTINUOUS
 62
    7
 10
-1.5859485202469727
 20
15.154206112534553
 40
0.2885174310958459
 50
67.290582484199177
 51
135.32928246384432
  0
ARC
  8
_0-0_
  6
CONTINUOUS
 62
    7
 10
-3.5111393803745727
 20
14.755567322983183
 40
0.6183627120399826
 50
115.25316339457605
 51
216.67434966956981
  0
ARC
  8
_0-0_
  6
CONTINUOUS
 62
    7
 10
-3.6661608390707272
 20
14.778974028380418
 40
0.5200716735474827
 50
229.03876301391543
 51
323.64162047790052
  0
ARC
  8
_0-0_
  6
CONTINUOUS
 62
    7
 10
-3.5697627317792069
 20
15.11199729952321
 40
0.2885174310958459
 50
67.290582484199177
 51
135.32928246384432
  0
ARC
  8
_0-0_
  6
CONTINUOUS
 62
    7
 10
-5.3894315593784938
 20
14.776671729488868
 40
0.6183627120399826
 50
115.25316339457605
 51
216.67434966956981
  0
ARC
  8
_0-0_
  6
CONTINUOUS
 62
    7
 10
-5.5444530180746483
 20
14.800078434886103
 40
0.5200716735474827
 50
229.03876301391543
 51
323.64162047790052
  0
ARC
  8
_0-0_
  6
CONTINUOUS
 62
    7
 10
-5.448054910783128
 20
15.133101706028896
 40
0.2885174310958459
 50
67.290582484199177
 51
135.32928246384432
  0
ARC
  8
_0-0_
  6
CONTINUOUS
 62
    7
 10
-7.3099325513937572
 20
14.755567322983183
 40
0.6183627120399826
 50
115.25316339457605
 51
216.67434966956981
  0
ARC
  8
_0-0_
  6
CONTINUOUS
 62
    7
 10
-7.4649540100899117
 20
14.778974028380418
 40
0.5200716735474827
 50
229.03876301391543
 51
323.64162047790052
  0
ARC
  8
_0-0_
  6
CONTINUOUS
 62
    7
 10
-7.3685559027983913
 20
15.11199729952321
 40
0.2885174310958459
 50
67.290582484199177
 51
135.32928246384432
  0
ARC
  8
_0-0_
  6
CONTINUOUS
 62
    7
 10
-8.0485867790919201
 20
17.013738819089042
 40
0.6183627120399826
 50
115.25316339457605
 51
216.67434966956981
  0
ARC
  8
_0-0_
  6
CONTINUOUS
 62
    7
 10
-8.2036082377880746
 20
17.037145524486277
 40
0.5200716735474827
 50
229.03876301391543
 51
323.64162047790052
  0
ARC
  8
_0-0_
  6
CONTINUOUS
 62
    7
 10
-8.1072101304965543
 20
17.37016879562907
 40
0.2885174310958459
 50
67.290582484199177
 51
135.32928246384432
  0
ARC
  8
_0-0_
  6
CONTINUOUS
 62
    7
 10
-8.2174220311372324
 20
9.0362731599487347
 40
0.6183627120399826
 50
115.25316339457605
 51
216.67434966956981
  0
ARC
  8
_0-0_
  6
CONTINUOUS
 62
    7
 10
-8.3724434898333868
 20
9.05967986534597
 40
0.5200716735474827
 50
229.03876301391543
 51
323.64162047790052
  0
ARC
  8
_0-0_
  6
CONTINUOUS
 62
    7
 10
-8.2760453825418665
 20
9.3927031364887625
 40
0.2885174310958459
 50
67.290582484199177
 51
135.32928246384432
  0
ARC
  8
_0-0_
  6
CONTINUOUS
 62
    7
 10
-6.4446518846616243
 20
8.9940643469374209
 40
0.6183627120399826
 50
115.25316339457605
 51
216.67434966956981
  0
ARC
  8
_0-0_
  6
CONTINUOUS
 62
    7
 10
-6.5996733433577788
 20
9.0174710523346562
 40
0.5200716735474827
 50
229.03876301391543
 51
323.64162047790052
  0
ARC
  8
_0-0_
  6
CONTINUOUS
 62
    7
 10
-6.5032752360662585
 20
9.3504943234774487
 40
0.2885174310958459
 50
67.290582484199177
 51
135.32928246384432
  0
ARC
  8
_0-0_
  6
CONTINUOUS
 62
    7
 10
-4.4397332666237048
 20
8.9940643469374209
 40
0.6183627120399826
 50
115.25316339457605
 51
216.67434966956981
  0
ARC
  8
_0-0_
  6
CONTINUOUS
 62
    7
 10
-4.5947547253198593
 20
9.0174710523346562
 40
0.5200716735474827
 50
229.03876301391543
 51
323.64162047790052
  0
ARC
  8
_0-0_
  6
CONTINUOUS
 62
    7
 10
-4.498356618028339
 20
9.3504943234774487
 40
0.2885174310958459
 50
67.290582484199177
 51
135.32928246384432
  0
ARC
  8
_0-0_
  6
CONTINUOUS
 62
    7
 10
-2.603649900631126
 20
8.9940643469374209
 40
0.6183627120399826
 50
115.25316339457605
 51
216.67434966956981
  0
ARC
  8
_0-0_
  6
CONTINUOUS
 62
    7
 10
-2.7586713593272805
 20
9.0174710523346562
 40
0.5200716735474827
 50
229.03876301391543
 51
323.64162047790052
  0
ARC
  8
_0-0_
  6
CONTINUOUS
 62
    7
 10
-2.6622732520357602
 20
9.3504943234774487
 40
0.2885174310958459
 50
67.290582484199177
 51
135.32928246384432
  0
ARC
  8
_0-0_
  6
CONTINUOUS
 62
    7
 10
0.7941595467804916
 20
8.8041246883864517
 40
0.6183627120399826
 50
115.25316339457605
 51
216.67434966956981
  0
ARC
  8
_0-0_
  6
CONTINUOUS
 62
    7
 10
0.6391380880843371
 20
8.827531393783687
 40
0.5200716735474827
 50
229.03876301391543
 51
323.64162047790052
  0
ARC
  8
_0-0_
  6
CONTINUOUS
 62
    7
 10
0.7355361953758574
 20
9.1605546649264795
 40
0.2885174310958459
 50
67.290582484199177
 51
135.32928246384432
  0
ARC
  8
_0-0_
  6
CONTINUOUS
 62
    7
 10
3.0312266363806657
 20
8.6774982493524817
 40
0.6183627120399826
 50
115.25316339457605
 51
216.67434966956981
  0
ARC
  8
_0-0_
  6
CONTINUOUS
 62
    7
 10
2.8762051776845112
 20
8.700904954749717
 40
0.5200716735474827
 50
229.03876301391543
 51
323.64162047790052
  0
ARC
  8
_0-0_
  6
CONTINUOUS
 62
    7
 10
2.9726032849760315
 20
9.0339282258925095
 40
0.2885174310958459
 50
67.290582484199177
 51
135.32928246384432
  0
ARC
  8
_0-0_
  6
CONTINUOUS
 62
    7
 10
5.204980506463869
 20
8.5297674038128548
 40
0.6183627120399826
 50
115.25316339457605
 51
216.67434966956981
  0
ARC
  8
_0-0_
  6
CONTINUOUS
 62
    7
 10
5.0499590477677145
 20
8.5531741092100901
 40
0.5200716735474827
 50
229.03876301391543
 51
323.64162047790052
  0
ARC
  8
_0-0_
  6
CONTINUOUS
 62
    7
 10
5.1463571550592349
 20
8.8861973803528826
 40
0.2885174310958459
 50
67.290582484199177
 51
135.32928246384432
  0
ARC
  8
_0-0_
  6
CONTINUOUS
 62
    7
 10
7.695300474131983
 20
8.4453497777901987
 40
0.6183627120399826
 50
115.25316339457605
 51
216.67434966956981
  0
ARC
  8
_0-0_
  6
CONTINUOUS
 62
    7
 10
7.5402790154358286
 20
8.468756483187434
 40
0.5200716735474827
 50
229.03876301391543
 51
323.64162047790052
  0
ARC
  8
_0-0_
  6
CONTINUOUS
 62
    7
 10
7.6366771227273489
 20
8.8017797543302265
 40
0.2885174310958459
 50
67.290582484199177
 51
135.32928246384432
  0
ARC
  8
_0-0_
  6
CONTINUOUS
 62
    7
 10
9.1304001165170234
 20
5.5751504930201747
 40
0.6183627120399826
 50
115.25316339457605
 51
216.67434966956981
  0
ARC
  8
_0-0_
  6
CONTINUOUS
 62
    7
 10
8.975378657820869
 20
5.5985571984174101
 40
0.5200716735474827
 50
229.03876301391543
 51
323.64162047790052
  0
ARC
  8
_0-0_
  6
CONTINUOUS
 62
    7
 10
9.0717767651123893
 20
5.9315804695602026
 40
0.2885174310958459
 50
67.290582484199177
 51
135.32928246384432
  0
ARC
  8
_0-0_
  6
CONTINUOUS
 62
    7
 10
6.7244977748715371
 20
3.2747701839030015
 40
0.6183627120399826
 50
115.25316339457605
 51
216.67434966956981
  0
ARC
  8
_0-0_
  6
CONTINUOUS
 62
    7
 10
6.5694763161753826
 20
3.2981768893002368
 40
0.5200716735474827
 50
229.03876301391543
 51
323.64162047790052
  0
ARC
  8
_0-0_
  6
CONTINUOUS
 62
    7
 10
6.665874423466903
 20
3.6312001604430293
 40
0.2885174310958459
 50
67.290582484199177
 51
135.32928246384432
  0
ARC
  8
_0-0_
  6
CONTINUOUS
 62
    7
 10
4.2974910267203938
 20
3.4225010294426284
 40
0.6183627120399826
 50
115.25316339457605
 51
216.67434966956981
  0
ARC
  8
_0-0_
  6
CONTINUOUS
 62
    7
 10
4.1424695680242394
 20
3.4459077348398637
 40
0.5200716735474827
 50
229.03876301391543
 51
323.64162047790052
  0
ARC
  8
_0-0_
  6
CONTINUOUS
 62
    7
 10
4.2388676753157597
 20
3.7789310059826562
 40
0.2885174310958459
 50
67.290582484199177
 51
135.32928246384432
  0
ARC
  8
_0-0_
  6
CONTINUOUS
 62
    7
 10
2.1870503761541897
 20
3.5491274684765983
 40
0.6183627120399826
 50
115.25316339457605
 51
216.67434966956981
  0
ARC
  8
_0-0_
  6
CONTINUOUS
 62
    7
 10
2.0320289174580353
 20
3.5725341738738337
 40
0.5200716735474827
 50
229.03876301391543
 51
323.64162047790052
  0
ARC
  8
_0-0_
  6
CONTINUOUS
 62
    7
 10
2.1284270247495556
 20
3.9055574450166262
 40
0.2885174310958459
 50
67.290582484199177
 51
135.32928246384432
  0
ARC
  8
_0-0_
  6
CONTINUOUS
 62
    7
 10
-0.1977475589856396
 20
3.7179627205219106
 40
0.6183627120399826
 50
115.25316339457605
 51
216.67434966956981
  0
ARC
  8
_0-0_
  6
CONTINUOUS
 62
    7
 10
-0.3527690176817941
 20
3.7413694259191459
 40
0.5200716735474827
 50
229.03876301391543
 51
323.64162047790052
  0
ARC
  8
_0-0_
  6
CONTINUOUS
 62
    7
 10
-0.2563709103902738
 20
4.0743926970619384
 40
0.2885174310958459
 50
67.290582484199177
 51
135.32928246384432
  0
ARC
  8
_0-0_
  6
CONTINUOUS
 62
    7
 10
-3.679974632419885
 20
3.9079023790728513
 40
0.6183627120399826
 50
115.25316339457605
 51
216.67434966956981
  0
ARC
  8
_0-0_
  6
CONTINUOUS
 62
    7
 10
-3.8349960911160395
 20
3.9313090844700866
 40
0.5200716735474827
 50
229.03876301391543
 51
323.64162047790052
  0
ARC
  8
_0-0_
  6
CONTINUOUS
 62
    7
 10
-3.7385979838245191
 20
4.2643323556128792
 40
0.2885174310958459
 50
67.290582484199177
 51
135.32928246384432
  0
ARC
  8
_0-0_
  6
CONTINUOUS
 62
    7
 10
-5.452744778895493
 20
4.0134244116011644
 40
0.6183627120399826
 50
115.25316339457605
 51
216.67434966956981
  0
ARC
  8
_0-0_
  6
CONTINUOUS
 62
    7
 10
-5.6077662375916475
 20
4.0368311169983997
 40
0.5200716735474827
 50
229.03876301391543
 51
323.64162047790052
  0
ARC
  8
_0-0_
  6
CONTINUOUS
 62
    7
 10
-5.5113681303001272
 20
4.3698543881411922
 40
0.2885174310958459
 50
67.290582484199177
 51
135.32928246384432
  0
ARC
  8
_0-0_
  6
CONTINUOUS
 62
    7
 10
-7.3521413644050995
 20
4.2455728831634474
 40
0.6183627120399826
 50
115.25316339457605
 51
216.67434966956981
  0
ARC
  8
_0-0_
  6
CONTINUOUS
 62
    7
 10
-7.5071628231012539
 20
4.2689795885606827
 40
0.5200716735474827
 50
229.03876301391543
 51
323.64162047790052
  0
ARC
  8
_0-0_
  6
CONTINUOUS
 62
    7
 10
-7.4107647158097336
 20
4.6020028597034752
 40
0.2885174310958459
 50
67.290582484199177
 51
135.32928246384432
  0
ARC
  8
_0-0_
  6
CONTINUOUS
 62
    7
 10
-9.0827026978693652
 20
4.5410345742427296
 40
0.6183627120399826
 50
115.25316339457605
 51
216.67434966956981
  0
ARC
  8
_0-0_
  6
CONTINUOUS
 62
    7
 10
-9.2377241565655197
 20
4.5644412796399649
 40
0.5200716735474827
 50
229.03876301391543
 51
323.64162047790052
  0
ARC
  8
_0-0_
  6
CONTINUOUS
 62
    7
 10
-9.1413260492739994
 20
4.8974645507827574
 40
0.2885174310958459
 50
67.290582484199177
 51
135.32928246384432
  0
ARC
  8
_0-0_
  6
CONTINUOUS
 62
    7
 10
-9.8846701450845558
 20
7.2212942004618128
 40
0.6183627120399826
 50
115.25316339457605
 51
216.67434966956981
  0
ARC
  8
_0-0_
  6
CONTINUOUS
 62
    7
 10
-10.03969160378071
 20
7.2447009058590481
 40
0.5200716735474827
 50
229.03876301391543
 51
323.64162047790052
  0
ARC
  8
_0-0_
  6
CONTINUOUS
 62
    7
 10
-9.9432934964891899
 20
7.5777241770018406
 40
0.2885174310958459
 50
67.290582484199177
 51
135.32928246384432
  0
ARC
  8
_0-0_
  6
CONTINUOUS
 62
    7
 10
-10.095714210141182
 20
-1.1571551822860613
 40
0.6183627120399826
 50
115.25316339457605
 51
216.67434966956981
  0
ARC
  8
_0-0_
  6
CONTINUOUS
 62
    7
 10
-10.250735668837336
 20
-1.133748476888826
 40
0.5200716735474827
 50
229.03876301391543
 51
323.64162047790052
  0
ARC
  8
_0-0_
  6
CONTINUOUS
 62
    7
 10
-10.154337561545816
 20
-0.8007252057460334
 40
0.2885174310958459
 50
67.290582484199177
 51
135.32928246384432
  0
ARC
  8
_0-0_
  6
CONTINUOUS
 62
    7
 10
-8.3651528766768877
 20
-1.3259904343313735
 40
0.6183627120399826
 50
115.25316339457605
 51
216.67434966956981
  0
ARC
  8
_0-0_
  6
CONTINUOUS
 62
    7
 10
-8.5201743353730421
 20
-1.3025837289341382
 40
0.5200716735474827
 50
229.03876301391543
 51
323.64162047790052
  0
ARC
  8
_0-0_
  6
CONTINUOUS
 62
    7
 10
-8.4237762280815218
 20
-0.9695604577913457
 40
0.2885174310958459
 50
67.290582484199177
 51
135.32928246384432
  0
ARC
  8
_0-0_
  6
CONTINUOUS
 62
    7
 10
-6.3813386651446535
 20
-1.5792433123993135
 40
0.6183627120399826
 50
115.25316339457605
 51
216.67434966956981
  0
ARC
  8
_0-0_
  6
CONTINUOUS
 62
    7
 10
-6.536360123840808
 20
-1.5558366070020782
 40
0.5200716735474827
 50
229.03876301391543
 51
323.64162047790052
  0
ARC
  8
_0-0_
  6
CONTINUOUS
 62
    7
 10
-6.4399620165492877
 20
-1.2228133358592856
 40
0.2885174310958459
 50
67.290582484199177
 51
135.32928246384432
  0
ARC
  8
_0-0_
  6
CONTINUOUS
 62
    7
 10
-4.270898014578421
 20
-1.7902873774559396
 40
0.6183627120399826
 50
115.25316339457605
 51
216.67434966956981
  0
ARC
  8
_0-0_
  6
CONTINUOUS
 62
    7
 10
-4.4259194732745755
 20
-1.7668806720587042
 40
0.5200716735474827
 50
229.03876301391543
 51
323.64162047790052
  0
ARC
  8
_0-0_
  6
CONTINUOUS
 62
    7
 10
-4.3295213659830551
 20
-1.4338574009159117
 40
0.2885174310958459
 50
67.290582484199177
 51
135.32928246384432
  0
ARC
  8
_0-0_
  6
CONTINUOUS
 62
    7
 10
-1.0208194127064587
 20
-2.2967931335918195
 40
0.6183627120399826
 50
115.25316339457605
 51
216.67434966956981
  0
ARC
  8
_0-0_
  6
CONTINUOUS
 62
    7
 10
-1.1758408714026132
 20
-2.2733864281945841
 40
0.5200716735474827
 50
229.03876301391543
 51
323.64162047790052
  0
ARC
  8
_0-0_
  6
CONTINUOUS
 62
    7
 10
-1.0794427641110929
 20
-1.9403631570517916
 40
0.2885174310958459
 50
67.290582484199177
 51
135.32928246384432
  0
ARC
  8
_0-0_
  6
CONTINUOUS
 62
    7
 10
1.1951432703880585
 20
-2.6555680441880725
 40
0.6183627120399826
 50
115.25316339457605
 51
216.67434966956981
  0
ARC
  8
_0-0_
  6
CONTINUOUS
 62
    7
 10
1.040121811691904
 20
-2.6321613387908371
 40
0.5200716735474827
 50
229.03876301391543
 51
323.64162047790052
  0
ARC
  8
_0-0_
  6
CONTINUOUS
 62
    7
 10
1.1365199189834243
 20
-2.2991380676480446
 40
0.2885174310958459
 50
67.290582484199177
 51
135.32928246384432
  0
ARC
  8
_0-0_
  6
CONTINUOUS
 62
    7
 10
3.5166279860108887
 20
-2.9932385482786685
 40
0.6183627120399826
 50
115.25316339457605
 51
216.67434966956981
  0
ARC
  8
_0-0_
  6
CONTINUOUS
 62
    7
 10
3.3616065273147342
 20
-2.9698318428814332
 40
0.5200716735474827
 50
229.03876301391543
 51
323.64162047790052
  0
ARC
  8
_0-0_
  6
CONTINUOUS
 62
    7
 10
3.4580046346062545
 20
-2.6368085717386407
 40
0.2885174310958459
 50
67.290582484199177
 51
135.32928246384432
  0
ARC
  8
_0-0_
  6
CONTINUOUS
 62
    7
 10
5.7325906691054058
 20
-3.3731178653805785
 40
0.6183627120399826
 50
115.25316339457605
 51
216.67434966956981
  0
ARC
  8
_0-0_
  6
CONTINUOUS
 62
    7
 10
5.5775692104092514
 20
-3.3497111599833431
 40
0.5200716735474827
 50
229.03876301391543
 51
323.64162047790052
  0
ARC
  8
_0-0_
  6
CONTINUOUS
 62
    7
 10
5.6739673177007717
 20
-3.0166878888405506
 40
0.2885174310958459
 50
67.290582484199177
 51
135.32928246384432
  0
ARC
  8
_0-0_
  6
CONTINUOUS
 62
    7
 10
6.872228620411164
 20
-6.4965700282185708
 40
0.6183627120399826
 50
115.25316339457605
 51
216.67434966956981
  0
ARC
  8
_0-0_
  6
CONTINUOUS
 62
    7
 10
6.7172071617150095
 20
-6.4731633228213354
 40
0.5200716735474827
 50
229.03876301391543
 51
323.64162047790052
  0
ARC
  8
_0-0_
  6
CONTINUOUS
 62
    7
 10
6.8136052690065299
 20
-6.1401400516785429
 40
0.2885174310958459
 50
67.290582484199177
 51
135.32928246384432
  0
ARC
  8
_0-0_
  6
CONTINUOUS
 62
    7
 10
4.8884144088789299
 20
-9.0290988088980271
 40
0.6183627120399826
 50
115.25316339457605
 51
216.67434966956981
  0
ARC
  8
_0-0_
  6
CONTINUOUS
 62
    7
 10
4.7333929501827754
 20
-9.0056921035007917
 40
0.5200716735474827
 50
229.03876301391543
 51
323.64162047790052
  0
ARC
  8
_0-0_
  6
CONTINUOUS
 62
    7
 10
4.8297910574742957
 20
-8.6726688323579992
 40
0.2885174310958459
 50
67.290582484199177
 51
135.32928246384432
  0
ARC
  8
_0-0_
  6
CONTINUOUS
 62
    7
 10
2.4191988477164443
 20
-8.5014886462564618
 40
0.6183627120399826
 50
115.25316339457605
 51
216.67434966956981
  0
ARC
  8
_0-0_
  6
CONTINUOUS
 62
    7
 10
2.2641773890202899
 20
-8.4780819408592265
 40
0.5200716735474827
 50
229.03876301391543
 51
323.64162047790052
  0
ARC
  8
_0-0_
  6
CONTINUOUS
 62
    7
 10
2.3605754963118102
 20
-8.145058669716434
 40
0.2885174310958459
 50
67.290582484199177
 51
135.32928246384432
  0
ARC
  8
_0-0_
  6
CONTINUOUS
 62
    7
 10
0.0132965060709864
 20
-8.2693401746941788
 40
0.6183627120399826
 50
115.25316339457605
 51
216.67434966956981
  0
ARC
  8
_0-0_
  6
CONTINUOUS
 62
    7
 10
-0.141724952625168
 20
-8.2459334692969435
 40
0.5200716735474827
 50
229.03876301391543
 51
323.64162047790052
  0
ARC
  8
_0-0_
  6
CONTINUOUS
 62
    7
 10
-0.0453268453336477
 20
-7.912910198154151
 40
0.2885174310958459
 50
67.290582484199177
 51
135.32928246384432
  0
ARC
  8
_0-0_
  6
CONTINUOUS
 62
    7
 10
-2.2870838030461869
 20
-7.509581540490359
 40
0.6183627120399826
 50
115.25316339457605
 51
216.67434966956981
  0
ARC
  8
_0-0_
  6
CONTINUOUS
 62
    7
 10
-2.4421052617423413
 20
-7.4861748350931236
 40
0.5200716735474827
 50
229.03876301391543
 51
323.64162047790052
  0
ARC
  8
_0-0_
  6
CONTINUOUS
 62
    7
 10
-2.345707154450821
 20
-7.1531515639503311
 40
0.2885174310958459
 50
67.290582484199177
 51
135.32928246384432
  0
ARC
  8
_0-0_
  6
CONTINUOUS
 62
    7
 10
-5.1994919008275531
 20
-6.8131361258035099
 40
0.6183627120399826
 50
115.25316339457605
 51
216.67434966956981
  0
ARC
  8
_0-0_
  6
CONTINUOUS
 62
    7
 10
-5.3545133595237075
 20
-6.7897294204062746
 40
0.5200716735474827
 50
229.03876301391543
 51
323.64162047790052
  0
ARC
  8
_0-0_
  6
CONTINUOUS
 62
    7
 10
-5.2581152522321872
 20
-6.4567061492634821
 40
0.2885174310958459
 50
67.290582484199177
 51
135.32928246384432
  0
ARC
  8
_0-0_
  6
CONTINUOUS
 62
    7
 10
-7.3099325513937856
 20
-6.4754656217129138
 40
0.6183627120399826
 50
115.25316339457605
 51
216.67434966956981
  0
ARC
  8
_0-0_
  6
CONTINUOUS
 62
    7
 10
-7.4649540100899401
 20
-6.4520589163156785
 40
0.5200716735474827
 50
229.03876301391543
 51
323.64162047790052
  0
ARC
  8
_0-0_
  6
CONTINUOUS
 62
    7
 10
-7.3685559027984198
 20
-6.119035645172886
 40
0.2885174310958459
 50
67.290582484199177
 51
135.32928246384432
  0
ARC
  8
_0-0_
  6
CONTINUOUS
 62
    7
 10
-9.0193894783523945
 20
-5.9056466460600348
 40
0.6183627120399826
 50
115.25316339457605
 51
216.67434966956981
  0
ARC
  8
_0-0_
  6
CONTINUOUS
 62
    7
 10
-9.1744109370485489
 20
-5.8822399406627994
 40
0.5200716735474827
 50
229.03876301391543
 51
323.64162047790052
  0
ARC
  8
_0-0_
  6
CONTINUOUS
 62
    7
 10
-9.0780128297570286
 20
-5.5492166695200069
 40
0.2885174310958459
 50
67.290582484199177
 51
135.32928246384432
  0
ARC
  8
_0-0_
  6
CONTINUOUS
 62
    7
 10
-11.193143348435598
 20
-5.4202452964298118
 40
0.6183627120399826
 50
115.25316339457605
 51
216.67434966956981
  0
ARC
  8
_0-0_
  6
CONTINUOUS
 62
    7
 10
-11.348164807131752
 20
-5.3968385910325765
 40
0.5200716735474827
 50
229.03876301391543
 51
323.64162047790052
  0
ARC
  8
_0-0_
  6
CONTINUOUS
 62
    7
 10
-11.251766699840232
 20
-5.063815319889784
 40
0.2885174310958459
 50
67.290582484199177
 51
135.32928246384432
  0
ARC
  8
_0-0_
  6
CONTINUOUS
 62
    7
 10
-11.86848435661679
 20
-3.0143429547843255
 40
0.6183627120399826
 50
115.25316339457605
 51
216.67434966956981
  0
ARC
  8
_0-0_
  6
CONTINUOUS
 62
    7
 10
-12.023505815312944
 20
-2.9909362493870901
 40
0.5200716735474827
 50
229.03876301391543
 51
323.64162047790052
  0
ARC
  8
_0-0_
  6
CONTINUOUS
 62
    7
 10
-11.927107708021424
 20
-2.6579129782442976
 40
0.2885174310958459
 50
67.290582484199177
 51
135.32928246384432
  0
ARC
  8
_0-0_
  6
CONTINUOUS
 62
    7
 10
-12.227259267213043
 20
-11.603836402588797
 40
0.6183627120399826
 50
115.25316339457605
 51
216.67434966956981
  0
ARC
  8
_0-0_
  6
CONTINUOUS
 62
    7
 10
-12.382280725909197
 20
-11.580429697191562
 40
0.5200716735474827
 50
229.03876301391543
 51
323.64162047790052
  0
ARC
  8
_0-0_
  6
CONTINUOUS
 62
    7
 10
-12.285882618617677
 20
-11.247406426048769
 40
0.2885174310958459
 50
67.290582484199177
 51
135.32928246384432
  0
ARC
  8
_0-0_
  6
CONTINUOUS
 62
    7
 10
-10.116818616646839
 20
-11.878193687162408
 40
0.6183627120399826
 50
115.25316339457605
 51
216.67434966956981
  0
ARC
  8
_0-0_
  6
CONTINUOUS
 62
    7
 10
-10.271840075342993
 20
-11.854786981765173
 40
0.5200716735474827
 50
229.03876301391543
 51
323.64162047790052
  0
ARC
  8
_0-0_
  6
CONTINUOUS
 62
    7
 10
-10.175441968051473
 20
-11.52176371062238
 40
0.2885174310958459
 50
67.290582484199177
 51
135.32928246384432
  0
ARC
  8
_0-0_
  6
CONTINUOUS
 62
    7
 10
-8.3018396571598885
 20
-12.363595036792631
 40
0.6183627120399826
 50
115.25316339457605
 51
216.67434966956981
  0
ARC
  8
_0-0_
  6
CONTINUOUS
 62
    7
 10
-8.4568611158560429
 20
-12.340188331395396
 40
0.5200716735474827
 50
229.03876301391543
 51
323.64162047790052
  0
ARC
  8
_0-0_
  6
CONTINUOUS
 62
    7
 10
-8.3604630085645226
 20
-12.007165060252603
 40
0.2885174310958459
 50
67.290582484199177
 51
135.32928246384432
  0
ARC
  8
_0-0_
  6
CONTINUOUS
 62
    7
 10
-6.4024430716503105
 20
-12.848996386422868
 40
0.6183627120399826
 50
115.25316339457605
 51
216.67434966956981
  0
ARC
  8
_0-0_
  6
CONTINUOUS
 62
    7
 10
-6.5574645303464649
 20
-12.825589681025633
 40
0.5200716735474827
 50
229.03876301391543
 51
323.64162047790052
  0
ARC
  8
_0-0_
  6
CONTINUOUS
 62
    7
 10
-6.4610664230549446
 20
-12.492566409882841
 40
0.2885174310958459
 50
67.290582484199177
 51
135.32928246384432
  0
ARC
  8
_0-0_
  6
CONTINUOUS
 62
    7
 10
-3.2367820958009759
 20
-13.819799085683314
 40
0.6183627120399826
 50
115.25316339457605
 51
216.67434966956981
  0
ARC
  8
_0-0_
  6
CONTINUOUS
 62
    7
 10
-3.3918035544971303
 20
-13.796392380286079
 40
0.5200716735474827
 50
229.03876301391543
 51
323.64162047790052
  0
ARC
  8
_0-0_
  6
CONTINUOUS
 62
    7
 10
-3.29540544720561
 20
-13.463369109143287
 40
0.2885174310958459
 50
67.290582484199177
 51
135.32928246384432
  0
ARC
  8
_0-0_
  6
CONTINUOUS
 62
    7
 10
-1.1263414452347718
 20
-14.410722467841865
 40
0.6183627120399826
 50
115.25316339457605
 51
216.67434966956981
  0
ARC
  8
_0-0_
  6
CONTINUOUS
 62
    7
 10
-1.2813629039309262
 20
-14.387315762444629
 40
0.5200716735474827
 50
229.03876301391543
 51
323.64162047790052
  0
ARC
  8
_0-0_
  6
CONTINUOUS
 62
    7
 10
-1.1849647966394059
 20
-14.054292491301837
 40
0.2885174310958459
 50
67.290582484199177
 51
135.32928246384432
  0
ARC
  8
_0-0_
  6
CONTINUOUS
 62
    7
 10
1.0896212378597454
 20
-15.064959069517386
 40
0.6183627120399826
 50
115.25316339457605
 51
216.67434966956981
  0
ARC
  8
_0-0_
  6
CONTINUOUS
 62
    7
 10
0.9345997791635909
 20
-15.04155236412015
 40
0.5200716735474827
 50
229.03876301391543
 51
323.64162047790052
  0
ARC
  8
_0-0_
  6
CONTINUOUS
 62
    7
 10
1.0309978864551113
 20
-14.708529092977358
 40
0.2885174310958459
 50
67.290582484199177
 51
135.32928246384432
  0
ARC
  8
_0-0_
  6
CONTINUOUS
 62
    7
 10
3.5377323925165456
 20
-15.402629573607982
 40
0.6183627120399826
 50
115.25316339457605
 51
216.67434966956981
  0
ARC
  8
_0-0_
  6
CONTINUOUS
 62
    7
 10
3.3827109338203911
 20
-15.379222868210746
 40
0.5200716735474827
 50
229.03876301391543
 51
323.64162047790052
  0
ARC
  8
_0-0_
  6
CONTINUOUS
 62
    7
 10
3.4791090411119114
 20
-15.046199597067954
 40
0.2885174310958459
 50
67.290582484199177
 51
135.32928246384432
  0
ARC
  8
_0-0_
  6
CONTINUOUS
 62
    7
 10
4.9306232218902437
 20
-18.842647834030899
 40
0.6183627120399826
 50
115.25316339457605
 51
216.67434966956981
  0
ARC
  8
_0-0_
  6
CONTINUOUS
 62
    7
 10
4.7756017631940892
 20
-18.819241128633664
 40
0.5200716735474827
 50
229.03876301391543
 51
323.64162047790052
  0
ARC
  8
_0-0_
  6
CONTINUOUS
 62
    7
 10
4.8719998704856096
 20
-18.486217857490871
 40
0.2885174310958459
 50
67.290582484199177
 51
135.32928246384432
  0
ARC
  8
_0-0_
  6
CONTINUOUS
 62
    7
 10
2.7357649453013835
 20
-20.974192891102774
 40
0.6183627120399826
 50
115.25316339457605
 51
216.67434966956981
  0
ARC
  8
_0-0_
  6
CONTINUOUS
 62
    7
 10
2.580743486605229
 20
-20.950786185705539
 40
0.5200716735474827
 50
229.03876301391543
 51
323.64162047790052
  0
ARC
  8
_0-0_
  6
CONTINUOUS
 62
    7
 10
2.6771415938967493
 20
-20.617762914562746
 40
0.2885174310958459
 50
67.290582484199177
 51
135.32928246384432
  0
ARC
  8
_0-0_
  6
CONTINUOUS
 62
    7
 10
0.5831154817238655
 20
-20.573209167495193
 40
0.6183627120399826
 50
115.25316339457605
 51
216.67434966956981
  0
ARC
  8
_0-0_
  6
CONTINUOUS
 62
    7
 10
0.428094023027711
 20
-20.549802462097958
 40
0.5200716735474827
 50
229.03876301391543
 51
323.64162047790052
  0
ARC
  8
_0-0_
  6
CONTINUOUS
 62
    7
 10
0.5244921303192313
 20
-20.216779190955165
 40
0.2885174310958459
 50
67.290582484199177
 51
135.32928246384432
  0
ARC
  8
_0-0_
  6
CONTINUOUS
 62
    7
 10
-1.780578046910307
 20
-20.024494598347985
 40
0.6183627120399826
 50
115.25316339457605
 51
216.67434966956981
  0
ARC
  8
_0-0_
  6
CONTINUOUS
 62
    7
 10
-1.9355995056064614
 20
-20.00108789295075
 40
0.5200716735474827
 50
229.03876301391543
 51
323.64162047790052
  0
ARC
  8
_0-0_
  6
CONTINUOUS
 62
    7
 10
-1.8392013983149411
 20
-19.668064621807957
 40
0.2885174310958459
 50
67.290582484199177
 51
135.32928246384432
  0
ARC
  8
_0-0_
  6
CONTINUOUS
 62
    7
 10
-4.165375982050108
 20
-19.159213931615838
 40
0.6183627120399826
 50
115.25316339457605
 51
216.67434966956981
  0
ARC
  8
_0-0_
  6
CONTINUOUS
 62
    7
 10
-4.3203974407462624
 20
-19.135807226218603
 40
0.5200716735474827
 50
229.03876301391543
 51
323.64162047790052
  0
ARC
  8
_0-0_
  6
CONTINUOUS
 62
    7
 10
-4.2239993334547421
 20
-18.80278395507581
 40
0.2885174310958459
 50
67.290582484199177
 51
135.32928246384432
  0
ARC
  8
_0-0_
  6
CONTINUOUS
 62
    7
 10
-7.1199928928428164
 20
-18.441664110423318
 40
0.6183627120399826
 50
115.25316339457605
 51
216.67434966956981
  0
ARC
  8
_0-0_
  6
CONTINUOUS
 62
    7
 10
-7.2750143515389709
 20
-18.418257405026083
 40
0.5200716735474827
 50
229.03876301391543
 51
323.64162047790052
  0
ARC
  8
_0-0_
  6
CONTINUOUS
 62
    7
 10
-7.1786162442474506
 20
-18.08523413388329
 40
0.2885174310958459
 50
67.290582484199177
 51
135.32928246384432
  0
ARC
  8
_0-0_
  6
CONTINUOUS
 62
    7
 10
-8.9349718523297383
 20
-17.850740728264782
 40
0.6183627120399826
 50
115.25316339457605
 51
216.67434966956981
  0
ARC
  8
_0-0_
  6
CONTINUOUS
 62
    7
 10
-9.0899933110258928
 20
-17.827334022867547
 40
0.5200716735474827
 50
229.03876301391543
 51
323.64162047790052
  0
ARC
  8
_0-0_
  6
CONTINUOUS
 62
    7
 10
-8.9935952037343725
 20
-17.494310751724754
 40
0.2885174310958459
 50
67.290582484199177
 51
135.32928246384432
  0
ARC
  8
_0-0_
  6
CONTINUOUS
 62
    7
 10
-11.024308096390314
 20
-16.985460061532635
 40
0.6183627120399826
 50
115.25316339457605
 51
216.67434966956981
  0
ARC
  8
_0-0_
  6
CONTINUOUS
 62
    7
 10
-11.179329555086468
 20
-16.962053356135399
 40
0.5200716735474827
 50
229.03876301391543
 51
323.64162047790052
  0
ARC
  8
_0-0_
  6
CONTINUOUS
 62
    7
 10
-11.082931447794948
 20
-16.629030084992607
 40
0.2885174310958459
 50
67.290582484199177
 51
135.32928246384432
  0
ARC
  8
_0-0_
  6
CONTINUOUS
 62
    7
 10
-13.050331120933862
 20
-16.310119053351443
 40
0.6183627120399826
 50
115.25316339457605
 51
216.67434966956981
  0
ARC
  8
_0-0_
  6
CONTINUOUS
 62
    7
 10
-13.205352579630016
 20
-16.286712347954207
 40
0.5200716735474827
 50
229.03876301391543
 51
323.64162047790052
  0
ARC
  8
_0-0_
  6
CONTINUOUS
 62
    7
 10
-13.108954472338496
 20
-15.953689076811415
 40
0.2885174310958459
 50
67.290582484199177
 51
135.32928246384432
  0
ARC
  8
_0-0_
  6
CONTINUOUS
 62
    7
 10
-13.662358909598055
 20
-13.482128581592718
 40
0.6183627120399826
 50
115.25316339457605
 51
216.67434966956981
  0
ARC
  8
_0-0_
  6
CONTINUOUS
 62
    7
 10
-13.817380368294209
 20
-13.458721876195483
 40
0.5200716735474827
 50
229.03876301391543
 51
323.64162047790052
  0
ARC
  8
_0-0_
  6
CONTINUOUS
 62
    7
 10
-13.720982261002689
 20
-13.12569860505269
 40
0.2885174310958459
 50
67.290582484199177
 51
135.32928246384432
  0
ARC
  8
_0-0_
  6
CONTINUOUS
 62
    7
 10
20.682032906197094
 20
-1.8568952364524307
 40
0.8478914459203338
 50
85.888374049300111
 51
170.53367680182305
  0
ARC
  8
_0-0_
  6
CONTINUOUS
 62
    7
 10
21.278456223096896
 20
-2.2865944780980385
 40
1.5416736369632913
 50
158.33514265265691
 51
209.83609090729374
  0
ARC
  8
_0-0_
  6
CONTINUOUS
 62
    7
 10
20.523313870446572
 20
-2.7704690887770482
 40
0.6473858464444532
 50
205.93545256866329
 51
284.51426629367006
  0
ARC
  8
_0-0_
  6
CONTINUOUS
 62
    7
 10
20.435137159560725
 20
-1.2546855274443942
 40
0.5520235447795592
 50
13.511076984955769
 51
73.694560960444775
  0
ARC
  8
_0-0_
  6
CONTINUOUS
 62
    7
 10
20.217904879485673
 20
-1.5349147464390001
 40
0.8914740883243743
 50
65.321253772526063
 51
145.52306886495168
  0
ARC
  8
_0-0_
  6
CONTINUOUS
 62
    7
 10
21.749354771660023
 20
-2.1564697631993113
 40
2.5307340636943292
 50
153.57618099805427
 51
186.49621062213257
  0
ARC
  8
_0-0_
  6
CONTINUOUS
 62
    7
 10
21.038879140353373
 20
-2.2785723903441237
 40
1.8114683955977762
 50
185.2012782608877
 51
227.17494313407397
  0
ARC
  8
_0-0_
  6
CONTINUOUS
 62
    7
 10
20.391855634858672
 20
-2.9012878583034762
 40
0.9163607258032365
 50
230.38102693488293
 51
296.45508375476152
  0
ARC
  8
_0-0_
  6
CONTINUOUS
 62
    7
 10
20.351521313031299
 20
-3.06315270511476
 40
0.7967979881690654
 50
304.26110289909047
 51
325.73889710090953
  0
LINE
  8
_0-0_
  6
CONTINUOUS
 62
    7
 10
20.742826582699735
 20
-1.0111860470958618
 11
21.73540580332272
 21
-1.0302741090309269
  0
LINE
  8
_0-0_
  6
CONTINUOUS
 62
    7
 10
20.685562396894568
 20
-3.3971937889780577
 11
21.773581927192851
 21
-3.5117221605883913
  0
ARC
  8
_0-0_
  6
CONTINUOUS
 62
    7
 10
21.834776008102267
 20
-1.8042907019314214
 40
0.7803692226652793
 50
97.315759049972058
 51
159.1518913049228
  0
ARC
  8
_0-0_
  6
CONTINUOUS
 62
    7
 10
22.935399668775261
 20
-2.2082226071781577
 40
1.9527397464731799
 50
159.56905554480633
 51
201.97938478505037
  0
ARC
  8
_0-0_
  6
CONTINUOUS
 62
    7
 10
23.049879159304197
 20
-1.4111677085542169
 40
2.4578982140551742
 50
218.43554122887912
 51
238.71712752111591
  0
ARC
  8
_0-0_
  6
CONTINUOUS
 62
    7
 10
21.834027456653871
 20
-2.8086452126471215
 40
0.7056705015502863
 50
265.08620123762705
 51
323.80170832320823
  0
ARC
  8
_0-0_
  6
CONTINUOUS
 62
    7
 10
21.339661449483572
 20
-2.277434806857741
 40
1.424909544622089
 50
318.29605000028823
 51
351.0115981158184
  0
ARC
  8
_0-0_
  6
CONTINUOUS
 62
    7
 10
21.875593536878597
 20
-2.2038248458141254
 40
0.9204503442966649
 50
341.22626983160291
 51
47.3742850667659
  0
ARC
  8
_0-0_
  6
CONTINUOUS
 62
    7
 10
21.728464689891808
 20
-1.876422532851393
 40
0.8461768929659631
 50
24.422262318223851
 51
89.530002570182958
  0
LINE
  8
_0-0_
  6
CONTINUOUS
 62
    7
 10
25.668721835397065
 20
-14.89067920079988
 11
19.364555036310435
 21
-13.610522724357011
  0
LINE
  8
_0-0_
  6
CONTINUOUS
 62
    7
 10
19.12301607849102
 20
-15.422064908002596
 11
24.340257567390296
 21
-16.822990863355173
  0
LINE
  8
_0-0_
  6
CONTINUOUS
 62
    7
 10
18.857323224889683
 20
-17.11283761273846
 11
23.398255631894585
 21
-18.272224610271635
  0
ARC
  8
_0-0_
  6
CONTINUOUS
 62
    7
 10
23.83339172408742
 20
-16.86141751573544
 40
1.4763875089970533
 50
252.85863598656002
 51
306.06600842949098
  0
ARC
  8
_0-0_
  6
CONTINUOUS
 62
    7
 10
24.295506417438304
 20
-17.505357961181886
 40
0.683832963243566
 50
306.53129185540587
 51
86.247788812662805
  0
ENDBLK
  0
ENDSEC
  0
SECTION
  2
ENTITIES
  0
INSERT
  2
-001-1
  8
_0-0_
 10
137.55612244897961
 20
109.37755102040816
 41
1
 42
1
 50
0
  0
ENDSEC
  0
EOF
