  0
SECTION
  2
HEADER
  9
$ACADVER
  1
AC1009
  9
$INSBASE
 10
0
 20
0
 30
0
  9
$EXTMIN
 10
0
 20
0
  9
$EXTMAX
 10
297
 20
210
  9
$LIMMIN
 10
0
 20
0
  9
$LIMMAX
 10
297
 20
210
  9
$LTSCALE
 40
1
  0
ENDSEC
  0
SECTION
  2
TABLES
  0
TABLE
  2
LTYPE
 70
     9
  0
LTYPE
  2
CONTINUOUS
 70
    64
  3
実線
 72
    65
 73
     0
 40
0.0
  0
LTYPE
  2
DASHED1
 70
    64
  3
--  --  --  --  --  --  --  --  
 72
    65
 73
     2
 40
2.5
 49
1.25
 49
-1.25
  0
LTYPE
  2
DASHED2
 70
    64
  3
----    ----    ----    ----    
 72
    65
 73
     2
 40
5.0
 49
2.5
 49
-2.5
  0
LTYPE
  2
DASHED3
 70
    64
  3
------  ------  ------  ------  
 72
    65
 73
     2
 40
5.0
 49
3.75
 49
-1.25
  0
LTYPE
  2
CENTER1
 70
    64
  3
----- - ----- - ----- - ----- - 
 72
    65
 73
     4
 40
10.0
 49
6.25
 49
-1.25
 49
1.25
 49
-1.25
  0
LTYPE
  2
CENTER2
 70
    64
  3
----------  --  ----------  --  
 72
    65
 73
     4
 40
20.0
 49
12.5
 49
-2.5
 49
2.5
 49
-2.5
  0
LTYPE
  2
PHANTOM1
 70
    64
  3
--- - - --- - - --- - - --- - - 
 72
    65
 73
     6
 40
10.0
 49
3.25
 49
-1.25
 49
1.25
 49
-1.25
 49
1.25
 49
-1.25
  0
LTYPE
  2
PHANTOM2
 70
    64
  3
--------  -  -  --------  -  -  
 72
    65
 73
     6
 40
20.0
 49
10.0
 49
-2.5
 49
1.25
 49
-2.5
 49
1.25
 49
-2.5
  0
LTYPE
  2
DOT
 70
    64
  3
-   -   -   -   -   -   -   -   
 72
    65
 73
     2
 40
2.5
 49
0.625
 49
-1.875
  0
LTYPE
  2
DUMMY
 70
    64
  3
ダミー
 72
    65
 73
     0
 40
0.0
  0
LTYPE
  2
RAND1
 70
    64
  3
ランダム線1
 72
    65
 73
     4
 40
10.0
 49
1.0
 49
-2.0
 49
3.0
 49
-4.0
  0
LTYPE
  2
RAND2
 70
    64
  3
ランダム線2
 72
    65
 73
     4
 40
14.0
 49
2.0
 49
-3.0
 49
4.0
 49
-5.0
  0
LTYPE
  2
RAND3
 70
    64
  3
ランダム線3
 72
    65
 73
     4
 40
18.0
 49
3.0
 49
-4.0
 49
5.0
 49
-6.0
  0
LTYPE
  2
RAND4
 70
    64
  3
ランダム線4
 72
    65
 73
     4
 40
22.0
 49
4.0
 49
-5.0
 49
6.0
 49
-7.0
  0
LTYPE
  2
RAND5
 70
    64
  3
ランダム線5
 72
    65
 73
     4
 40
26.0
 49
5.0
 49
-6.0
 49
7.0
 49
-8.0
  0
LTYPE
  2
LONG1
 70
    64
  3
----------  --  ----------  --  
 72
    65
 73
     4
 40
40.0
 49
32.5
 49
-2.5
 49
2.5
 49
-2.5
  0
LTYPE
  2
LONG2
 70
    64
  3
--------  -  -  --------  -  -  
 72
    65
 73
     6
 40
40.0
 49
30.0
 49
-2.5
 49
1.25
 49
-2.5
 49
1.25
 49
-2.5
  0
LTYPE
  2
LONG3
 70
    64
  3
+++++++++++++++..+++++++++++++++
 72
    65
 73
     2
 40
40.0
 49
37.5
 49
-2.5
  0
LTYPE
  2
LONG4
 70
    64
  3
+++++++++++++++..+++++++++++++++
 72
    65
 73
     2
 40
80.0
 49
75.0
 49
-5.0
  0
LTYPE
  2
LONG5
 70
    64
  3
----------  --  ----------  --  
 72
    65
 73
     4
 40
60.0
 49
37.5
 49
-7.5
 49
7.5
 49
-7.5
  0
LTYPE
  2
dashed
 70
   64
  3
-------   -------------   ------
 72
   65
 73
    2
 40
7.5
 49
6
 49
-1.5
  0
LTYPE
  2
dashed_spaced
 70
   64
  3
----        --------        ----
 72
   65
 73
    2
 40
12
 49
6
 49
-6
  0
LTYPE
  2
long_dashed_dotted
 70
   64
  3
------------- --- --------------
 72
   65
 73
    4
 40
15.25
 49
12
 49
-1.5
 49
0.25
 49
-1.5
  0
LTYPE
  2
long_dashed_double-dotted
 70
   64
  3
----------- --- --- ------------
 72
   65
 73
    6
 40
17
 49
12
 49
-1.5
 49
0.25
 49
-1.5
 49
0.25
 49
-1.5
  0
LTYPE
  2
long_dashed_triplicate-dotted
 70
   64
  3
--------- --- --- --- ----------
 72
   65
 73
    8
 40
18.75
 49
12
 49
-1.5
 49
0.25
 49
-1.5
 49
0.25
 49
-1.5
 49
0.25
 49
-1.5
  0
LTYPE
  2
dotted
 70
   64
  3
   -       -       -       -    
 72
   65
 73
    2
 40
1.75
 49
0.25
 49
-1.5
  0
LTYPE
  2
chain
 70
   64
  3
-------------- -- --------------
 72
   65
 73
    4
 40
18.5
 49
12
 49
-1.5
 49
3.5
 49
-1.5
  0
LTYPE
  2
chain_double_dash
 70
   64
  3
------------ -- -- -------------
 72
   65
 73
    6
 40
23.5
 49
12
 49
-1.5
 49
3.5
 49
-1.5
 49
3.5
 49
-1.5
  0
LTYPE
  2
dashed_dotted
 70
   64
  3
-----------     -     ----------
 72
   65
 73
    4
 40
9.25
 49
6
 49
-1.5
 49
0.25
 49
-1.5
  0
LTYPE
  2
double-dashed_dotted
 70
   64
  3
------   -----------   -   -----
 72
   65
 73
    6
 40
16.75
 49
6
 49
-1.5
 49
6
 49
-1.5
 49
0.25
 49
-1.5
  0
LTYPE
  2
dashed_double-dotted
 70
   64
  3
---------    -    -    ---------
 72
   65
 73
    6
 40
11
 49
6
 49
-1.5
 49
0.25
 49
-1.5
 49
0.25
 49
-1.5
  0
LTYPE
  2
double-dashed_double-dotted
 70
   64
  3
-----   ---------   -   -   ----
 72
   65
 73
    8
 40
18.5
 49
6
 49
-1.5
 49
6
 49
-1.5
 49
0.25
 49
-1.5
 49
0.25
 49
-1.5
  0
LTYPE
  2
dashed_triplicate-dotted
 70
   64
  3
-------    -    -    -    ------
 72
   65
 73
    8
 40
12.75
 49
6
 49
-1.5
 49
0.25
 49
-1.5
 49
0.25
 49
-1.5
 49
0.25
 49
-1.5
  0
LTYPE
  2
double-dashed_triplicate-dotted
 70
   64
  3
-----  ---------  -  -  -  -----
 72
   65
 73
   10
 40
20.25
 49
6
 49
-1.5
 49
6
 49
-1.5
 49
0.25
 49
-1.5
 49
0.25
 49
-1.5
 49
0.25
 49
-1.5
  0
LTYPE
  2
undefined
 70
   64
  3
--------------------------------
 72
   65
 73
    0
 40
0
  0
LTYPE
  2
_
 70
   64
  3
                                
 72
   65
 73
    0
 40
0
  0
LTYPE
  2
__18
 70
   64
  3
                                
 72
   65
 73
    0
 40
0
  0
LTYPE
  2
__19
 70
   64
  3
                                
 72
   65
 73
    0
 40
0
  0
LTYPE
  2
__20
 70
   64
  3
                                
 72
   65
 73
    0
 40
0
  0
LTYPE
  2
__21
 70
   64
  3
                                
 72
   65
 73
    0
 40
0
  0
LTYPE
  2
__22
 70
   64
  3
                                
 72
   65
 73
    0
 40
0
  0
LTYPE
  2
__23
 70
   64
  3
                                
 72
   65
 73
    0
 40
0
  0
LTYPE
  2
__24
 70
   64
  3
                                
 72
   65
 73
    0
 40
0
  0
LTYPE
  2
__25
 70
   64
  3
                                
 72
   65
 73
    0
 40
0
  0
LTYPE
  2
__26
 70
   64
  3
                                
 72
   65
 73
    0
 40
0
  0
LTYPE
  2
__27
 70
   64
  3
                                
 72
   65
 73
    0
 40
0
  0
LTYPE
  2
__28
 70
   64
  3
                                
 72
   65
 73
    0
 40
0
  0
LTYPE
  2
__29
 70
   64
  3
                                
 72
   65
 73
    0
 40
0
  0
LTYPE
  2
__30
 70
   64
  3
                                
 72
   65
 73
    0
 40
0
  0
LTYPE
  2
__31
 70
   64
  3
                                
 72
   65
 73
    0
 40
0
  0
LTYPE
  2
__32
 70
   64
  3
                                
 72
   65
 73
    0
 40
0
  0
ENDTAB
  0
TABLE
  2
STYLE
  5
3
100
AcDbSymbolTable
 70
     1
  0
STYLE
  5
10
100
AcDbSymbolTableRecord
100
AcDbTextStyleTableRecord
  2
STANDARD
 70
     0
 40
0.0
 41
1.0
 50
0.0
 71
     0
 42
0.2
  3
txt
  4
bigfont.shx
  0
STYLE
  5
26
100
AcDbSymbolTableRecord
100
AcDbTextStyleTableRecord
  2
TATEGAKI
 70
    68
 40
0.0
 41
1.0
 50
0.0
 71
     0
 42
1.0
  3
txt
  4
bigfont.shx
  0
ENDTAB
  0
TABLE
  2
LAYER
 70
    2
  0
LAYER
  2
_0-0_
 70
   64
 62
    7
  6
CONTINUOUS
  0
LAYER
  2
ADD_LINE
 70
   64
 62
    7
  6
CONTINUOUS
  0
ENDTAB
  0
ENDSEC
  0
SECTION
  2
BLOCKS
  0
BLOCK
  2
-000-1
 70
   64
 10
0
 20
0
 30
0
  0
ARC
  8
_0-0_
  6
CONTINUOUS
 62
    7
 10
17.111353766898155
 20
-0.1015670165489117
 40
22.108812655273319
 50
79.850805960704577
 51
95.399271007772697
  0
ARC
  8
_0-0_
  6
CONTINUOUS
 62
    7
 10
19.090080273704636
 20
4.4708179843015055
 40
17.297043793286885
 50
66.781257817414343
 51
83.636572385163291
  0
ARC
  8
_0-0_
  6
CONTINUOUS
 62
    7
 10
15.669630908549884
 20
-3.1018689087958355
 40
25.605365500667478
 50
56.821113761144794
 51
66.427842526785213
  0
ARC
  8
_0-0_
  6
CONTINUOUS
 62
    7
 10
26.205981901389855
 20
-6.1124326386596257
 40
5.0378114174358961
 50
112.19032823433022
 51
181.62997579802695
  0
ARC
  8
_0-0_
  6
CONTINUOUS
 62
    7
 10
27.513842577386946
 20
-6.9467258227689248
 40
6.3811567435811858
 50
173.78343735687821
 51
226.2511681342032
  0
ARC
  8
_0-0_
  6
CONTINUOUS
 62
    7
 10
15.383067941749879
 20
-18.040539810675696
 40
13.597031636506816
 50
233.11346989557012
 51
266.53563964279653
  0
ARC
  8
_0-0_
  6
CONTINUOUS
 62
    7
 10
16.240711536026105
 20
-13.752149221903366
 40
17.939345367742135
 50
264.62874757807492
 51
282.67569798253771
  0
ARC
  8
_0-0_
  6
CONTINUOUS
 62
    7
 10
18.74695587933666
 20
-26.020537413077932
 40
5.425636312755544
 50
285.28412860120807
 51
316.29648877480321
  0
LINE
  8
_0-0_
  6
CONTINUOUS
 62
    7
 10
7.2216916251087397
 20
-28.915796402698533
 11
-17.528592827616045
 21
-14.133902377829813
  0
LINE
  8
_0-0_
  6
CONTINUOUS
 62
    7
 10
-17.528592827616045
 20
-14.133902377829813
 11
-11.773422357157877
 21
20.93427355445624
  0
LINE
  8
_0-0_
  6
CONTINUOUS
 62
    7
 10
-11.773422357157877
 20
20.93427355445624
 11
-11.447622434425618
 21
21.338714837847988
  0
LINE
  8
_0-0_
  6
CONTINUOUS
 62
    7
 10
-11.447622434425618
 20
21.338714837847988
 11
15.031010747574605
 21
21.909152416216699
  0
LINE
  8
_0-0_
  6
CONTINUOUS
 62
    7
 10
-10.492691626417262
 20
21.080321795681044
 11
14.942171306887325
 21
21.529700999449659
  0
LINE
  8
_0-0_
  6
CONTINUOUS
 62
    7
 10
14.942171306887325
 20
21.529700999449659
 11
7.0330973205594134
 21
-28.216576857737891
  0
LINE
  8
_0-0_
  6
CONTINUOUS
 62
    7
 10
7.0330973205594134
 20
-28.216576857737891
 11
-16.604248797670643
 21
-14.420635302040878
  0
LINE
  8
_0-0_
  6
CONTINUOUS
 62
    7
 10
-16.604248797670643
 20
-14.420635302040878
 11
-10.492691626417262
 21
21.080321795681044
  0
LINE
  8
_0-0_
  6
CONTINUOUS
 62
    7
 10
-10.492691626417262
 20
21.080321795681044
 11
-9.1445540151113462
 21
20.675880512289268
  0
LINE
  8
_0-0_
  6
CONTINUOUS
 62
    7
 10
-9.1445540151113462
 20
20.675880512289268
 11
-15.301049106741608
 21
-14.73520074467892
  0
LINE
  8
_0-0_
  6
CONTINUOUS
 62
    7
 10
-15.301049106741608
 20
-14.73520074467892
 11
-16.604248797670643
 21
-14.420635302040878
  0
LINE
  8
_0-0_
  6
CONTINUOUS
 62
    7
 10
15.346612590279101
 20
-31.631858806379483
 11
23.43543825811448
 21
21.260073477188485
  0
LINE
  8
_0-0_
  6
CONTINUOUS
 62
    7
 10
25.772210117711374
 20
20.451190910404961
 11
21.592983522663097
 21
-3.9051619338548837
  0
LINE
  8
_0-0_
  6
CONTINUOUS
 62
    7
 10
21.053728478140719
 20
-7.7248851658882662
 11
17.908074051760302
 21
-31.586920886002616
  0
LINE
  8
_0-0_
  6
CONTINUOUS
 62
    7
 10
17.234005246107351
 20
-31.541982965625763
 11
25.277892993565864
 21
20.675880512289268
  0
LINE
  8
_0-0_
  6
CONTINUOUS
 62
    7
 10
29.682290975128915
 20
18.328952360611311
 11
28.019106136554534
 21
7.7337594437526755
  0
LINE
  8
_0-0_
  6
CONTINUOUS
 62
    7
 10
28.019106136554534
 20
7.7337594437526755
 11
29.457119588614141
 21
7.3293181603609137
  0
LINE
  8
_0-0_
  6
CONTINUOUS
 62
    7
 10
29.457119588614141
 20
7.3293181603609137
 11
28.108981977308268
 21
-1.8380175965191929
  0
LINE
  8
_0-0_
  6
CONTINUOUS
 62
    7
 10
24.303278662286168
 20
-1.4477499847643278
 11
43.163185303557434
 21
-3.7254102523474435
  0
LINE
  8
_0-0_
  6
CONTINUOUS
 62
    7
 10
43.163185303557434
 20
-3.7254102523474435
 11
28.333671579192576
 21
-0.4000041444595572
  0
LINE
  8
_0-0_
  6
CONTINUOUS
 62
    7
 10
43.163185303557434
 20
-3.7254102523474435
 11
42.084675214512707
 21
-11.364856716414181
  0
LINE
  8
_0-0_
  6
CONTINUOUS
 62
    7
 10
42.084675214512707
 20
-11.364856716414181
 11
23.101283356993342
 21
-11.556333453866273
  0
LINE
  8
_0-0_
  6
CONTINUOUS
 62
    7
 10
26.626030604871765
 20
-11.589546318298503
 11
25.367768834319598
 21
-19.81318574726447
  0
LINE
  8
_0-0_
  6
CONTINUOUS
 62
    7
 10
25.367768834319598
 20
-19.81318574726447
 11
23.839879541506257
 21
-20.037875349148777
  0
LINE
  8
_0-0_
  6
CONTINUOUS
 62
    7
 10
28.019106136554534
 20
7.7337594437526755
 11
26.491216843741192
 21
-1.6582659150117385
  0
LINE
  8
_0-0_
  6
CONTINUOUS
 62
    7
 10
24.963327550927822
 20
-11.589546318298503
 11
22.669282955947288
 21
-29.769254487275248
  0
ARC
  8
_0-0_
  6
CONTINUOUS
 62
    7
 10
-8.4845846894838886
 20
18.73053393396367
 40
0.9302952280900975
 50
89.318291035884101
 51
177.8873469095233
  0
ARC
  8
_0-0_
  6
CONTINUOUS
 62
    7
 10
-9.2543117444118295
 20
10.564870286649835
 40
1.4443450440797689
 50
168.28214700269331
 51
240.10427097188486
  0
LINE
  8
_0-0_
  6
CONTINUOUS
 62
    7
 10
-9.414247574588579
 20
18.764828707122803
 11
-10.668556025177018
 21
10.85820579537787
  0
LINE
  8
_0-0_
  6
CONTINUOUS
 62
    7
 10
-9.9742067043155558
 20
9.3127185973313971
 11
12.446556849952707
 21
5.9305654537804466
  0
LINE
  8
_0-0_
  6
CONTINUOUS
 62
    7
 10
-8.4735162366472494
 20
19.660763314685994
 11
14.619198273293414
 21
19.705560045064146
  0
ARC
  8
_0-0_
  6
CONTINUOUS
 62
    7
 10
-8.3503252281073159
 20
18.205989495655302
 40
0.5865004547024158
 50
82.318599681415748
 51
166.86597769360472
  0
ARC
  8
_0-0_
  6
CONTINUOUS
 62
    7
 10
-9.4241545438068144
 20
10.727046137684141
 40
0.7296893031916872
 50
182.01281531982187
 51
252.93954380290165
  0
LINE
  8
_0-0_
  6
CONTINUOUS
 62
    7
 10
-8.9214835404288308
 20
18.339259768530297
 11
-10.153393625828194
 21
10.701417239054308
  0
LINE
  8
_0-0_
  6
CONTINUOUS
 62
    7
 10
-9.6382312264793697
 20
10.029466283381936
 11
12.513751945519964
 21
6.6921098702091237
  0
LINE
  8
_0-0_
  6
CONTINUOUS
 62
    7
 10
-8.2719309499455349
 20
18.787227072311907
 11
14.440011351780775
 21
18.697633611555574
  0
ARC
  8
_0-0_
  6
CONTINUOUS
 62
    7
 10
-8.2584146950900745
 20
17.915621723488613
 40
0.6253694137880857
 50
91.238443465076841
 51
147.71333454141367
  0
ARC
  8
_0-0_
  6
CONTINUOUS
 62
    7
 10
-9.1926985276096573
 20
11.266732499587377
 40
0.4146811882889189
 50
165.09891868292536
 51
241.29826234437195
  0
LINE
  8
_0-0_
  6
CONTINUOUS
 62
    7
 10
-8.7870933492943593
 20
18.249666307773992
 11
-9.5934344961012172
 21
11.37336819472668
  0
LINE
  8
_0-0_
  6
CONTINUOUS
 62
    7
 10
-9.3918492093995027
 20
10.903002525756023
 11
11.841800989847592
 21
8.170401972688353
  0
LINE
  8
_0-0_
  6
CONTINUOUS
 62
    7
 10
-8.2719309499455349
 20
18.540845055232012
 11
13.320093092326822
 21
18.182471212206764
  0
ARC
  8
_0-0_
  6
CONTINUOUS
 62
    7
 10
13.285206429999924
 20
17.512212219372401
 40
0.6711662958489758
 50
342.36983645515738
 51
87.020470607310287
  0
ARC
  8
_0-0_
  6
CONTINUOUS
 62
    7
 10
11.745941907111067
 20
8.9864622339054563
 40
0.8216710495574336
 50
276.69958686397223
 51
351.48165223762874
  0
ARC
  8
_0-0_
  6
CONTINUOUS
 62
    7
 10
11.625283459686493
 20
9.3089855364665084
 40
0.3955107076891333
 50
252.42014857334141
 51
340.70995378081557
  0
ARC
  8
_0-0_
  6
CONTINUOUS
 62
    7
 10
12.950520066707007
 20
16.939361944212862
 40
0.3959508978172627
 50
351.86989764584388
 51
81.869897645845001
  0
ARC
  8
_0-0_
  6
CONTINUOUS
 62
    7
 10
-8.3697764399820542
 20
17.59304054933628
 40
0.2218797407318451
 50
70.120925646139327
 51
166.48058588587503
  0
ARC
  8
_0-0_
  6
CONTINUOUS
 62
    7
 10
-8.8386095892291578
 20
11.917648468821398
 40
0.4138427566141231
 50
196.66954191446743
 51
241.90927181053462
  0
LINE
  8
_0-0_
  6
CONTINUOUS
 62
    7
 10
-8.5855080625926448
 20
17.644910447668849
 11
-9.2350606530759549
 21
11.798937133319185
  0
LINE
  8
_0-0_
  6
CONTINUOUS
 62
    7
 10
-9.0334753663742404
 20
11.552555116239319
 11
11.505825512011391
 21
8.9319463891170585
  0
LINE
  8
_0-0_
  6
CONTINUOUS
 62
    7
 10
11.998589546171125
 20
9.1783284061969255
 11
13.342491457515898
 21
16.883366031240172
  0
LINE
  8
_0-0_
  6
CONTINUOUS
 62
    7
 10
13.924848952431937
 20
17.308934969832677
 11
12.558548675898116
 21
8.8647512935498156
  0
LINE
  8
_0-0_
  6
CONTINUOUS
 62
    7
 10
13.006515979679698
 20
17.331333335021753
 11
-8.2943293151346253
 21
17.801699003992411
  0
LINE
  8
_0-0_
  6
CONTINUOUS
 62
    7
 10
-8.0927440284329109
 20
16.995357857185553
 11
13.118507805625107
 21
16.144219980000543
  0
LINE
  8
_0-0_
  6
CONTINUOUS
 62
    7
 10
-8.0927440284329109
 20
16.995357857185553
 11
-8.7198982537271306
 21
12.02292078520999
  0
LINE
  8
_0-0_
  6
CONTINUOUS
 62
    7
 10
-8.7198982537271306
 20
12.02292078520999
 11
12.065784641738382
 21
9.6038973447894307
  0
LINE
  8
_0-0_
  6
CONTINUOUS
 62
    7
 10
-7.91270111844171
 20
16.626569487671105
 11
-7.9236863039166039
 21
16.26405836699945
  0
LINE
  8
_0-0_
  6
CONTINUOUS
 62
    7
 10
-7.9236863039166039
 20
16.26405836699945
 11
-7.5941307396696445
 21
16.253073181524542
  0
LINE
  8
_0-0_
  6
CONTINUOUS
 62
    7
 10
-7.0338862804497992
 20
16.626569487671105
 11
-7.0558566513996013
 21
16.231102810574754
  0
LINE
  8
_0-0_
  6
CONTINUOUS
 62
    7
 10
-7.0558566513996013
 20
16.231102810574754
 11
-6.7043307162028398
 21
16.209132439624966
  0
LINE
  8
_0-0_
  6
CONTINUOUS
 62
    7
 10
-8.0060751949783295
 20
15.566499089343395
 11
-8.0280455659281316
 21
15.17103241224703
  0
LINE
  8
_0-0_
  6
CONTINUOUS
 62
    7
 10
-8.0280455659281316
 20
15.17103241224703
 11
-7.6765196307313701
 21
15.149062041297242
  0
LINE
  8
_0-0_
  6
CONTINUOUS
 62
    7
 10
-8.1378974206771133
 20
14.577832396602503
 11
-8.1598677916269153
 21
14.182365719506151
  0
LINE
  8
_0-0_
  6
CONTINUOUS
 62
    7
 10
-8.1598677916269153
 20
14.182365719506151
 11
-7.8083418564301539
 21
14.160395348556349
  0
LINE
  8
_0-0_
  6
CONTINUOUS
 62
    7
 10
-8.2697196463758971
 20
13.611136074811412
 11
-8.2916900173256991
 21
13.215669397715061
  0
LINE
  8
_0-0_
  6
CONTINUOUS
 62
    7
 10
-8.2916900173256991
 20
13.215669397715061
 11
-7.9401640821289377
 21
13.193699026765259
  0
LINE
  8
_0-0_
  6
CONTINUOUS
 62
    7
 10
-8.4235122430244829
 20
12.600499011120732
 11
-8.4454826139742849
 21
12.205032334024381
  0
LINE
  8
_0-0_
  6
CONTINUOUS
 62
    7
 10
-8.4454826139742849
 20
12.205032334024381
 11
-8.0939566787775235
 21
12.183061963074579
  0
LINE
  8
_0-0_
  6
CONTINUOUS
 62
    7
 10
-7.149230727936235
 20
15.544528718393593
 11
-7.1712010988860371
 21
15.149062041297228
  0
LINE
  8
_0-0_
  6
CONTINUOUS
 62
    7
 10
-7.1712010988860371
 20
15.149062041297228
 11
-6.8196751636892756
 21
15.12709167034744
  0
LINE
  8
_0-0_
  6
CONTINUOUS
 62
    7
 10
-7.3249936955346087
 20
14.489950912803323
 11
-7.3469640664844107
 21
14.094484235706958
  0
LINE
  8
_0-0_
  6
CONTINUOUS
 62
    7
 10
-7.3469640664844107
 20
14.094484235706958
 11
-6.9954381312876492
 21
14.07251386475717
  0
LINE
  8
_0-0_
  6
CONTINUOUS
 62
    7
 10
-7.5227270340827843
 20
13.501284220062431
 11
-7.5446974050325863
 21
13.105817542966079
  0
LINE
  8
_0-0_
  6
CONTINUOUS
 62
    7
 10
-7.5446974050325863
 20
13.105817542966079
 11
-7.1931714698358249
 21
13.083847172016277
  0
LINE
  8
_0-0_
  6
CONTINUOUS
 62
    7
 10
-7.6325788888317661
 20
12.53458789827134
 11
-7.6545492597815681
 21
12.139121221174989
  0
LINE
  8
_0-0_
  6
CONTINUOUS
 62
    7
 10
-7.6545492597815681
 20
12.139121221174989
 11
-7.3030233245848066
 21
12.117150850225187
  0
LINE
  8
_0-0_
  6
CONTINUOUS
 62
    7
 10
-6.1166232932957527
 20
16.555165782084259
 11
-6.1385936642455547
 21
16.159699104987908
  0
LINE
  8
_0-0_
  6
CONTINUOUS
 62
    7
 10
-6.1385936642455547
 20
16.159699104987908
 11
-5.7870677290487933
 21
16.13772873403812
  0
LINE
  8
_0-0_
  6
CONTINUOUS
 62
    7
 10
-6.2923862608941263
 20
15.500587976494003
 11
-6.3143566318439284
 21
15.105121299397638
  0
LINE
  8
_0-0_
  6
CONTINUOUS
 62
    7
 10
-6.3143566318439284
 20
15.105121299397638
 11
-5.9628306966471669
 21
15.08315092844785
  0
LINE
  8
_0-0_
  6
CONTINUOUS
 62
    7
 10
-6.4681492284925
 20
14.489950912803323
 11
-6.490119599442302
 21
14.094484235706958
  0
LINE
  8
_0-0_
  6
CONTINUOUS
 62
    7
 10
-6.490119599442302
 20
14.094484235706958
 11
-6.1385936642455405
 21
14.07251386475717
  0
LINE
  8
_0-0_
  6
CONTINUOUS
 62
    7
 10
-6.6219418251410858
 20
13.391432365313449
 11
-6.6439121960908878
 21
12.995965688217083
  0
LINE
  8
_0-0_
  6
CONTINUOUS
 62
    7
 10
-6.6439121960908878
 20
12.995965688217083
 11
-6.2923862608941263
 21
12.973995317267295
  0
LINE
  8
_0-0_
  6
CONTINUOUS
 62
    7
 10
-6.8636159055888655
 20
12.44670641447216
 11
-6.8855862765386675
 21
12.051239737375795
  0
LINE
  8
_0-0_
  6
CONTINUOUS
 62
    7
 10
-6.8855862765386675
 20
12.051239737375795
 11
-6.5340603413419061
 21
12.029269366426007
  0
LINE
  8
_0-0_
  6
CONTINUOUS
 62
    7
 10
-5.1938677134042521
 20
16.621076894933651
 11
-5.2158380843540542
 21
16.2256102178373
  0
LINE
  8
_0-0_
  6
CONTINUOUS
 62
    7
 10
-5.2158380843540542
 20
16.2256102178373
 11
-4.8643121491572927
 21
16.203639846887512
  0
LINE
  8
_0-0_
  6
CONTINUOUS
 62
    7
 10
-6.2045047770949324
 20
12.292913817823575
 11
-6.2264751480447345
 21
11.897447140727209
  0
LINE
  8
_0-0_
  6
CONTINUOUS
 62
    7
 10
-6.2264751480447345
 20
11.897447140727209
 11
-5.874949212847973
 21
11.875476769777421
  0
LINE
  8
_0-0_
  6
CONTINUOUS
 62
    7
 10
-5.3916010519524278
 20
12.205032334024381
 11
-5.4135714229022298
 21
11.809565656928029
  0
LINE
  8
_0-0_
  6
CONTINUOUS
 62
    7
 10
-5.4135714229022298
 20
11.809565656928029
 11
-5.0620454877054684
 21
11.787595285978227
  0
LINE
  8
_0-0_
  6
CONTINUOUS
 62
    7
 10
-4.2271713916131617
 20
16.577136153034076
 11
-4.2491417625629779
 21
16.181669475937696
  0
LINE
  8
_0-0_
  6
CONTINUOUS
 62
    7
 10
-4.2491417625629779
 20
16.181669475937696
 11
-3.8976158273662023
 21
16.159699104987908
  0
LINE
  8
_0-0_
  6
CONTINUOUS
 62
    7
 10
-4.4029343592115495
 20
15.478617605544201
 11
-4.4249047301613373
 21
15.083150928447836
  0
LINE
  8
_0-0_
  6
CONTINUOUS
 62
    7
 10
-4.4249047301613373
 20
15.083150928447836
 11
-4.0733787949645901
 21
15.061180557498048
  0
LINE
  8
_0-0_
  6
CONTINUOUS
 62
    7
 10
-4.6446084396593008
 20
14.424039799953931
 11
-4.6665788106091171
 21
14.028573122857566
  0
LINE
  8
_0-0_
  6
CONTINUOUS
 62
    7
 10
-4.6665788106091171
 20
14.028573122857566
 11
-4.3150528754123414
 21
14.006602751907778
  0
LINE
  8
_0-0_
  6
CONTINUOUS
 62
    7
 10
-4.7324899234585089
 20
13.281580510564453
 11
-4.754460294408311
 21
12.886113833468102
  0
LINE
  8
_0-0_
  6
CONTINUOUS
 62
    7
 10
-4.754460294408311
 20
12.886113833468102
 11
-4.4029343592115495
 21
12.8641434625183
  0
LINE
  8
_0-0_
  6
CONTINUOUS
 62
    7
 10
-4.5786973268099089
 20
12.117150850225201
 11
-4.6006676977597252
 21
11.721684173128835
  0
LINE
  8
_0-0_
  6
CONTINUOUS
 62
    7
 10
-4.6006676977597252
 20
11.721684173128835
 11
-4.2491417625629495
 21
11.699713802179048
  0
LINE
  8
_0-0_
  6
CONTINUOUS
 62
    7
 10
-3.8317047145168104
 20
12.051239737375795
 11
-3.8536750854665982
 21
11.655773060279444
  0
LINE
  8
_0-0_
  6
CONTINUOUS
 62
    7
 10
-3.8536750854665982
 20
11.655773060279444
 11
-3.502149150269851
 21
11.633802689329642
  0
LINE
  8
_0-0_
  6
CONTINUOUS
 62
    7
 10
-3.7657936016674185
 20
13.061876801066489
 11
-3.7877639726172063
 21
12.666410123970124
  0
LINE
  8
_0-0_
  6
CONTINUOUS
 62
    7
 10
-3.7877639726172063
 20
12.666410123970124
 11
-3.4362380374204591
 21
12.644439753020336
  0
LINE
  8
_0-0_
  6
CONTINUOUS
 62
    7
 10
-3.5680602631192428
 20
14.380099058054327
 11
-3.5900306340690307
 21
13.984632380957976
  0
LINE
  8
_0-0_
  6
CONTINUOUS
 62
    7
 10
-3.5900306340690307
 20
13.984632380957976
 11
-3.2385046988722834
 21
13.962662010008174
  0
LINE
  8
_0-0_
  6
CONTINUOUS
 62
    7
 10
-3.4142676664706713
 20
15.434676863644611
 11
-3.4362380374204591
 21
15.039210186548246
  0
LINE
  8
_0-0_
  6
CONTINUOUS
 62
    7
 10
-3.4362380374204591
 20
15.039210186548246
 11
-3.0847121022237118
 21
15.017239815598458
  0
LINE
  8
_0-0_
  6
CONTINUOUS
 62
    7
 10
-3.2824454407718591
 20
16.489254669234867
 11
-3.3044158117216753
 21
16.09378799213853
  0
LINE
  8
_0-0_
  6
CONTINUOUS
 62
    7
 10
-3.3044158117216753
 20
16.09378799213853
 11
-2.9528898765248996
 21
16.071817621188728
  0
LINE
  8
_0-0_
  6
CONTINUOUS
 62
    7
 10
-2.271808377081193
 20
16.445313927335292
 11
-2.2937787480309808
 21
16.049847250238926
  0
LINE
  8
_0-0_
  6
CONTINUOUS
 62
    7
 10
-2.2937787480309808
 20
16.049847250238926
 11
-1.9422528128342336
 21
16.027876879289138
  0
LINE
  8
_0-0_
  6
CONTINUOUS
 62
    7
 10
-2.4475713446795808
 20
15.36876575079522
 11
-2.4695417156293686
 21
14.973299073698854
  0
LINE
  8
_0-0_
  6
CONTINUOUS
 62
    7
 10
-2.4695417156293686
 20
14.973299073698854
 11
-2.1180157804326214
 21
14.951328702749066
  0
LINE
  8
_0-0_
  6
CONTINUOUS
 62
    7
 10
-2.5574231994285483
 20
14.380099058054327
 11
-2.5793935703783646
 21
13.984632380957976
  0
LINE
  8
_0-0_
  6
CONTINUOUS
 62
    7
 10
-2.5793935703783646
 20
13.984632380957976
 11
-2.2278676351815889
 21
13.962662010008174
  0
LINE
  8
_0-0_
  6
CONTINUOUS
 62
    7
 10
-2.8430380217759321
 20
13.061876801066489
 11
-2.8650083927257199
 21
12.666410123970124
  0
LINE
  8
_0-0_
  6
CONTINUOUS
 62
    7
 10
-2.8650083927257199
 20
12.666410123970124
 11
-2.5134824575289727
 21
12.644439753020336
  0
LINE
  8
_0-0_
  6
CONTINUOUS
 62
    7
 10
-3.0407713603241078
 20
11.985328624526403
 11
-3.0627417312738956
 21
11.589861947430052
  0
LINE
  8
_0-0_
  6
CONTINUOUS
 62
    7
 10
-3.0627417312738956
 20
11.589861947430052
 11
-2.7112157960771484
 21
11.56789157648025
  0
LINE
  8
_0-0_
  6
CONTINUOUS
 62
    7
 10
-1.2611713133904985
 20
16.423343556385475
 11
-1.2831416843403147
 21
16.027876879289138
  0
LINE
  8
_0-0_
  6
CONTINUOUS
 62
    7
 10
-1.2831416843403147
 20
16.027876879289138
 11
-0.931615749143539
 21
16.005906508339336
  0
LINE
  8
_0-0_
  6
CONTINUOUS
 62
    7
 10
-0.2944749915994364
 20
16.313491701636508
 11
-0.3164453625492242
 21
15.918025024540142
  0
LINE
  8
_0-0_
  6
CONTINUOUS
 62
    7
 10
-0.3164453625492242
 20
15.918025024540142
 11
0.0350805726475229
 21
15.896054653590355
  0
LINE
  8
_0-0_
  6
CONTINUOUS
 62
    7
 10
-0.4043268463484039
 20
15.149062041297242
 11
-0.4262972172982202
 21
14.753595364200876
  0
LINE
  8
_0-0_
  6
CONTINUOUS
 62
    7
 10
-0.4262972172982202
 20
14.753595364200876
 11
-0.0747712821014445
 21
14.731624993251089
  0
LINE
  8
_0-0_
  6
CONTINUOUS
 62
    7
 10
-0.5361490720471877
 20
13.918721268108584
 11
-0.558119442997004
 21
13.523254591012218
  0
LINE
  8
_0-0_
  6
CONTINUOUS
 62
    7
 10
-0.558119442997004
 20
13.523254591012218
 11
-0.2065935078002283
 21
13.501284220062431
  0
LINE
  8
_0-0_
  6
CONTINUOUS
 62
    7
 10
-0.6679712977459715
 20
12.77626197871912
 11
-0.6899416686957877
 21
12.380795301622754
  0
LINE
  8
_0-0_
  6
CONTINUOUS
 62
    7
 10
-0.6899416686957877
 20
12.380795301622754
 11
-0.3384157334990121
 21
12.358824930672967
  0
LINE
  8
_0-0_
  6
CONTINUOUS
 62
    7
 10
-1.9422528128342336
 20
11.897447140727223
 11
-1.9642231837840214
 21
11.501980463630858
  0
LINE
  8
_0-0_
  6
CONTINUOUS
 62
    7
 10
-1.9642231837840214
 20
11.501980463630858
 11
-1.6126972485872741
 21
11.48001009268107
  0
LINE
  8
_0-0_
  6
CONTINUOUS
 62
    7
 10
-0.8217638943945715
 20
11.787595285978227
 11
-0.8437342653443593
 21
11.392128608881876
  0
LINE
  8
_0-0_
  6
CONTINUOUS
 62
    7
 10
-0.8437342653443593
 20
11.392128608881876
 11
-0.4922083301476121
 21
11.370158237932074
  0
LINE
  8
_0-0_
  6
CONTINUOUS
 62
    7
 10
0.8479842977900418
 20
16.291521330686692
 11
0.8260139268402539
 21
15.89605465359034
  0
LINE
  8
_0-0_
  6
CONTINUOUS
 62
    7
 10
0.8260139268402539
 20
15.89605465359034
 11
1.1775398620370012
 21
15.874084282640553
  0
LINE
  8
_0-0_
  6
CONTINUOUS
 62
    7
 10
0.8040435558904377
 20
15.08315092844785
 11
0.7820731849406499
 21
14.687684251351484
  0
LINE
  8
_0-0_
  6
CONTINUOUS
 62
    7
 10
0.7820731849406499
 20
14.687684251351484
 11
1.1335991201373972
 21
14.665713880401697
  0
LINE
  8
_0-0_
  6
CONTINUOUS
 62
    7
 10
0.606310217342262
 20
13.896750897158782
 11
0.5843398463924742
 21
13.501284220062431
  0
LINE
  8
_0-0_
  6
CONTINUOUS
 62
    7
 10
0.5843398463924742
 20
13.501284220062431
 11
0.9358657815892215
 21
13.479313849112629
  0
LINE
  8
_0-0_
  6
CONTINUOUS
 62
    7
 10
0.4305472497439026
 20
11.611832318379854
 11
0.4085768787940864
 21
11.216365641283488
  0
LINE
  8
_0-0_
  6
CONTINUOUS
 62
    7
 10
0.4085768787940864
 20
11.216365641283488
 11
0.7601028139908621
 21
11.1943952703337
  0
LINE
  8
_0-0_
  6
CONTINUOUS
 62
    7
 10
0.4305472497439026
 20
12.600499011120732
 11
0.4085768787940864
 21
12.205032334024381
  0
LINE
  8
_0-0_
  6
CONTINUOUS
 62
    7
 10
0.4085768787940864
 20
12.205032334024381
 11
0.7601028139908621
 21
12.183061963074579
  0
LINE
  8
_0-0_
  6
CONTINUOUS
 62
    7
 10
2.0124139581293079
 20
16.269550959736904
 11
1.9904435871794917
 21
15.874084282640553
  0
LINE
  8
_0-0_
  6
CONTINUOUS
 62
    7
 10
1.9904435871794917
 20
15.874084282640553
 11
2.3419695223762673
 21
15.852113911690751
  0
LINE
  8
_0-0_
  6
CONTINUOUS
 62
    7
 10
1.9245324743301282
 20
15.039210186548246
 11
1.902562103380312
 21
14.643743509451895
  0
LINE
  8
_0-0_
  6
CONTINUOUS
 62
    7
 10
1.902562103380312
 20
14.643743509451895
 11
2.2540880385770876
 21
14.621773138502093
  0
LINE
  8
_0-0_
  6
CONTINUOUS
 62
    7
 10
1.8146806195811322
 20
13.852810155259192
 11
1.792710248631316
 21
13.457343478162827
  0
LINE
  8
_0-0_
  6
CONTINUOUS
 62
    7
 10
1.792710248631316
 20
13.457343478162827
 11
2.1442361838280917
 21
13.435373107213039
  0
LINE
  8
_0-0_
  6
CONTINUOUS
 62
    7
 10
1.6169472810329566
 20
12.468676785421948
 11
1.5949769100831404
 21
12.073210108325597
  0
LINE
  8
_0-0_
  6
CONTINUOUS
 62
    7
 10
1.5949769100831404
 20
12.073210108325597
 11
1.946502845279916
 21
12.051239737375795
  0
LINE
  8
_0-0_
  6
CONTINUOUS
 62
    7
 10
1.5070954262839606
 20
11.545921205530462
 11
1.4851250553341728
 21
11.150454528434096
  0
LINE
  8
_0-0_
  6
CONTINUOUS
 62
    7
 10
1.4851250553341728
 20
11.150454528434096
 11
1.8366509905309201
 21
11.128484157484309
  0
LINE
  8
_0-0_
  6
CONTINUOUS
 62
    7
 10
3.2207843603681781
 20
16.203639846887512
 11
3.1988139894183618
 21
15.808173169791161
  0
LINE
  8
_0-0_
  6
CONTINUOUS
 62
    7
 10
3.1988139894183618
 20
15.808173169791161
 11
3.5503399246151375
 21
15.786202798841359
  0
LINE
  8
_0-0_
  6
CONTINUOUS
 62
    7
 10
2.6495547156734389
 20
11.348187866982286
 11
2.6275843447236227
 21
10.952721189885921
  0
LINE
  8
_0-0_
  6
CONTINUOUS
 62
    7
 10
2.6275843447236227
 20
10.952721189885921
 11
2.9791102799203983
 21
10.930750818936133
  0
LINE
  8
_0-0_
  6
CONTINUOUS
 62
    7
 10
3.6162510374645294
 20
11.326217496032484
 11
3.5942806665147131
 21
10.930750818936133
  0
LINE
  8
_0-0_
  6
CONTINUOUS
 62
    7
 10
3.5942806665147131
 20
10.930750818936133
 11
3.9458066017114888
 21
10.908780447986331
  0
LINE
  8
_0-0_
  6
CONTINUOUS
 62
    7
 10
3.8579251179122807
 20
12.578528640170944
 11
3.8359547469624928
 21
12.183061963074579
  0
LINE
  8
_0-0_
  6
CONTINUOUS
 62
    7
 10
3.8359547469624928
 20
12.183061963074579
 11
4.1874806821592401
 21
12.161091592124791
  0
LINE
  8
_0-0_
  6
CONTINUOUS
 62
    7
 10
4.0336880855106685
 20
13.720987929560408
 11
4.0117177145608807
 21
13.325521252464043
  0
LINE
  8
_0-0_
  6
CONTINUOUS
 62
    7
 10
4.0117177145608807
 20
13.325521252464043
 11
4.3632436497576279
 21
13.303550881514255
  0
LINE
  8
_0-0_
  6
CONTINUOUS
 62
    7
 10
4.0995991983600604
 20
14.885417589899674
 11
4.0776288274102725
 21
14.489950912803309
  0
LINE
  8
_0-0_
  6
CONTINUOUS
 62
    7
 10
4.0776288274102725
 20
14.489950912803309
 11
4.4291547626070198
 21
14.467980541853521
  0
LINE
  8
_0-0_
  6
CONTINUOUS
 62
    7
 10
4.4291547626070198
 20
16.13772873403812
 11
4.407184391657232
 21
15.742262056941769
  0
LINE
  8
_0-0_
  6
CONTINUOUS
 62
    7
 10
4.407184391657232
 20
15.742262056941769
 11
4.7587103268539792
 21
15.720291685991967
  0
LINE
  8
_0-0_
  6
CONTINUOUS
 62
    7
 10
5.7693473905446737
 20
16.027876879289138
 11
5.7473770195948575
 21
15.632410202192773
  0
LINE
  8
_0-0_
  6
CONTINUOUS
 62
    7
 10
5.7473770195948575
 20
15.632410202192773
 11
6.0989029547916331
 21
15.610439831242985
  0
LINE
  8
_0-0_
  6
CONTINUOUS
 62
    7
 10
5.3738807134483224
 20
14.929358331799264
 11
5.3519103424985062
 21
14.533891654702913
  0
LINE
  8
_0-0_
  6
CONTINUOUS
 62
    7
 10
5.3519103424985062
 20
14.533891654702913
 11
5.7034362776952818
 21
14.511921283753111
  0
LINE
  8
_0-0_
  6
CONTINUOUS
 62
    7
 10
5.1761473749001468
 20
13.501284220062431
 11
5.1541770039503305
 21
13.105817542966079
  0
LINE
  8
_0-0_
  6
CONTINUOUS
 62
    7
 10
5.1541770039503305
 20
13.105817542966079
 11
5.5057029391471062
 21
13.083847172016277
  0
LINE
  8
_0-0_
  6
CONTINUOUS
 62
    7
 10
5.1102362620507549
 20
12.358824930672967
 11
5.0882658911009386
 21
11.963358253576601
  0
LINE
  8
_0-0_
  6
CONTINUOUS
 62
    7
 10
5.0882658911009386
 20
11.963358253576601
 11
5.4397918262977143
 21
11.941387882626813
  0
LINE
  8
_0-0_
  6
CONTINUOUS
 62
    7
 10
4.6927992140045873
 20
11.150454528434111
 11
4.6708288430547995
 21
10.754987851337745
  0
LINE
  8
_0-0_
  6
CONTINUOUS
 62
    7
 10
4.6708288430547995
 20
10.754987851337745
 11
5.0223547782515467
 21
10.733017480387957
  0
LINE
  8
_0-0_
  6
CONTINUOUS
 62
    7
 10
5.7473770195948575
 20
11.018632302735327
 11
5.7254066486450697
 21
10.623165625638961
  0
LINE
  8
_0-0_
  6
CONTINUOUS
 62
    7
 10
5.7254066486450697
 20
10.623165625638961
 11
6.0769325838418169
 21
10.601195254689173
  0
LINE
  8
_0-0_
  6
CONTINUOUS
 62
    7
 10
6.758014083285552
 20
10.842869335136939
 11
6.7360437123357357
 21
10.447402658040588
  0
LINE
  8
_0-0_
  6
CONTINUOUS
 62
    7
 10
6.7360437123357357
 20
10.447402658040588
 11
7.0875696475325114
 21
10.425432287090786
  0
LINE
  8
_0-0_
  6
CONTINUOUS
 62
    7
 10
6.2526955514402047
 20
12.227002704974183
 11
6.2307251804904169
 21
11.831536027877817
  0
LINE
  8
_0-0_
  6
CONTINUOUS
 62
    7
 10
6.2307251804904169
 20
11.831536027877817
 11
6.5822511156871641
 21
11.809565656928029
  0
LINE
  8
_0-0_
  6
CONTINUOUS
 62
    7
 10
6.4064881480888047
 20
13.413402736263237
 11
6.3845177771389885
 21
13.017936059166885
  0
LINE
  8
_0-0_
  6
CONTINUOUS
 62
    7
 10
6.3845177771389885
 20
13.017936059166885
 11
6.7360437123357642
 21
12.995965688217083
  0
LINE
  8
_0-0_
  6
CONTINUOUS
 62
    7
 10
6.7140733413859479
 20
14.819506477050282
 11
6.6921029704361601
 21
14.424039799953917
  0
LINE
  8
_0-0_
  6
CONTINUOUS
 62
    7
 10
6.6921029704361601
 20
14.424039799953917
 11
7.0436289056329073
 21
14.402069429004129
  0
LINE
  8
_0-0_
  6
CONTINUOUS
 62
    7
 10
6.7799844542353398
 20
15.939995395489944
 11
6.758014083285552
 21
15.544528718393593
  0
LINE
  8
_0-0_
  6
CONTINUOUS
 62
    7
 10
6.758014083285552
 20
15.544528718393593
 11
7.1095400184822992
 21
15.522558347443791
  0
LINE
  8
_0-0_
  6
CONTINUOUS
 62
    7
 10
8.032295598373814
 20
16.071817621188728
 11
8.0103252274239978
 21
15.676350944092377
  0
LINE
  8
_0-0_
  6
CONTINUOUS
 62
    7
 10
8.0103252274239978
 20
15.676350944092377
 11
8.3618511626207734
 21
15.654380573142575
  0
LINE
  8
_0-0_
  6
CONTINUOUS
 62
    7
 10
9.4823400810604355
 20
15.896054653590355
 11
9.4603697101106192
 21
15.500587976493989
  0
LINE
  8
_0-0_
  6
CONTINUOUS
 62
    7
 10
9.4603697101106192
 20
15.500587976493989
 11
9.8118956453073949
 21
15.478617605544201
  0
LINE
  8
_0-0_
  6
CONTINUOUS
 62
    7
 10
9.3724882263114395
 20
14.599802767552305
 11
9.3505178553616517
 21
14.204336090455939
  0
LINE
  8
_0-0_
  6
CONTINUOUS
 62
    7
 10
9.3505178553616517
 20
14.204336090455939
 11
9.7020437905583989
 21
14.182365719506151
  0
LINE
  8
_0-0_
  6
CONTINUOUS
 62
    7
 10
9.0209622911146923
 20
13.193699026765273
 11
8.998991920164876
 21
12.798232349668908
  0
LINE
  8
_0-0_
  6
CONTINUOUS
 62
    7
 10
8.998991920164876
 20
12.798232349668908
 11
9.3505178553616517
 21
12.77626197871912
  0
LINE
  8
_0-0_
  6
CONTINUOUS
 62
    7
 10
8.8451993235163044
 20
11.963358253576615
 11
8.8232289525665166
 21
11.56789157648025
  0
LINE
  8
_0-0_
  6
CONTINUOUS
 62
    7
 10
8.8232289525665166
 20
11.56789157648025
 11
9.1747548877632639
 21
11.545921205530462
  0
LINE
  8
_0-0_
  6
CONTINUOUS
 62
    7
 10
8.9330808073154842
 20
10.711047109438155
 11
8.9111104363656963
 21
10.315580432341804
  0
LINE
  8
_0-0_
  6
CONTINUOUS
 62
    7
 10
8.9111104363656963
 20
10.315580432341804
 11
9.2626363715624436
 21
10.293610061392002
  0
LINE
  8
_0-0_
  6
CONTINUOUS
 62
    7
 10
7.8345622598256384
 20
10.842869335136939
 11
7.8125918888758221
 21
10.447402658040588
  0
LINE
  8
_0-0_
  6
CONTINUOUS
 62
    7
 10
7.8125918888758221
 20
10.447402658040588
 11
8.1641178240725978
 21
10.425432287090786
  0
LINE
  8
_0-0_
  6
CONTINUOUS
 62
    7
 10
10.229332693353534
 20
10.557254512789584
 11
10.207362322403746
 21
10.161787835693218
  0
LINE
  8
_0-0_
  6
CONTINUOUS
 62
    7
 10
10.207362322403746
 20
10.161787835693218
 11
10.558888257600493
 21
10.13981746474343
  0
LINE
  8
_0-0_
  6
CONTINUOUS
 62
    7
 10
10.25130306430335
 20
11.853506398827619
 11
10.229332693353534
 21
11.458039721731268
  0
LINE
  8
_0-0_
  6
CONTINUOUS
 62
    7
 10
10.229332693353534
 20
11.458039721731268
 11
10.58085862855031
 21
11.436069350781466
  0
LINE
  8
_0-0_
  6
CONTINUOUS
 62
    7
 10
10.492977144751102
 20
13.347491623413845
 11
10.471006773801314
 21
12.952024946317493
  0
LINE
  8
_0-0_
  6
CONTINUOUS
 62
    7
 10
10.471006773801314
 20
12.952024946317493
 11
10.822532708998061
 21
12.930054575367691
  0
LINE
  8
_0-0_
  6
CONTINUOUS
 62
    7
 10
10.690710483299306
 20
14.489950912803323
 11
10.668740112349489
 21
14.094484235706958
  0
LINE
  8
_0-0_
  6
CONTINUOUS
 62
    7
 10
10.668740112349489
 20
14.094484235706958
 11
11.020266047546265
 21
14.07251386475717
  0
LINE
  8
_0-0_
  6
CONTINUOUS
 62
    7
 10
10.932384563747057
 20
15.896054653590355
 11
10.910414192797269
 21
15.500587976493989
  0
LINE
  8
_0-0_
  6
CONTINUOUS
 62
    7
 10
10.910414192797269
 20
15.500587976493989
 11
11.261940127994016
 21
15.478617605544201
  0
LINE
  8
_0-0_
  6
CONTINUOUS
 62
    7
 10
12.316517933584315
 20
15.830143540740963
 11
12.294547562634499
 21
15.434676863644597
  0
LINE
  8
_0-0_
  6
CONTINUOUS
 62
    7
 10
12.294547562634499
 20
15.434676863644597
 11
12.646073497831274
 21
15.412706492694809
  0
LINE
  8
_0-0_
  6
CONTINUOUS
 62
    7
 10
12.184695707885531
 20
14.511921283753111
 11
12.162725336935715
 21
14.11645460665676
  0
LINE
  8
_0-0_
  6
CONTINUOUS
 62
    7
 10
12.162725336935715
 20
14.11645460665676
 11
12.514251272132491
 21
14.094484235706958
  0
LINE
  8
_0-0_
  6
CONTINUOUS
 62
    7
 10
11.87711051458836
 20
13.105817542966079
 11
11.855140143638543
 21
12.710350865869714
  0
LINE
  8
_0-0_
  6
CONTINUOUS
 62
    7
 10
11.855140143638543
 20
12.710350865869714
 11
12.206666078835319
 21
12.688380494919926
  0
LINE
  8
_0-0_
  6
CONTINUOUS
 62
    7
 10
11.63543643414058
 20
11.831536027877831
 11
11.613466063190792
 21
11.436069350781466
  0
LINE
  8
_0-0_
  6
CONTINUOUS
 62
    7
 10
11.613466063190792
 20
11.436069350781466
 11
11.964991998387539
 21
11.414098979831678
  0
LINE
  8
_0-0_
  6
CONTINUOUS
 62
    7
 10
11.437703095592404
 20
10.425432287090786
 11
11.415732724642588
 21
10.029965609994434
  0
LINE
  8
_0-0_
  6
CONTINUOUS
 62
    7
 10
11.415732724642588
 20
10.029965609994434
 11
11.767258659839364
 21
10.007995239044632
  0
ARC
  8
_0-0_
  6
CONTINUOUS
 62
    7
 10
-10.482953637905943
 20
6.8520536744755711
 40
0.8508337035195033
 50
75.276095420571679
 51
188.99909412720436
  0
ARC
  8
_0-0_
  6
CONTINUOUS
 62
    7
 10
-11.695495449090267
 20
-1.2707193584257075
 40
1.1035831649079304
 50
170.03875228784861
 51
255.19973385453707
  0
ARC
  8
_0-0_
  6
CONTINUOUS
 62
    7
 10
-10.3764821249029
 20
6.5314304438330177
 40
0.501585751875817
 50
77.357847672109969
 51
170.02228737984962
  0
ARC
  8
_0-0_
  6
CONTINUOUS
 62
    7
 10
-10.644065122690613
 20
-0.7024586331090736
 40
1.7447687595970836
 50
204.7174409110828
 51
227.3373058591248
  0
ARC
  8
_0-0_
  6
CONTINUOUS
 62
    7
 10
-10.388116168284974
 20
5.8625226674980988
 40
0.2359818953203557
 50
59.03624346792531
 51
192.03911211602284
  0
ARC
  8
_0-0_
  6
CONTINUOUS
 62
    7
 10
-11.591659613431268
 20
-0.886946056085093
 40
0.3052474346490831
 50
159.07549825507726
 51
254.05460409907931
  0
LINE
  8
_0-0_
  6
CONTINUOUS
 62
    7
 10
-10.266704484784903
 20
7.6749475283954647
 11
11.972415775785542
 21
3.44850838385267
  0
LINE
  8
_0-0_
  6
CONTINUOUS
 62
    7
 10
-10.266704484784903
 20
7.0208557560257541
 11
11.871786272344046
 21
2.4422133494377087
  0
LINE
  8
_0-0_
  6
CONTINUOUS
 62
    7
 10
-10.266704484784903
 20
6.0648754733315409
 11
11.720842017181802
 21
1.4862330667435097
  0
LINE
  8
_0-0_
  6
CONTINUOUS
 62
    7
 10
-11.323314270920612
 20
6.7189672457012657
 11
-12.782442070822277
 21
-1.0798192710146273
  0
LINE
  8
_0-0_
  6
CONTINUOUS
 62
    7
 10
-10.870481505433879
 20
6.6183377422597696
 11
-12.228979801894063
 21
-1.4320225330598495
  0
LINE
  8
_0-0_
  6
CONTINUOUS
 62
    7
 10
-11.876776539848827
 20
-0.7779307606901388
 11
-10.618907746830139
 21
5.8133017147278006
  0
LINE
  8
_0-0_
  6
CONTINUOUS
 62
    7
 10
-11.675517532965834
 20
-1.1804487744561092
 11
10.010140458676368
 21
-8.8282910360097446
  0
LINE
  8
_0-0_
  6
CONTINUOUS
 62
    7
 10
-11.826461788128078
 20
-1.985484801988064
 11
9.9598257069556482
 21
-9.5830123118209656
  0
LINE
  8
_0-0_
  6
CONTINUOUS
 62
    7
 10
-11.977406043290323
 20
-2.3376880640333004
 11
9.808881451793404
 21
-10.186789332469942
  0
LINE
  8
_0-0_
  6
CONTINUOUS
 62
    7
 10
-10.112181579553358
 20
5.3176853864721645
 11
-10.846499208700742
 21
-0.0585686840712034
  0
LINE
  8
_0-0_
  6
CONTINUOUS
 62
    7
 10
-10.846499208700742
 20
-0.0585686840712034
 11
9.2161074447903601
 21
-6.5362991983356542
  0
LINE
  8
_0-0_
  6
CONTINUOUS
 62
    7
 10
9.2161074447903601
 20
-6.5362991983356542
 11
10.527388925410683
 21
0.8331027227506249
  0
LINE
  8
_0-0_
  6
CONTINUOUS
 62
    7
 10
10.527388925410683
 20
0.8331027227506249
 11
-10.112181579553358
 21
5.3176853864721645
  0
LINE
  8
_0-0_
  6
CONTINUOUS
 62
    7
 10
-9.7450227649796588
 20
4.7407215349992109
 11
-9.7974740242044689
 21
4.2424345723634937
  0
LINE
  8
_0-0_
  6
CONTINUOUS
 62
    7
 10
-9.7974740242044689
 20
4.2424345723634937
 11
-9.5089920984679921
 21
4.1637576835262573
  0
LINE
  8
_0-0_
  6
CONTINUOUS
 62
    7
 10
-10.013835468506834
 20
3.8228244985649846
 11
-10.066286727731644
 21
3.3245375359292675
  0
LINE
  8
_0-0_
  6
CONTINUOUS
 62
    7
 10
-10.066286727731644
 20
3.3245375359292675
 11
-9.7778048019951669
 21
3.245860647092031
  0
LINE
  8
_0-0_
  6
CONTINUOUS
 62
    7
 10
-10.092512357344042
 20
2.800024943681124
 11
-10.144963616568852
 21
2.3017379810453926
  0
LINE
  8
_0-0_
  6
CONTINUOUS
 62
    7
 10
-10.144963616568852
 20
2.3017379810453926
 11
-9.8564816908323749
 21
2.2230610922081846
  0
LINE
  8
_0-0_
  6
CONTINUOUS
 62
    7
 10
-10.197414875793676
 20
1.7772253887972633
 11
-10.249866135018486
 21
1.2789384261615462
  0
LINE
  8
_0-0_
  6
CONTINUOUS
 62
    7
 10
-10.249866135018486
 20
1.2789384261615462
 11
-9.9613842092820093
 21
1.2002615373243097
  0
LINE
  8
_0-0_
  6
CONTINUOUS
 62
    7
 10
-10.380994283080518
 20
0.8331027227506249
 11
-10.433445542305329
 21
0.3348157601149077
  0
LINE
  8
_0-0_
  6
CONTINUOUS
 62
    7
 10
-10.433445542305329
 20
0.3348157601149077
 11
-10.144963616568852
 21
0.2561388712776713
  0
LINE
  8
_0-0_
  6
CONTINUOUS
 62
    7
 10
-9.5942253947083245
 20
0.46594390817694
 11
-9.6466766539331346
 21
-0.0323430544587912
  0
LINE
  8
_0-0_
  6
CONTINUOUS
 62
    7
 10
-9.6466766539331346
 20
-0.0323430544587912
 11
-9.3581947281966578
 21
-0.1110199432960135
  0
LINE
  8
_0-0_
  6
CONTINUOUS
 62
    7
 10
-9.43687161703388
 20
1.5936459815104209
 11
-9.4893228762586901
 21
1.0953590188746896
  0
LINE
  8
_0-0_
  6
CONTINUOUS
 62
    7
 10
-9.4893228762586901
 20
1.0953590188746896
 11
-9.2008409505222133
 21
1.0166821300374815
  0
LINE
  8
_0-0_
  6
CONTINUOUS
 62
    7
 10
-9.2795178393594355
 20
2.4590917587198371
 11
-9.3319690985842456
 21
1.9608047960841199
  0
LINE
  8
_0-0_
  6
CONTINUOUS
 62
    7
 10
-9.3319690985842456
 20
1.9608047960841199
 11
-9.0434871728477688
 21
1.8821279072468835
  0
LINE
  8
_0-0_
  6
CONTINUOUS
 62
    7
 10
-9.069712802460181
 20
3.5081169432160957
 11
-9.1221640616849911
 21
3.0098299805803785
  0
LINE
  8
_0-0_
  6
CONTINUOUS
 62
    7
 10
-9.1221640616849911
 20
3.0098299805803785
 11
-8.8336821359485143
 21
2.9311530917431563
  0
LINE
  8
_0-0_
  6
CONTINUOUS
 62
    7
 10
-8.9123590247857507
 20
4.5833677573247664
 11
-8.9648102840105608
 21
4.0850807946890493
  0
LINE
  8
_0-0_
  6
CONTINUOUS
 62
    7
 10
-8.9648102840105608
 20
4.0850807946890493
 11
-8.676328358274084
 21
4.006403905851827
  0
LINE
  8
_0-0_
  6
CONTINUOUS
 62
    7
 10
-8.0469132475763203
 20
4.4522396092627341
 11
-8.0993645068011304
 21
3.953952646627017
  0
LINE
  8
_0-0_
  6
CONTINUOUS
 62
    7
 10
-8.0993645068011304
 20
3.953952646627017
 11
-7.8108825810646536
 21
3.8752757577897947
  0
LINE
  8
_0-0_
  6
CONTINUOUS
 62
    7
 10
-8.2042670252507648
 20
3.2983119063168553
 11
-8.2567182844755749
 21
2.800024943681124
  0
LINE
  8
_0-0_
  6
CONTINUOUS
 62
    7
 10
-8.2567182844755749
 20
2.800024943681124
 11
-7.9682363587390981
 21
2.7213480548439017
  0
LINE
  8
_0-0_
  6
CONTINUOUS
 62
    7
 10
-8.3353951733127971
 20
2.2230610922081846
 11
-8.3878464325376072
 21
1.7247741295724532
  0
LINE
  8
_0-0_
  6
CONTINUOUS
 62
    7
 10
-8.3878464325376072
 20
1.7247741295724532
 11
-8.0993645068011304
 21
1.646097240735231
  0
LINE
  8
_0-0_
  6
CONTINUOUS
 62
    7
 10
-8.4927489509872416
 20
1.3576153149987542
 11
-8.5452002102120517
 21
0.859328352363037
  0
LINE
  8
_0-0_
  6
CONTINUOUS
 62
    7
 10
-8.5452002102120517
 20
0.859328352363037
 11
-8.2567182844755749
 21
0.7806514635258148
  0
LINE
  8
_0-0_
  6
CONTINUOUS
 62
    7
 10
-8.6238770990492739
 20
0.2823645008900834
 11
-8.676328358274084
 21
-0.2159224617456336
  0
LINE
  8
_0-0_
  6
CONTINUOUS
 62
    7
 10
-8.676328358274084
 20
-0.2159224617456336
 11
-8.3878464325376072
 21
-0.2945993505828701
  0
LINE
  8
_0-0_
  6
CONTINUOUS
 62
    7
 10
-8.1518157660259547
 20
0.0725594639908289
 11
-8.2042670252507648
 21
-0.4257274986448882
  0
LINE
  8
_0-0_
  6
CONTINUOUS
 62
    7
 10
-8.2042670252507648
 20
-0.4257274986448882
 11
-7.915785099514288
 21
-0.5044043874821104
  0
LINE
  8
_0-0_
  6
CONTINUOUS
 62
    7
 10
-7.3912725072661587
 20
-0.1372455729084256
 11
-7.4437237664909688
 21
-0.6355325355441428
  0
LINE
  8
_0-0_
  6
CONTINUOUS
 62
    7
 10
-7.4437237664909688
 20
-0.6355325355441428
 11
-7.155241840754492
 21
-0.714209424381365
  0
LINE
  8
_0-0_
  6
CONTINUOUS
 62
    7
 10
-7.2339187295917142
 20
4.1375320539138594
 11
-7.2863699888165243
 21
3.639245091278128
  0
LINE
  8
_0-0_
  6
CONTINUOUS
 62
    7
 10
-7.2863699888165243
 20
3.639245091278128
 11
-6.9978880630800475
 21
3.56056820244092
  0
LINE
  8
_0-0_
  6
CONTINUOUS
 62
    7
 10
-6.2897960635450758
 20
4.006403905851827
 11
-6.3422473227698859
 21
3.5081169432160957
  0
LINE
  8
_0-0_
  6
CONTINUOUS
 62
    7
 10
-6.3422473227698859
 20
3.5081169432160957
 11
-6.0537653970334091
 21
3.4294400543788877
  0
LINE
  8
_0-0_
  6
CONTINUOUS
 62
    7
 10
-6.3422473227699001
 20
2.8787018325183462
 11
-6.3946985819947102
 21
2.3804148698826291
  0
LINE
  8
_0-0_
  6
CONTINUOUS
 62
    7
 10
-6.3946985819947102
 20
2.3804148698826291
 11
-6.1062166562582334
 21
2.3017379810453926
  0
LINE
  8
_0-0_
  6
CONTINUOUS
 62
    7
 10
-6.6045036188939648
 20
1.8034510184096755
 11
-6.6569548781187748
 21
1.3051640557739441
  0
LINE
  8
_0-0_
  6
CONTINUOUS
 62
    7
 10
-6.6569548781187748
 20
1.3051640557739441
 11
-6.368472952382298
 21
1.2264871669367219
  0
LINE
  8
_0-0_
  6
CONTINUOUS
 62
    7
 10
-6.8143086557932193
 20
0.9642308708126572
 11
-6.8667599150180294
 21
0.46594390817694
  0
LINE
  8
_0-0_
  6
CONTINUOUS
 62
    7
 10
-6.8667599150180294
 20
0.46594390817694
 11
-6.5782779892815526
 21
0.3872670193397036
  0
LINE
  8
_0-0_
  6
CONTINUOUS
 62
    7
 10
-6.1586679154830435
 20
-0.6093069059317448
 11
-6.2111191747078536
 21
-1.107593868567462
  0
LINE
  8
_0-0_
  6
CONTINUOUS
 62
    7
 10
-6.2111191747078536
 20
-1.107593868567462
 11
-5.9226372489713768
 21
-1.1862707574046842
  0
LINE
  8
_0-0_
  6
CONTINUOUS
 62
    7
 10
-5.9750885081962011
 20
0.6232976858513703
 11
-6.0275397674210112
 21
0.125010723215639
  0
LINE
  8
_0-0_
  6
CONTINUOUS
 62
    7
 10
-6.0275397674210112
 20
0.125010723215639
 11
-5.7390578416845344
 21
0.0463338343784309
  0
LINE
  8
_0-0_
  6
CONTINUOUS
 62
    7
 10
-5.7390578416845344
 20
1.646097240735231
 11
-5.7915091009093445
 21
1.1478102780995139
  0
LINE
  8
_0-0_
  6
CONTINUOUS
 62
    7
 10
-5.7915091009093445
 20
1.1478102780995139
 11
-5.5030271751728677
 21
1.0691333892622774
  0
LINE
  8
_0-0_
  6
CONTINUOUS
 62
    7
 10
-5.4505759159480718
 20
2.7475736844563139
 11
-5.5030271751728819
 21
2.2492867218205967
  0
LINE
  8
_0-0_
  6
CONTINUOUS
 62
    7
 10
-5.5030271751728819
 20
2.2492867218205967
 11
-5.2145452494364051
 21
2.1706098329833603
  0
LINE
  8
_0-0_
  6
CONTINUOUS
 62
    7
 10
-5.2407708790488172
 20
3.9015013874022069
 11
-5.2932221382736273
 21
3.4032144247664755
  0
LINE
  8
_0-0_
  6
CONTINUOUS
 62
    7
 10
-5.2932221382736273
 20
3.4032144247664755
 11
-5.0047402125371505
 21
3.3245375359292675
  0
LINE
  8
_0-0_
  6
CONTINUOUS
 62
    7
 10
-4.2966482130021646
 20
3.56056820244092
 11
-4.3490994722269889
 21
3.0622812398052028
  0
LINE
  8
_0-0_
  6
CONTINUOUS
 62
    7
 10
-4.3490994722269889
 20
3.0622812398052028
 11
-4.0606175464905121
 21
2.9836043509679664
  0
LINE
  8
_0-0_
  6
CONTINUOUS
 62
    7
 10
-4.5326788795138171
 20
2.3279636106578048
 11
-4.5851301387386414
 21
1.8296766480220876
  0
LINE
  8
_0-0_
  6
CONTINUOUS
 62
    7
 10
-4.5851301387386414
 20
1.8296766480220876
 11
-4.2966482130021646
 21
1.7509997591848512
  0
LINE
  8
_0-0_
  6
CONTINUOUS
 62
    7
 10
-4.6900326571882758
 20
1.3051640557739441
 11
-4.7424839164130859
 21
0.8068770931382127
  0
LINE
  8
_0-0_
  6
CONTINUOUS
 62
    7
 10
-4.7424839164130859
 20
0.8068770931382127
 11
-4.4540019906766091
 21
0.7282002043010047
  0
LINE
  8
_0-0_
  6
CONTINUOUS
 62
    7
 10
-4.9785145829247526
 20
0.3348157601148935
 11
-5.0309658421495627
 21
-0.1634712025208235
  0
LINE
  8
_0-0_
  6
CONTINUOUS
 62
    7
 10
-5.0309658421495627
 20
-0.1634712025208235
 11
-4.7424839164130859
 21
-0.2421480913580458
  0
LINE
  8
_0-0_
  6
CONTINUOUS
 62
    7
 10
-5.1096427309867849
 20
-0.7404350539937771
 11
-5.162093990211595
 21
-1.2387220166294943
  0
LINE
  8
_0-0_
  6
CONTINUOUS
 62
    7
 10
-5.162093990211595
 20
-1.2387220166294943
 11
-4.8736120644751182
 21
-1.3173989054667166
  0
LINE
  8
_0-0_
  6
CONTINUOUS
 62
    7
 10
-4.2704225833897524
 20
-1.1862707574046842
 11
-4.3228738426145767
 21
-1.6845577200404156
  0
LINE
  8
_0-0_
  6
CONTINUOUS
 62
    7
 10
-4.3228738426145767
 20
-1.6845577200404156
 11
-4.0343919168780999
 21
-1.7632346088776378
  0
LINE
  8
_0-0_
  6
CONTINUOUS
 62
    7
 10
-3.3787511765679383
 20
3.3245375359292533
 11
-3.4312024357927342
 21
2.8262505732935219
  0
LINE
  8
_0-0_
  6
CONTINUOUS
 62
    7
 10
-3.4312024357927342
 20
2.8262505732935219
 11
-3.1427205100562574
 21
2.7475736844563139
  0
LINE
  8
_0-0_
  6
CONTINUOUS
 62
    7
 10
-2.4608541401337121
 20
3.1147324990299987
 11
-2.5133053993585079
 21
2.6164455363942816
  0
LINE
  8
_0-0_
  6
CONTINUOUS
 62
    7
 10
-2.5133053993585079
 20
2.6164455363942816
 11
-2.2248234736220311
 21
2.5377686475570593
  0
LINE
  8
_0-0_
  6
CONTINUOUS
 62
    7
 10
-2.4870797697460958
 20
1.9608047960841199
 11
-2.5395310289709201
 21
1.4625178334483886
  0
LINE
  8
_0-0_
  6
CONTINUOUS
 62
    7
 10
-2.5395310289709201
 20
1.4625178334483886
 11
-2.2510491032344433
 21
1.3838409446111664
  0
LINE
  8
_0-0_
  6
CONTINUOUS
 62
    7
 10
-2.6968848066453646
 20
0.9904565004250693
 11
-2.7493360658701604
 21
0.492169537789338
  0
LINE
  8
_0-0_
  6
CONTINUOUS
 62
    7
 10
-2.7493360658701604
 20
0.492169537789338
 11
-2.4608541401336836
 21
0.4134926489521157
  0
LINE
  8
_0-0_
  6
CONTINUOUS
 62
    7
 10
-3.0640436212190494
 20
-0.4257274986449024
 11
-3.1164948804438737
 21
-0.9240144612806195
  0
LINE
  8
_0-0_
  6
CONTINUOUS
 62
    7
 10
-3.1164948804438737
 20
-0.9240144612806195
 11
-2.8280129547073969
 21
-1.0026913501178418
  0
LINE
  8
_0-0_
  6
CONTINUOUS
 62
    7
 10
-3.2738486581183182
 20
-1.3173989054667166
 11
-3.326299917343114
 21
-1.8156858681024479
  0
LINE
  8
_0-0_
  6
CONTINUOUS
 62
    7
 10
-3.326299917343114
 20
-1.8156858681024479
 11
-3.0378179916066372
 21
-1.8943627569396702
  0
LINE
  8
_0-0_
  6
CONTINUOUS
 62
    7
 10
-1.9887928071103786
 20
-1.8156858681024479
 11
-2.0412440663352029
 21
-2.3139728307381793
  0
LINE
  8
_0-0_
  6
CONTINUOUS
 62
    7
 10
-2.0412440663352029
 20
-2.3139728307381793
 11
-1.7527621405987261
 21
-2.3926497195753873
  0
LINE
  8
_0-0_
  6
CONTINUOUS
 62
    7
 10
-1.8576646590483463
 20
-0.7404350539937771
 11
-1.9101159182731706
 21
-1.2387220166294943
  0
LINE
  8
_0-0_
  6
CONTINUOUS
 62
    7
 10
-1.9101159182731706
 20
-1.2387220166294943
 11
-1.6216339925366938
 21
-1.3173989054667166
  0
LINE
  8
_0-0_
  6
CONTINUOUS
 62
    7
 10
-1.6740852517614897
 20
0.5446207970141481
 11
-1.726536510986314
 21
0.0463338343784309
  0
LINE
  8
_0-0_
  6
CONTINUOUS
 62
    7
 10
-1.726536510986314
 20
0.0463338343784309
 11
-1.4380545852498372
 21
-0.0323430544587912
  0
LINE
  8
_0-0_
  6
CONTINUOUS
 62
    7
 10
-1.4642802148622494
 20
1.7509997591848512
 11
-1.5167314740870452
 21
1.252712796549134
  0
LINE
  8
_0-0_
  6
CONTINUOUS
 62
    7
 10
-1.5167314740870452
 20
1.252712796549134
 11
-1.2282495483505684
 21
1.1740359077119118
  0
LINE
  8
_0-0_
  6
CONTINUOUS
 62
    7
 10
-1.4118289556374251
 20
2.8524762029059341
 11
-1.4642802148622494
 21
2.3541892402702169
  0
LINE
  8
_0-0_
  6
CONTINUOUS
 62
    7
 10
-1.4642802148622494
 20
2.3541892402702169
 11
-1.1757982891257726
 21
2.2755123514329805
  0
LINE
  8
_0-0_
  6
CONTINUOUS
 62
    7
 10
-0.3103525119163421
 20
2.7213480548439017
 11
-0.3628037711411664
 21
2.2230610922081846
  0
LINE
  8
_0-0_
  6
CONTINUOUS
 62
    7
 10
-0.3628037711411664
 20
2.2230610922081846
 11
-0.0743218454046896
 21
2.1443842033709481
  0
LINE
  8
_0-0_
  6
CONTINUOUS
 62
    7
 10
-0.3628037711411664
 20
1.5936459815104209
 11
-0.4152550303659907
 21
1.0953590188746896
  0
LINE
  8
_0-0_
  6
CONTINUOUS
 62
    7
 10
-0.4152550303659907
 20
1.0953590188746896
 11
-0.1267731046295139
 21
1.0166821300374815
  0
LINE
  8
_0-0_
  6
CONTINUOUS
 62
    7
 10
-0.4939319192031987
 20
0.3348157601148935
 11
-0.546383178428023
 21
-0.1634712025208235
  0
LINE
  8
_0-0_
  6
CONTINUOUS
 62
    7
 10
-0.546383178428023
 20
-0.1634712025208235
 11
-0.2579012526915462
 21
-0.2421480913580458
  0
LINE
  8
_0-0_
  6
CONTINUOUS
 62
    7
 10
-0.7299625857148512
 20
-1.0289169797302398
 11
-0.7824138449396755
 21
-1.5272039423659711
  0
LINE
  8
_0-0_
  6
CONTINUOUS
 62
    7
 10
-0.7824138449396755
 20
-1.5272039423659711
 11
-0.4939319192031987
 21
-1.6058808312031934
  0
LINE
  8
_0-0_
  6
CONTINUOUS
 62
    7
 10
-0.8348651041644998
 20
-2.1041677938389247
 11
-0.8873163633892957
 21
-2.6024547564746419
  0
LINE
  8
_0-0_
  6
CONTINUOUS
 62
    7
 10
-0.8873163633892957
 20
-2.6024547564746419
 11
-0.5988344376528189
 21
-2.6811316453118641
  0
LINE
  8
_0-0_
  6
CONTINUOUS
 62
    7
 10
0.2928369691689951
 20
-2.3401984603505772
 11
0.2403857099441992
 21
-2.8384854229863086
  0
LINE
  8
_0-0_
  6
CONTINUOUS
 62
    7
 10
0.2403857099441992
 20
-2.8384854229863086
 11
0.528867635680676
 21
-2.9171623118235308
  0
LINE
  8
_0-0_
  6
CONTINUOUS
 62
    7
 10
0.9222520798667446
 20
2.3804148698826149
 11
0.8698008206419487
 21
1.8821279072468835
  0
LINE
  8
_0-0_
  6
CONTINUOUS
 62
    7
 10
0.8698008206419487
 20
1.8821279072468835
 11
1.1582827463784255
 21
1.8034510184096755
  0
LINE
  8
_0-0_
  6
CONTINUOUS
 62
    7
 10
2.181082301262272
 20
2.1181585737585502
 11
2.1286310420374761
 21
1.6198716111228189
  0
LINE
  8
_0-0_
  6
CONTINUOUS
 62
    7
 10
2.1286310420374761
 20
1.6198716111228189
 11
2.4171129677739529
 21
1.5411947222856108
  0
LINE
  8
_0-0_
  6
CONTINUOUS
 62
    7
 10
1.9188260051382073
 20
0.8331027227506249
 11
1.8663747459134115
 21
0.3348157601149077
  0
LINE
  8
_0-0_
  6
CONTINUOUS
 62
    7
 10
1.8663747459134115
 20
0.3348157601149077
 11
2.1548566716498883
 21
0.2561388712776713
  0
LINE
  8
_0-0_
  6
CONTINUOUS
 62
    7
 10
1.787697857076175
 20
-0.3995018690324903
 11
1.7352465978513791
 21
-0.8977888316682074
  0
LINE
  8
_0-0_
  6
CONTINUOUS
 62
    7
 10
1.7352465978513791
 20
-0.8977888316682074
 11
2.0237285235878559
 21
-0.9764657205054296
  0
LINE
  8
_0-0_
  6
CONTINUOUS
 62
    7
 10
1.4467646721149023
 20
-1.474752683141161
 11
1.394313412890078
 21
-1.9730396457768782
  0
LINE
  8
_0-0_
  6
CONTINUOUS
 62
    7
 10
1.394313412890078
 20
-1.9730396457768782
 11
1.6827953386265548
 21
-2.0517165346141146
  0
LINE
  8
_0-0_
  6
CONTINUOUS
 62
    7
 10
1.31563652405287
 20
-2.6549060156994519
 11
1.2631852648280457
 21
-3.1531929783351833
  0
LINE
  8
_0-0_
  6
CONTINUOUS
 62
    7
 10
1.2631852648280457
 20
-3.1531929783351833
 11
1.5516671905645225
 21
-3.2318698671724055
  0
LINE
  8
_0-0_
  6
CONTINUOUS
 62
    7
 10
2.4171129677739245
 20
-2.8909366822111187
 11
2.3646617085491286
 21
-3.38922364484685
  0
LINE
  8
_0-0_
  6
CONTINUOUS
 62
    7
 10
2.3646617085491286
 20
-3.38922364484685
 11
2.6531436342856054
 21
-3.467900533684058
  0
LINE
  8
_0-0_
  6
CONTINUOUS
 62
    7
 10
2.7055948935104013
 20
-1.7894602384900358
 11
2.6531436342856054
 21
-2.2877472011257671
  0
LINE
  8
_0-0_
  6
CONTINUOUS
 62
    7
 10
2.6531436342856054
 20
-2.2877472011257671
 11
2.9416255600220822
 21
-2.3664240899629894
  0
LINE
  8
_0-0_
  6
CONTINUOUS
 62
    7
 10
2.8367230415724336
 20
-0.5568556467069347
 11
2.7842717823476377
 21
-1.0551426093426519
  0
LINE
  8
_0-0_
  6
CONTINUOUS
 62
    7
 10
2.7842717823476377
 20
-1.0551426093426519
 11
3.0727537080841145
 21
-1.1338194981798742
  0
LINE
  8
_0-0_
  6
CONTINUOUS
 62
    7
 10
3.1252049673089104
 20
0.6232976858513703
 11
3.0727537080841145
 21
0.125010723215639
  0
LINE
  8
_0-0_
  6
CONTINUOUS
 62
    7
 10
3.0727537080841145
 20
0.125010723215639
 11
3.3612356338205913
 21
0.0463338343784309
  0
LINE
  8
_0-0_
  6
CONTINUOUS
 62
    7
 10
3.308784374595767
 20
1.6985484999600411
 11
3.2563331153709427
 21
1.2002615373243097
  0
LINE
  8
_0-0_
  6
CONTINUOUS
 62
    7
 10
3.2563331153709427
 20
1.2002615373243097
 11
3.5448150411074195
 21
1.1215846484871017
  0
LINE
  8
_0-0_
  6
CONTINUOUS
 62
    7
 10
4.5151633367664701
 20
1.5411947222856108
 11
4.4627120775416458
 21
1.0429077596498795
  0
LINE
  8
_0-0_
  6
CONTINUOUS
 62
    7
 10
4.4627120775416458
 20
1.0429077596498795
 11
4.7511940032781226
 21
0.9642308708126572
  0
LINE
  8
_0-0_
  6
CONTINUOUS
 62
    7
 10
4.3578095590920256
 20
0.1774619824404633
 11
4.3053582998672297
 21
-0.320824980195268
  0
LINE
  8
_0-0_
  6
CONTINUOUS
 62
    7
 10
4.3053582998672297
 20
-0.320824980195268
 11
4.5938402256037065
 21
-0.3995018690324903
  0
LINE
  8
_0-0_
  6
CONTINUOUS
 62
    7
 10
4.0693276333555488
 20
-0.9764657205054296
 11
4.0168763741307529
 21
-1.474752683141161
  0
LINE
  8
_0-0_
  6
CONTINUOUS
 62
    7
 10
4.0168763741307529
 20
-1.474752683141161
 11
4.3053582998672297
 21
-1.5534295719783833
  0
LINE
  8
_0-0_
  6
CONTINUOUS
 62
    7
 10
3.8595225964563085
 20
-2.3139728307381793
 11
3.8070713372314842
 21
-2.8122597933738964
  0
LINE
  8
_0-0_
  6
CONTINUOUS
 62
    7
 10
3.8070713372314842
 20
-2.8122597933738964
 11
4.095553262967961
 21
-2.8909366822111187
  0
LINE
  8
_0-0_
  6
CONTINUOUS
 62
    7
 10
3.5448150411074195
 20
-3.2580954967848177
 11
3.4923637818826236
 21
-3.7563824594205348
  0
LINE
  8
_0-0_
  6
CONTINUOUS
 62
    7
 10
3.4923637818826236
 20
-3.7563824594205348
 11
3.7808457076191004
 21
-3.8350593482577571
  0
LINE
  8
_0-0_
  6
CONTINUOUS
 62
    7
 10
4.4364864479292621
 20
-3.7301568298081369
 11
4.3840351887044378
 21
-4.228443792443854
  0
LINE
  8
_0-0_
  6
CONTINUOUS
 62
    7
 10
4.3840351887044378
 20
-4.228443792443854
 11
4.6725171144409146
 21
-4.3071206812810763
  0
LINE
  8
_0-0_
  6
CONTINUOUS
 62
    7
 10
5.4068347435882842
 20
-3.8875106074825672
 11
5.3543834843634883
 21
-4.3857975701182985
  0
LINE
  8
_0-0_
  6
CONTINUOUS
 62
    7
 10
5.3543834843634883
 20
-4.3857975701182985
 11
5.6428654100999651
 21
-4.4644744589555208
  0
LINE
  8
_0-0_
  6
CONTINUOUS
 62
    7
 10
6.2985061504101267
 20
-2.8384854229863086
 11
6.2460548911853024
 21
-3.3367723856220257
  0
LINE
  8
_0-0_
  6
CONTINUOUS
 62
    7
 10
6.2460548911853024
 20
-3.3367723856220257
 11
6.5345368169217792
 21
-3.4154492744592622
  0
LINE
  8
_0-0_
  6
CONTINUOUS
 62
    7
 10
6.7181162242086359
 20
-1.7107833496528135
 11
6.6656649649838116
 21
-2.2090703122885449
  0
LINE
  8
_0-0_
  6
CONTINUOUS
 62
    7
 10
6.6656649649838116
 20
-2.2090703122885449
 11
6.9541468907202884
 21
-2.2877472011257671
  0
LINE
  8
_0-0_
  6
CONTINUOUS
 62
    7
 10
6.9541468907202884
 20
-0.5830812763193327
 11
6.9016956314954641
 21
-1.0813682389550641
  0
LINE
  8
_0-0_
  6
CONTINUOUS
 62
    7
 10
6.9016956314954641
 20
-1.0813682389550641
 11
7.1901775572319409
 21
-1.1600451277922863
  0
LINE
  8
_0-0_
  6
CONTINUOUS
 62
    7
 10
7.0852750387823207
 20
0.8331027227506249
 11
7.0328237795574964
 21
0.3348157601149077
  0
LINE
  8
_0-0_
  6
CONTINUOUS
 62
    7
 10
7.0328237795574964
 20
0.3348157601149077
 11
7.3213057052939732
 21
0.2561388712776713
  0
LINE
  8
_0-0_
  6
CONTINUOUS
 62
    7
 10
5.8002191877743812
 20
1.3313896853863421
 11
5.7477679285495853
 21
0.8331027227506249
  0
LINE
  8
_0-0_
  6
CONTINUOUS
 62
    7
 10
5.7477679285495853
 20
0.8331027227506249
 11
6.0362498542860621
 21
0.7544258339134026
  0
LINE
  8
_0-0_
  6
CONTINUOUS
 62
    7
 10
8.3703308897902602
 20
0.492169537789338
 11
8.3178796305654359
 21
-0.0061174248463933
  0
LINE
  8
_0-0_
  6
CONTINUOUS
 62
    7
 10
8.3178796305654359
 20
-0.0061174248463933
 11
8.6063615563019127
 21
-0.0847943136836013
  0
LINE
  8
_0-0_
  6
CONTINUOUS
 62
    7
 10
8.1605258528909914
 20
-0.7404350539937771
 11
8.1080745936661955
 21
-1.2387220166294943
  0
LINE
  8
_0-0_
  6
CONTINUOUS
 62
    7
 10
8.1080745936661955
 20
-1.2387220166294943
 11
8.3965565194026723
 21
-1.3173989054667166
  0
LINE
  8
_0-0_
  6
CONTINUOUS
 62
    7
 10
7.9507208159917511
 20
-2.0517165346141146
 11
7.8982695567669268
 21
-2.5500034972498318
  0
LINE
  8
_0-0_
  6
CONTINUOUS
 62
    7
 10
7.8982695567669268
 20
-2.5500034972498318
 11
8.1867514825034036
 21
-2.628680386087054
  0
LINE
  8
_0-0_
  6
CONTINUOUS
 62
    7
 10
7.7409157790924823
 20
-3.3367723856220257
 11
7.6884645198676864
 21
-3.8350593482577571
  0
LINE
  8
_0-0_
  6
CONTINUOUS
 62
    7
 10
7.6884645198676864
 20
-3.8350593482577571
 11
7.9769464456041632
 21
-3.9137362370949793
  0
LINE
  8
_0-0_
  6
CONTINUOUS
 62
    7
 10
6.7181162242086359
 20
-4.3333463108934884
 11
6.6656649649838116
 21
-4.8316332735292056
  0
LINE
  8
_0-0_
  6
CONTINUOUS
 62
    7
 10
6.6656649649838116
 20
-4.8316332735292056
 11
6.9541468907202884
 21
-4.910310162366442
  0
LINE
  8
_0-0_
  6
CONTINUOUS
 62
    7
 10
7.7671414087048944
 20
-4.6480538662423632
 11
7.7146901494800701
 21
-5.1463408288780945
  0
LINE
  8
_0-0_
  6
CONTINUOUS
 62
    7
 10
7.7146901494800701
 20
-5.1463408288780945
 11
8.0031720752165469
 21
-5.2250177177153168
  0
LINE
  8
_0-0_
  6
CONTINUOUS
 62
    7
 10
8.8948434820383895
 20
-4.98898705120365
 11
8.8423922228135652
 21
-5.4872740138393814
  0
LINE
  8
_0-0_
  6
CONTINUOUS
 62
    7
 10
8.8423922228135652
 20
-5.4872740138393814
 11
9.130874148550042
 21
-5.5659509026766036
  0
LINE
  8
_0-0_
  6
CONTINUOUS
 62
    7
 10
9.0784228893252177
 20
-3.782608089032947
 11
9.0259716301004218
 21
-4.2808950516686641
  0
LINE
  8
_0-0_
  6
CONTINUOUS
 62
    7
 10
9.0259716301004218
 20
-4.2808950516686641
 11
9.3144535558368986
 21
-4.3595719405059006
  0
LINE
  8
_0-0_
  6
CONTINUOUS
 62
    7
 10
9.2620022966120743
 20
-2.2090703122885449
 11
9.20955103738725
 21
-2.7073572749242762
  0
LINE
  8
_0-0_
  6
CONTINUOUS
 62
    7
 10
9.20955103738725
 20
-2.7073572749242762
 11
9.4980329631237268
 21
-2.7860341637614985
  0
LINE
  8
_0-0_
  6
CONTINUOUS
 62
    7
 10
9.5767098519609632
 20
-0.9764657205054296
 11
9.524258592736139
 21
-1.474752683141161
  0
LINE
  8
_0-0_
  6
CONTINUOUS
 62
    7
 10
9.524258592736139
 20
-1.474752683141161
 11
9.8127405184726157
 21
-1.5534295719783833
  0
LINE
  8
_0-0_
  6
CONTINUOUS
 62
    7
 10
9.6291611111857591
 20
0.3872670193397036
 11
9.5767098519609632
 21
-0.1110199432960135
  0
LINE
  8
_0-0_
  6
CONTINUOUS
 62
    7
 10
9.5767098519609632
 20
-0.1110199432960135
 11
9.86519177769744
 21
-0.1896968321332357
  0
ARC
  8
_0-0_
  6
CONTINUOUS
 62
    7
 10
-12.420073906367428
 20
-4.9474099016721871
 40
0.9651161470605118
 50
74.044590438969848
 51
167.42638496486987
  0
ARC
  8
_0-0_
  6
CONTINUOUS
 62
    7
 10
-12.225607586429042
 20
-5.3719218411492866
 40
0.7450335097599714
 50
79.474977453144689
 51
178.87233848774321
  0
ARC
  8
_0-0_
  6
CONTINUOUS
 62
    7
 10
-12.322579777677099
 20
-6.31048992522767
 40
0.4978242352600231
 50
53.183750072104395
 51
147.42594286542777
  0
ARC
  8
_0-0_
  6
CONTINUOUS
 62
    7
 10
-13.741480030731189
 20
-13.166079472573117
 40
1.0466474863730229
 50
161.22891794541738
 51
253.01368886290047
  0
ARC
  8
_0-0_
  6
CONTINUOUS
 62
    7
 10
-13.375951189667724
 20
-12.759209077567633
 40
0.8475738711788457
 50
150.34481848028315
 51
248.37316987110594
  0
ARC
  8
_0-0_
  6
CONTINUOUS
 62
    7
 10
-13.14995583595266
 20
-12.454048487521604
 40
0.6212360328359669
 50
150.06848815949121
 51
256.32869286780522
  0
LINE
  8
_0-0_
  6
CONTINUOUS
 62
    7
 10
-12.154773929238111
 20
-4.0194739666787589
 11
9.3476810387906184
 21
-12.33984728511173
  0
LINE
  8
_0-0_
  6
CONTINUOUS
 62
    7
 10
-12.089516099289618
 20
-4.6394233511894631
 11
9.3150521238163648
 21
-12.992425584596674
  0
LINE
  8
_0-0_
  6
CONTINUOUS
 62
    7
 10
-12.024258269341125
 20
-5.9119510351850826
 11
9.0866497189966466
 21
-14.428097843463533
  0
LINE
  8
_0-0_
  6
CONTINUOUS
 62
    7
 10
-12.742094398774562
 20
-6.0424666950820827
 11
-13.688332933027716
 21
-12.144073795266252
  0
LINE
  8
_0-0_
  6
CONTINUOUS
 62
    7
 10
-14.112508827692928
 20
-12.33984728511173
 11
-12.97049680359428
 21
-5.3572594806228855
  0
LINE
  8
_0-0_
  6
CONTINUOUS
 62
    7
 10
-14.732458212203618
 20
-12.829281009725435
 11
-13.362043783285252
 21
-4.7373100961121954
  0
LINE
  8
_0-0_
  6
CONTINUOUS
 62
    7
 10
-13.688332933027716
 20
-13.547117139158871
 11
7.4225750553100553
 21
-25.097753040042278
  0
LINE
  8
_0-0_
  6
CONTINUOUS
 62
    7
 10
-14.047250997744435
 20
-14.167066523669561
 11
7.2268015654645623
 21
-26.337651809063658
  0
LINE
  8
_0-0_
  6
CONTINUOUS
 62
    7
 10
-13.296785953336759
 20
-13.057683414545167
 11
7.5530907152070412
 21
-24.11888559081487
  0
LINE
  8
_0-0_
  6
CONTINUOUS
 62
    7
 10
-12.31791850410935
 20
-6.3034980148760544
 11
8.3035557596147029
 21
-14.819644823154505
  0
LINE
  8
_0-0_
  6
CONTINUOUS
 62
    7
 10
8.3035557596147029
 20
-14.819644823154505
 11
7.0962859055675764
 21
-22.389553097179785
  0
LINE
  8
_0-0_
  6
CONTINUOUS
 62
    7
 10
7.0962859055675764
 20
-22.389553097179785
 11
-13.329414868310998
 21
-12.176702710240505
  0
LINE
  8
_0-0_
  6
CONTINUOUS
 62
    7
 10
-13.329414868310998
 20
-12.176702710240505
 11
-12.31791850410935
 21
-6.3034980148760544
  0
LINE
  8
_0-0_
  6
CONTINUOUS
 62
    7
 10
-11.894573919379788
 20
-7.2081017765187587
 11
-11.894573919379788
 21
-7.6678161709329933
  0
LINE
  8
_0-0_
  6
CONTINUOUS
 62
    7
 10
-11.894573919379788
 20
-7.6678161709329933
 11
-11.631879979714519
 21
-7.7772719791268505
  0
LINE
  8
_0-0_
  6
CONTINUOUS
 62
    7
 10
-12.025920889212422
 20
-8.280768696818626
 11
-12.025920889212422
 21
-8.7404830912328748
  0
LINE
  8
_0-0_
  6
CONTINUOUS
 62
    7
 10
-12.025920889212422
 20
-8.7404830912328748
 11
-11.763226949547153
 21
-8.8499388994267321
  0
LINE
  8
_0-0_
  6
CONTINUOUS
 62
    7
 10
-12.244832505600165
 20
-9.2220886472858581
 11
-12.244832505600165
 21
-9.6818030417001069
  0
LINE
  8
_0-0_
  6
CONTINUOUS
 62
    7
 10
-12.244832505600165
 20
-9.6818030417001069
 11
-11.982138565934896
 21
-9.7912588498939641
  0
LINE
  8
_0-0_
  6
CONTINUOUS
 62
    7
 10
-12.354288313794022
 20
-10.032061627920456
 11
-12.354288313794022
 21
-10.491776022334705
  0
LINE
  8
_0-0_
  6
CONTINUOUS
 62
    7
 10
-12.354288313794022
 20
-10.491776022334705
 11
-12.091594374128753
 21
-10.601231830528562
  0
LINE
  8
_0-0_
  6
CONTINUOUS
 62
    7
 10
-12.573199930181751
 20
-11.170402033136654
 11
-12.573199930181751
 21
-11.630116427550888
  0
LINE
  8
_0-0_
  6
CONTINUOUS
 62
    7
 10
-12.573199930181751
 20
-11.630116427550888
 11
-12.310505990516482
 21
-11.739572235744745
  0
LINE
  8
_0-0_
  6
CONTINUOUS
 62
    7
 10
-11.04081861546765
 20
-7.5364692011003447
 11
-11.04081861546765
 21
-7.9961835955145935
  0
LINE
  8
_0-0_
  6
CONTINUOUS
 62
    7
 10
-11.04081861546765
 20
-7.9961835955145935
 11
-10.778124675802381
 21
-8.1056394037084516
  0
LINE
  8
_0-0_
  6
CONTINUOUS
 62
    7
 10
-11.281621393494156
 20
-8.4340068282900376
 11
-11.281621393494156
 21
-8.8937212227042721
  0
LINE
  8
_0-0_
  6
CONTINUOUS
 62
    7
 10
-11.281621393494156
 20
-8.8937212227042721
 11
-11.018927453828887
 21
-9.0031770308981436
  0
LINE
  8
_0-0_
  6
CONTINUOUS
 62
    7
 10
-11.369186040049236
 20
-9.3534356171185067
 11
-11.369186040049236
 21
-9.8131500115327412
  0
LINE
  8
_0-0_
  6
CONTINUOUS
 62
    7
 10
-11.369186040049236
 20
-9.8131500115327412
 11
-11.106492100383967
 21
-9.9226058197265985
  0
LINE
  8
_0-0_
  6
CONTINUOUS
 62
    7
 10
-11.566206494798202
 20
-10.513667183973467
 11
-11.566206494798202
 21
-10.973381578387702
  0
LINE
  8
_0-0_
  6
CONTINUOUS
 62
    7
 10
-11.566206494798202
 20
-10.973381578387702
 11
-11.303512555132933
 21
-11.082837386581559
  0
LINE
  8
_0-0_
  6
CONTINUOUS
 62
    7
 10
-11.938356242657342
 20
-11.367422487885605
 11
-11.938356242657342
 21
-11.82713688229984
  0
LINE
  8
_0-0_
  6
CONTINUOUS
 62
    7
 10
-11.938356242657342
 20
-11.82713688229984
 11
-11.675662302992073
 21
-11.936592690493711
  0
LINE
  8
_0-0_
  6
CONTINUOUS
 62
    7
 10
-11.128383262022744
 20
-11.630116427550888
 11
-11.128383262022744
 21
-12.089830821965108
  0
LINE
  8
_0-0_
  6
CONTINUOUS
 62
    7
 10
-11.128383262022744
 20
-12.089830821965108
 11
-10.865689322357476
 21
-12.19928663015898
  0
LINE
  8
_0-0_
  6
CONTINUOUS
 62
    7
 10
-10.887580483996238
 20
-10.732578800361196
 11
-10.887580483996238
 21
-11.192293194775431
  0
LINE
  8
_0-0_
  6
CONTINUOUS
 62
    7
 10
-10.887580483996238
 20
-11.192293194775431
 11
-10.62488654433097
 21
-11.301749002969288
  0
LINE
  8
_0-0_
  6
CONTINUOUS
 62
    7
 10
-10.602995382692193
 20
-9.8350411731715042
 11
-10.602995382692193
 21
-10.294755567585739
  0
LINE
  8
_0-0_
  6
CONTINUOUS
 62
    7
 10
-10.602995382692193
 20
-10.294755567585739
 11
-10.340301443026924
 21
-10.404211375779596
  0
LINE
  8
_0-0_
  6
CONTINUOUS
 62
    7
 10
-10.449757251220781
 20
-8.9375035459818264
 11
-10.449757251220781
 21
-9.3972179403960467
  0
LINE
  8
_0-0_
  6
CONTINUOUS
 62
    7
 10
-10.449757251220781
 20
-9.3972179403960467
 11
-10.187063311555512
 21
-9.5066737485899182
  0
LINE
  8
_0-0_
  6
CONTINUOUS
 62
    7
 10
-10.187063311555512
 20
-7.9086189489594849
 11
-10.187063311555512
 21
-8.3683333433737346
  0
LINE
  8
_0-0_
  6
CONTINUOUS
 62
    7
 10
-10.187063311555512
 20
-8.3683333433737346
 11
-9.9243693718902435
 21
-8.4777891515675918
  0
LINE
  8
_0-0_
  6
CONTINUOUS
 62
    7
 10
-9.3551991692821375
 20
-8.236986373541086
 11
-9.3551991692821375
 21
-8.6967007679553205
  0
LINE
  8
_0-0_
  6
CONTINUOUS
 62
    7
 10
-9.3551991692821375
 20
-8.6967007679553205
 11
-9.0925052296168687
 21
-8.8061565761491778
  0
LINE
  8
_0-0_
  6
CONTINUOUS
 62
    7
 10
-10.493539574498321
 20
-12.264960115075297
 11
-10.493539574498321
 21
-12.724674509489532
  0
LINE
  8
_0-0_
  6
CONTINUOUS
 62
    7
 10
-10.493539574498321
 20
-12.724674509489532
 11
-10.230845634833052
 21
-12.834130317683389
  0
LINE
  8
_0-0_
  6
CONTINUOUS
 62
    7
 10
-9.7492400787800548
 20
-12.593327539656883
 11
-9.7492400787800548
 21
-13.053041934071132
  0
LINE
  8
_0-0_
  6
CONTINUOUS
 62
    7
 10
-9.7492400787800548
 20
-13.053041934071132
 11
-9.4865461391147861
 21
-13.162497742264989
  0
LINE
  8
_0-0_
  6
CONTINUOUS
 62
    7
 10
-9.1581787145331859
 20
-12.965477287516023
 11
-9.1581787145331859
 21
-13.425191681930258
  0
LINE
  8
_0-0_
  6
CONTINUOUS
 62
    7
 10
-9.1581787145331859
 20
-13.425191681930258
 11
-8.8954847748679171
 21
-13.534647490124115
  0
LINE
  8
_0-0_
  6
CONTINUOUS
 62
    7
 10
-9.0049405830617744
 20
-11.542551780995794
 11
-9.0049405830617744
 21
-12.002266175410028
  0
LINE
  8
_0-0_
  6
CONTINUOUS
 62
    7
 10
-9.0049405830617744
 20
-12.002266175410028
 11
-8.7422466433965056
 21
-12.111721983603886
  0
LINE
  8
_0-0_
  6
CONTINUOUS
 62
    7
 10
-8.8954847748679029
 20
-10.623122992167339
 11
-8.8954847748679029
 21
-11.082837386581559
  0
LINE
  8
_0-0_
  6
CONTINUOUS
 62
    7
 10
-8.8954847748679029
 20
-11.082837386581559
 11
-8.6327908352026341
 21
-11.192293194775431
  0
LINE
  8
_0-0_
  6
CONTINUOUS
 62
    7
 10
-8.5890085119250799
 20
-9.6380207184225526
 11
-8.5890085119250799
 21
-10.097735112836787
  0
LINE
  8
_0-0_
  6
CONTINUOUS
 62
    7
 10
-8.5890085119250799
 20
-10.097735112836787
 11
-8.3263145722598111
 21
-10.207190921030644
  0
LINE
  8
_0-0_
  6
CONTINUOUS
 62
    7
 10
-8.4576615420924455
 20
-8.5872449597614491
 11
-8.4576615420924455
 21
-9.0469593541756836
  0
LINE
  8
_0-0_
  6
CONTINUOUS
 62
    7
 10
-8.4576615420924455
 20
-9.0469593541756836
 11
-8.1949676024271767
 21
-9.1564151623695409
  0
LINE
  8
_0-0_
  6
CONTINUOUS
 62
    7
 10
-7.6039062381803078
 20
-8.8499388994267179
 11
-7.6039062381803078
 21
-9.3096532938409666
  0
LINE
  8
_0-0_
  6
CONTINUOUS
 62
    7
 10
-7.6039062381803078
 20
-9.3096532938409666
 11
-7.341212298515039
 21
-9.4191091020348239
  0
LINE
  8
_0-0_
  6
CONTINUOUS
 62
    7
 10
-7.7571443696517193
 20
-9.9882793046429157
 11
-7.7571443696517193
 21
-10.44799369905715
  0
LINE
  8
_0-0_
  6
CONTINUOUS
 62
    7
 10
-7.7571443696517193
 20
-10.44799369905715
 11
-7.4944504299864505
 21
-10.557449507251008
  0
LINE
  8
_0-0_
  6
CONTINUOUS
 62
    7
 10
-7.9103825011231308
 20
-10.995272740026465
 11
-7.9103825011231308
 21
-11.454987134440699
  0
LINE
  8
_0-0_
  6
CONTINUOUS
 62
    7
 10
-7.9103825011231308
 20
-11.454987134440699
 11
-7.647688561457862
 21
-11.564442942634571
  0
LINE
  8
_0-0_
  6
CONTINUOUS
 62
    7
 10
-8.1074029558720824
 20
-12.221177791797743
 11
-8.1074029558720824
 21
-12.680892186211992
  0
LINE
  8
_0-0_
  6
CONTINUOUS
 62
    7
 10
-8.1074029558720824
 20
-12.680892186211992
 11
-7.8447090162068136
 21
-12.790347994405849
  0
LINE
  8
_0-0_
  6
CONTINUOUS
 62
    7
 10
-8.2387499257047168
 20
-13.184388903903752
 11
-8.2387499257047168
 21
-13.644103298317987
  0
LINE
  8
_0-0_
  6
CONTINUOUS
 62
    7
 10
-8.2387499257047168
 20
-13.644103298317987
 11
-7.976055986039448
 21
-13.753559106511858
  0
LINE
  8
_0-0_
  6
CONTINUOUS
 62
    7
 10
-7.4506681067088962
 20
-13.753559106511858
 11
-7.4506681067088962
 21
-14.213273500926078
  0
LINE
  8
_0-0_
  6
CONTINUOUS
 62
    7
 10
-7.4506681067088962
 20
-14.213273500926078
 11
-7.1879741670436275
 21
-14.32272930911995
  0
LINE
  8
_0-0_
  6
CONTINUOUS
 62
    7
 10
-7.2098653286823904
 20
-12.6590010245732
 11
-7.2098653286823904
 21
-13.118715418987449
  0
LINE
  8
_0-0_
  6
CONTINUOUS
 62
    7
 10
-7.2098653286823904
 20
-13.118715418987449
 11
-6.9471713890171216
 21
-13.228171227181306
  0
LINE
  8
_0-0_
  6
CONTINUOUS
 62
    7
 10
-6.9690625506558845
 20
-11.498769457718254
 11
-6.9690625506558845
 21
-11.958483852132474
  0
LINE
  8
_0-0_
  6
CONTINUOUS
 62
    7
 10
-6.9690625506558845
 20
-11.958483852132474
 11
-6.7063686109906158
 21
-12.067939660326346
  0
LINE
  8
_0-0_
  6
CONTINUOUS
 62
    7
 10
-6.772042095906933
 20
-10.53555834561223
 11
-6.772042095906933
 21
-10.995272740026479
  0
LINE
  8
_0-0_
  6
CONTINUOUS
 62
    7
 10
-6.772042095906933
 20
-10.995272740026479
 11
-6.5093481562416642
 21
-11.104728548220336
  0
LINE
  8
_0-0_
  6
CONTINUOUS
 62
    7
 10
-6.5750216411579814
 20
-9.2220886472858581
 11
-6.5750216411579814
 21
-9.6818030417001069
  0
LINE
  8
_0-0_
  6
CONTINUOUS
 62
    7
 10
-6.5750216411579814
 20
-9.6818030417001069
 11
-6.3123277014927126
 21
-9.7912588498939641
  0
LINE
  8
_0-0_
  6
CONTINUOUS
 62
    7
 10
-5.6993751756070665
 20
-9.6599118800613155
 11
-5.6993751756070665
 21
-10.119626274475564
  0
LINE
  8
_0-0_
  6
CONTINUOUS
 62
    7
 10
-5.6993751756070665
 20
-10.119626274475564
 11
-5.4366812359417978
 21
-10.229082082669422
  0
LINE
  8
_0-0_
  6
CONTINUOUS
 62
    7
 10
-4.6704905785847259
 20
-10.185299759391881
 11
-4.6704905785847259
 21
-10.645014153806102
  0
LINE
  8
_0-0_
  6
CONTINUOUS
 62
    7
 10
-4.6704905785847259
 20
-10.645014153806102
 11
-4.4077966389194572
 21
-10.754469961999973
  0
LINE
  8
_0-0_
  6
CONTINUOUS
 62
    7
 10
-4.8237287100561517
 20
-11.214184356414194
 11
-4.8237287100561517
 21
-11.673898750828428
  0
LINE
  8
_0-0_
  6
CONTINUOUS
 62
    7
 10
-4.8237287100561517
 20
-11.673898750828428
 11
-4.5610347703908829
 21
-11.783354559022285
  0
LINE
  8
_0-0_
  6
CONTINUOUS
 62
    7
 10
-5.0426403264438804
 20
-12.308742438352837
 11
-5.0426403264438804
 21
-12.768456832767072
  0
LINE
  8
_0-0_
  6
CONTINUOUS
 62
    7
 10
-5.0426403264438804
 20
-12.768456832767072
 11
-4.7799463867786116
 21
-12.877912640960943
  0
LINE
  8
_0-0_
  6
CONTINUOUS
 62
    7
 10
-5.3053342661091492
 20
-13.490865166846575
 11
-5.3053342661091492
 21
-13.95057956126081
  0
LINE
  8
_0-0_
  6
CONTINUOUS
 62
    7
 10
-5.3053342661091492
 20
-13.95057956126081
 11
-5.0426403264438804
 21
-14.060035369454681
  0
LINE
  8
_0-0_
  6
CONTINUOUS
 62
    7
 10
-5.4147900743030206
 20
-14.629205572062773
 11
-5.4147900743030206
 21
-15.088919966477008
  0
LINE
  8
_0-0_
  6
CONTINUOUS
 62
    7
 10
-5.4147900743030206
 20
-15.088919966477008
 11
-5.1520961346377518
 21
-15.198375774670865
  0
LINE
  8
_0-0_
  6
CONTINUOUS
 62
    7
 10
-6.3561100247702527
 20
-14.169491177648538
 11
-6.3561100247702527
 21
-14.629205572062773
  0
LINE
  8
_0-0_
  6
CONTINUOUS
 62
    7
 10
-6.3561100247702527
 20
-14.629205572062773
 11
-6.0934160851049839
 21
-14.73866138025663
  0
LINE
  8
_0-0_
  6
CONTINUOUS
 62
    7
 10
-3.6197148199236224
 20
-10.513667183973467
 11
-3.6197148199236224
 21
-10.973381578387702
  0
LINE
  8
_0-0_
  6
CONTINUOUS
 62
    7
 10
-3.6197148199236224
 20
-10.973381578387702
 11
-3.3570208802583537
 21
-11.082837386581559
  0
LINE
  8
_0-0_
  6
CONTINUOUS
 62
    7
 10
-3.8167352746726024
 20
-11.695789912467205
 11
-3.8167352746726024
 21
-12.15550430688144
  0
LINE
  8
_0-0_
  6
CONTINUOUS
 62
    7
 10
-3.8167352746726024
 20
-12.15550430688144
 11
-3.5540413350073337
 21
-12.264960115075297
  0
LINE
  8
_0-0_
  6
CONTINUOUS
 62
    7
 10
-3.9480822445052368
 20
-12.724674509489532
 11
-3.9480822445052368
 21
-13.184388903903766
  0
LINE
  8
_0-0_
  6
CONTINUOUS
 62
    7
 10
-3.9480822445052368
 20
-13.184388903903766
 11
-3.685388304839968
 21
-13.293844712097624
  0
LINE
  8
_0-0_
  6
CONTINUOUS
 62
    7
 10
-4.2107761841705056
 20
-13.95057956126081
 11
-4.2107761841705056
 21
-14.410293955675044
  0
LINE
  8
_0-0_
  6
CONTINUOUS
 62
    7
 10
-4.2107761841705056
 20
-14.410293955675044
 11
-3.9480822445052368
 21
-14.519749763868901
  0
LINE
  8
_0-0_
  6
CONTINUOUS
 62
    7
 10
-4.4296878005582201
 20
-15.220266936309628
 11
-4.4296878005582201
 21
-15.679981330723876
  0
LINE
  8
_0-0_
  6
CONTINUOUS
 62
    7
 10
-4.4296878005582201
 20
-15.679981330723876
 11
-4.1669938608929513
 21
-15.789437138917734
  0
LINE
  8
_0-0_
  6
CONTINUOUS
 62
    7
 10
-3.3570208802583537
 20
-15.877001785472828
 11
-3.3570208802583537
 21
-16.336716179887063
  0
LINE
  8
_0-0_
  6
CONTINUOUS
 62
    7
 10
-3.3570208802583537
 20
-16.336716179887063
 11
-3.0943269405930849
 21
-16.44617198808092
  0
LINE
  8
_0-0_
  6
CONTINUOUS
 62
    7
 10
-3.2256739104257193
 20
-14.607314410423996
 11
-3.2256739104257193
 21
-15.06702880483823
  0
LINE
  8
_0-0_
  6
CONTINUOUS
 62
    7
 10
-3.2256739104257193
 20
-15.06702880483823
 11
-2.9629799707604505
 21
-15.176484613032088
  0
LINE
  8
_0-0_
  6
CONTINUOUS
 62
    7
 10
-2.9848711323992134
 20
-13.337627035375164
 11
-2.9848711323992134
 21
-13.797341429789398
  0
LINE
  8
_0-0_
  6
CONTINUOUS
 62
    7
 10
-2.9848711323992134
 20
-13.797341429789398
 11
-2.7221771927339447
 21
-13.906797237983255
  0
LINE
  8
_0-0_
  6
CONTINUOUS
 62
    7
 10
-2.875415324205342
 20
-12.177395468520203
 11
-2.875415324205342
 21
-12.637109862934437
  0
LINE
  8
_0-0_
  6
CONTINUOUS
 62
    7
 10
-2.875415324205342
 20
-12.637109862934437
 11
-2.6127213845400732
 21
-12.746565671128309
  0
LINE
  8
_0-0_
  6
CONTINUOUS
 62
    7
 10
-2.5251567379849931
 20
-11.126619709859114
 11
-2.5251567379849931
 21
-11.586334104273334
  0
LINE
  8
_0-0_
  6
CONTINUOUS
 62
    7
 10
-2.5251567379849931
 20
-11.586334104273334
 11
-2.2624627983197243
 21
-11.695789912467205
  0
LINE
  8
_0-0_
  6
CONTINUOUS
 62
    7
 10
-1.5181633026014438
 20
-11.520660619357017
 11
-1.5181633026014438
 21
-11.980375013771251
  0
LINE
  8
_0-0_
  6
CONTINUOUS
 62
    7
 10
-1.5181633026014438
 20
-11.980375013771251
 11
-1.2554693629361751
 21
-12.089830821965108
  0
LINE
  8
_0-0_
  6
CONTINUOUS
 62
    7
 10
-2.3938097681523587
 20
-16.249151533331968
 11
-2.3938097681523587
 21
-16.708865927746189
  0
LINE
  8
_0-0_
  6
CONTINUOUS
 62
    7
 10
-2.3938097681523587
 20
-16.708865927746189
 11
-2.1311158284870899
 21
-16.81832173594006
  0
LINE
  8
_0-0_
  6
CONTINUOUS
 62
    7
 10
-1.3649251711300181
 20
-16.686974766107426
 11
-1.3649251711300181
 21
-17.146689160521646
  0
LINE
  8
_0-0_
  6
CONTINUOUS
 62
    7
 10
-1.3649251711300181
 20
-17.146689160521646
 11
-1.1022312314647493
 21
-17.256144968715518
  0
LINE
  8
_0-0_
  6
CONTINUOUS
 62
    7
 10
-1.0365577465484321
 20
-15.548634360891228
 11
-1.0365577465484321
 21
-16.008348755305462
  0
LINE
  8
_0-0_
  6
CONTINUOUS
 62
    7
 10
-1.0365577465484321
 20
-16.008348755305462
 11
-0.7738638068831633
 21
-16.11780456349932
  0
LINE
  8
_0-0_
  6
CONTINUOUS
 62
    7
 10
-0.7957549685219262
 20
-14.432185117313807
 11
-0.7957549685219262
 21
-14.891899511728042
  0
LINE
  8
_0-0_
  6
CONTINUOUS
 62
    7
 10
-0.7957549685219262
 20
-14.891899511728042
 11
-0.5330610288566575
 21
-15.001355319921913
  0
LINE
  8
_0-0_
  6
CONTINUOUS
 62
    7
 10
-0.6862991603280548
 20
-13.228171227181306
 11
-0.6862991603280548
 21
-13.687885621595541
  0
LINE
  8
_0-0_
  6
CONTINUOUS
 62
    7
 10
-0.6862991603280548
 20
-13.687885621595541
 11
-0.423605220662786
 21
-13.797341429789398
  0
LINE
  8
_0-0_
  6
CONTINUOUS
 62
    7
 10
-0.2703670891913887
 20
-12.046048498687568
 11
-0.2703670891913887
 21
-12.505762893101803
  0
LINE
  8
_0-0_
  6
CONTINUOUS
 62
    7
 10
-0.2703670891913887
 20
-12.505762893101803
 11
-0.0076731495261199
 21
-12.61521870129566
  0
LINE
  8
_0-0_
  6
CONTINUOUS
 62
    7
 10
0.7804086694697147
 20
-12.549545216379343
 11
0.7804086694697147
 21
-13.009259610793578
  0
LINE
  8
_0-0_
  6
CONTINUOUS
 62
    7
 10
0.7804086694697147
 20
-13.009259610793578
 11
1.0431026091349835
 21
-13.118715418987435
  0
LINE
  8
_0-0_
  6
CONTINUOUS
 62
    7
 10
0.6052793763595261
 20
-13.863014914705715
 11
0.6052793763595261
 21
-14.32272930911995
  0
LINE
  8
_0-0_
  6
CONTINUOUS
 62
    7
 10
0.6052793763595261
 20
-14.32272930911995
 11
0.8679733160247948
 21
-14.432185117313807
  0
LINE
  8
_0-0_
  6
CONTINUOUS
 62
    7
 10
0.4082589216105745
 20
-14.870008350089265
 11
0.4082589216105745
 21
-15.329722744503499
  0
LINE
  8
_0-0_
  6
CONTINUOUS
 62
    7
 10
0.4082589216105745
 20
-15.329722744503499
 11
0.6709528612758433
 21
-15.439178552697371
  0
LINE
  8
_0-0_
  6
CONTINUOUS
 62
    7
 10
0.1455649819453057
 20
-16.205369210054414
 11
0.1455649819453057
 21
-16.665083604468649
  0
LINE
  8
_0-0_
  6
CONTINUOUS
 62
    7
 10
0.1455649819453057
 20
-16.665083604468649
 11
0.4082589216105745
 21
-16.774539412662506
  0
LINE
  8
_0-0_
  6
CONTINUOUS
 62
    7
 10
-0.117128957719963
 20
-17.23425380707674
 11
-0.117128957719963
 21
-17.693968201490975
  0
LINE
  8
_0-0_
  6
CONTINUOUS
 62
    7
 10
-0.117128957719963
 20
-17.693968201490975
 11
0.1455649819453057
 21
-17.803424009684832
  0
LINE
  8
_0-0_
  6
CONTINUOUS
 62
    7
 10
0.8022998311084776
 20
-17.606403554935881
 11
0.8022998311084776
 21
-18.066117949350115
  0
LINE
  8
_0-0_
  6
CONTINUOUS
 62
    7
 10
0.8022998311084776
 20
-18.066117949350115
 11
1.0649937707737465
 21
-18.175573757543972
  0
LINE
  8
_0-0_
  6
CONTINUOUS
 62
    7
 10
1.459034680271678
 20
-16.840212897578823
 11
1.459034680271678
 21
-17.299927291993058
  0
LINE
  8
_0-0_
  6
CONTINUOUS
 62
    7
 10
1.459034680271678
 20
-17.299927291993058
 11
1.7217286199369468
 21
-17.409383100186929
  0
LINE
  8
_0-0_
  6
CONTINUOUS
 62
    7
 10
1.7436197815757097
 20
-15.570525522530005
 11
1.7436197815757097
 21
-16.03023991694424
  0
LINE
  8
_0-0_
  6
CONTINUOUS
 62
    7
 10
1.7436197815757097
 20
-16.03023991694424
 11
2.0063137212409785
 21
-16.139695725138097
  0
LINE
  8
_0-0_
  6
CONTINUOUS
 62
    7
 10
1.9187490746858984
 20
-14.32272930911995
 11
1.9187490746858984
 21
-14.782443703534184
  0
LINE
  8
_0-0_
  6
CONTINUOUS
 62
    7
 10
1.9187490746858984
 20
-14.782443703534184
 11
2.1814430143511672
 21
-14.891899511728042
  0
LINE
  8
_0-0_
  6
CONTINUOUS
 62
    7
 10
1.9844225596022156
 20
-12.965477287516023
 11
1.9844225596022156
 21
-13.425191681930258
  0
LINE
  8
_0-0_
  6
CONTINUOUS
 62
    7
 10
1.9844225596022156
 20
-13.425191681930258
 11
2.2471164992674844
 21
-13.534647490124115
  0
LINE
  8
_0-0_
  6
CONTINUOUS
 62
    7
 10
3.2322187730122707
 20
-13.665994459956764
 11
3.2322187730122707
 21
-14.125708854370998
  0
LINE
  8
_0-0_
  6
CONTINUOUS
 62
    7
 10
3.2322187730122707
 20
-14.125708854370998
 11
3.4949127126775394
 21
-14.235164662564856
  0
LINE
  8
_0-0_
  6
CONTINUOUS
 62
    7
 10
1.8092932664920554
 20
-18.306920727376607
 11
1.8092932664920554
 21
-18.766635121790841
  0
LINE
  8
_0-0_
  6
CONTINUOUS
 62
    7
 10
1.8092932664920554
 20
-18.766635121790841
 11
2.0719872061573241
 21
-18.876090929984713
  0
LINE
  8
_0-0_
  6
CONTINUOUS
 62
    7
 10
3.1008718031796363
 20
-18.897982091623476
 11
3.1008718031796363
 21
-19.35769648603771
  0
LINE
  8
_0-0_
  6
CONTINUOUS
 62
    7
 10
3.1008718031796363
 20
-19.35769648603771
 11
3.3635657428449051
 21
-19.467152294231568
  0
LINE
  8
_0-0_
  6
CONTINUOUS
 62
    7
 10
4.0421917536468683
 20
-19.489043455870345
 11
4.0421917536468683
 21
-19.948757850284579
  0
LINE
  8
_0-0_
  6
CONTINUOUS
 62
    7
 10
4.0421917536468683
 20
-19.948757850284579
 11
4.3048856933121371
 21
-20.058213658478451
  0
LINE
  8
_0-0_
  6
CONTINUOUS
 62
    7
 10
3.9765182687305511
 20
-18.022335626072561
 11
3.9765182687305511
 21
-18.482050020486795
  0
LINE
  8
_0-0_
  6
CONTINUOUS
 62
    7
 10
3.9765182687305511
 20
-18.482050020486795
 11
4.2392122083958199
 21
-18.591505828680653
  0
LINE
  8
_0-0_
  6
CONTINUOUS
 62
    7
 10
4.0421917536468683
 20
-16.511845472997237
 11
4.0421917536468683
 21
-16.971559867411472
  0
LINE
  8
_0-0_
  6
CONTINUOUS
 62
    7
 10
4.0421917536468683
 20
-16.971559867411472
 11
4.3048856933121371
 21
-17.081015675605329
  0
LINE
  8
_0-0_
  6
CONTINUOUS
 62
    7
 10
4.3705591782284827
 20
-15.570525522530005
 11
4.3705591782284827
 21
-16.03023991694424
  0
LINE
  8
_0-0_
  6
CONTINUOUS
 62
    7
 10
4.3705591782284827
 20
-16.03023991694424
 11
4.6332531178937515
 21
-16.139695725138097
  0
LINE
  8
_0-0_
  6
CONTINUOUS
 62
    7
 10
4.7208177644488316
 20
-14.278946985842396
 11
4.7208177644488316
 21
-14.738661380256644
  0
LINE
  8
_0-0_
  6
CONTINUOUS
 62
    7
 10
4.7208177644488316
 20
-14.738661380256644
 11
4.9835117041141004
 21
-14.848117188450502
  0
LINE
  8
_0-0_
  6
CONTINUOUS
 62
    7
 10
5.7278111998323809
 20
-14.826226026811725
 11
5.7278111998323809
 21
-15.285940421225959
  0
LINE
  8
_0-0_
  6
CONTINUOUS
 62
    7
 10
5.7278111998323809
 20
-15.285940421225959
 11
5.9905051394976496
 21
-15.395396229419816
  0
LINE
  8
_0-0_
  6
CONTINUOUS
 62
    7
 10
5.7497023614711722
 20
-16.139695725138097
 11
5.7497023614711722
 21
-16.599410119552331
  0
LINE
  8
_0-0_
  6
CONTINUOUS
 62
    7
 10
5.7497023614711722
 20
-16.599410119552331
 11
6.012396301136441
 21
-16.708865927746189
  0
LINE
  8
_0-0_
  6
CONTINUOUS
 62
    7
 10
5.5964642299997465
 20
-17.321818453631835
 11
5.5964642299997465
 21
-17.781532848046069
  0
LINE
  8
_0-0_
  6
CONTINUOUS
 62
    7
 10
5.5964642299997465
 20
-17.781532848046069
 11
5.8591581696650152
 21
-17.890988656239927
  0
LINE
  8
_0-0_
  6
CONTINUOUS
 62
    7
 10
5.3337702903344777
 20
-18.547723505403113
 11
5.3337702903344777
 21
-19.007437899817347
  0
LINE
  8
_0-0_
  6
CONTINUOUS
 62
    7
 10
5.3337702903344777
 20
-19.007437899817347
 11
5.5964642299997465
 21
-19.116893708011204
  0
LINE
  8
_0-0_
  6
CONTINUOUS
 62
    7
 10
5.2462056437793976
 20
-20.080104820117214
 11
5.2462056437793976
 21
-20.539819214531448
  0
LINE
  8
_0-0_
  6
CONTINUOUS
 62
    7
 10
5.2462056437793976
 20
-20.539819214531448
 11
5.5088995834446663
 21
-20.649275022725305
  0
LINE
  8
_0-0_
  6
CONTINUOUS
 62
    7
 10
6.3626548873567899
 20
-20.649275022725305
 11
6.3626548873567899
 21
-21.10898941713954
  0
LINE
  8
_0-0_
  6
CONTINUOUS
 62
    7
 10
6.3626548873567899
 20
-21.10898941713954
 11
6.6253488270220586
 21
-21.218445225333411
  0
LINE
  8
_0-0_
  6
CONTINUOUS
 62
    7
 10
6.7129134735771672
 20
-19.270131839482616
 11
6.7129134735771672
 21
-19.729846233896851
  0
LINE
  8
_0-0_
  6
CONTINUOUS
 62
    7
 10
6.7129134735771672
 20
-19.729846233896851
 11
6.9756074132424359
 21
-19.839302042090708
  0
LINE
  8
_0-0_
  6
CONTINUOUS
 62
    7
 10
6.9099339283261187
 20
-17.978553302795021
 11
6.9099339283261187
 21
-18.438267697209255
  0
LINE
  8
_0-0_
  6
CONTINUOUS
 62
    7
 10
6.9099339283261187
 20
-18.438267697209255
 11
7.1726278679913875
 21
-18.547723505403113
  0
LINE
  8
_0-0_
  6
CONTINUOUS
 62
    7
 10
7.1288455447138617
 20
-16.621301281191094
 11
7.1288455447138617
 21
-17.081015675605329
  0
LINE
  8
_0-0_
  6
CONTINUOUS
 62
    7
 10
7.1288455447138617
 20
-17.081015675605329
 11
7.3915394843791304
 21
-17.1904714837992
  0
LINE
  8
_0-0_
  6
CONTINUOUS
 62
    7
 10
7.3477571611015762
 20
-15.264049259587182
 11
7.3477571611015762
 21
-15.723763654001417
  0
LINE
  8
_0-0_
  6
CONTINUOUS
 62
    7
 10
7.3477571611015762
 20
-15.723763654001417
 11
7.6104511007668449
 21
-15.833219462195274
  0
ARC
  8
_0-0_
  6
CONTINUOUS
 62
    7
 10
25.296187187206804
 20
-6.6968050553204952
 40
2.1694033053098574
 50
92.696676290747405
 51
235.25158881235299
  0
ARC
  8
_0-0_
  6
CONTINUOUS
 62
    7
 10
24.71340573308148
 20
-5.6765980767523265
 40
1.243471976615609
 50
26.692374921965346
 51
67.25749309979912
  0
ARC
  8
_0-0_
  6
CONTINUOUS
 62
    7
 10
24.599232702866964
 20
-7.715090016029591
 40
0.935502543829518
 50
234.77788266877349
 51
320.41140406840924
  0
ARC
  8
_0-0_
  6
CONTINUOUS
 62
    7
 10
25.0175627471369
 20
-5.7755385023998675
 40
0.8337652250327374
 50
52.054972643559353
 51
183.9039761334015
  0
ARC
  8
_0-0_
  6
CONTINUOUS
 62
    7
 10
25.477729066422107
 20
-6.6936362389825055
 40
1.552786950418042
 50
146.30993247402009
 51
223.62954898220065
  0
ARC
  8
_0-0_
  6
CONTINUOUS
 62
    7
 10
25.500237722156264
 20
-6.8647020225619135
 40
1.4577208205184464
 50
218.14397594479505
 51
262.90424604871396
  0
ARC
  8
_0-0_
  6
CONTINUOUS
 62
    7
 10
27.335328024008838
 20
-6.9085650439924953
 40
1.3446151191804505
 50
98.918928617952673
 51
177.10664639041457
  0
ARC
  8
_0-0_
  6
CONTINUOUS
 62
    7
 10
27.642440363717149
 20
-7.3277655568280542
 40
1.7204022785254449
 50
163.55375667750232
 51
230.08906310257845
  0
ARC
  8
_0-0_
  6
CONTINUOUS
 62
    7
 10
26.794935599983653
 20
-7.8532821824050947
 40
0.8344413084991441
 50
252.11244642795515
 51
323.18780201190441
  0
ARC
  8
_0-0_
  6
CONTINUOUS
 62
    7
 10
25.387394328075793
 20
-7.0356477599774214
 40
2.4585052141591204
 50
327.59189222042755
 51
3.5665615245503948
  0
ARC
  8
_0-0_
  6
CONTINUOUS
 62
    7
 10
26.646678587548159
 20
-6.6906350848846179
 40
1.2098038939753766
 50
350.86481164058961
 51
66.614778942786629
  0
LINE
  8
_0-0_
  6
CONTINUOUS
 62
    7
 10
25.530249263135083
 20
-5.1180303375931251
 11
27.21089555795043
 21
-5.5802080686673454
  0
LINE
  8
_0-0_
  6
CONTINUOUS
 62
    7
 10
26.664685512135456
 20
-8.6894037140757234
 11
25.320168476283179
 21
-8.3112582977422846
  0
ENDBLK
  0
ENDSEC
  0
SECTION
  2
ENTITIES
  0
INSERT
  2
-000-1
  8
_0-0_
 10
132.68079399504268
 20
111.86918958008064
 41
1
 42
1
 50
0
  0
ENDSEC
  0
EOF
