  0
SECTION
  2
HEADER
  9
$ACADVER
  1
AC1009
  9
$INSBASE
 10
0
 20
0
 30
0
  9
$EXTMIN
 10
0
 20
0
  9
$EXTMAX
 10
297
 20
210
  9
$LIMMIN
 10
0
 20
0
  9
$LIMMAX
 10
297
 20
210
  9
$LTSCALE
 40
1
  0
ENDSEC
  0
SECTION
  2
TABLES
  0
TABLE
  2
LTYPE
 70
     9
  0
LTYPE
  2
CONTINUOUS
 70
    64
  3
実線
 72
    65
 73
     0
 40
0.0
  0
LTYPE
  2
DASHED1
 70
    64
  3
--  --  --  --  --  --  --  --  
 72
    65
 73
     2
 40
2.5
 49
1.25
 49
-1.25
  0
LTYPE
  2
DASHED2
 70
    64
  3
----    ----    ----    ----    
 72
    65
 73
     2
 40
5.0
 49
2.5
 49
-2.5
  0
LTYPE
  2
DASHED3
 70
    64
  3
------  ------  ------  ------  
 72
    65
 73
     2
 40
5.0
 49
3.75
 49
-1.25
  0
LTYPE
  2
CENTER1
 70
    64
  3
----- - ----- - ----- - ----- - 
 72
    65
 73
     4
 40
10.0
 49
6.25
 49
-1.25
 49
1.25
 49
-1.25
  0
LTYPE
  2
CENTER2
 70
    64
  3
----------  --  ----------  --  
 72
    65
 73
     4
 40
20.0
 49
12.5
 49
-2.5
 49
2.5
 49
-2.5
  0
LTYPE
  2
PHANTOM1
 70
    64
  3
--- - - --- - - --- - - --- - - 
 72
    65
 73
     6
 40
10.0
 49
3.25
 49
-1.25
 49
1.25
 49
-1.25
 49
1.25
 49
-1.25
  0
LTYPE
  2
PHANTOM2
 70
    64
  3
--------  -  -  --------  -  -  
 72
    65
 73
     6
 40
20.0
 49
10.0
 49
-2.5
 49
1.25
 49
-2.5
 49
1.25
 49
-2.5
  0
LTYPE
  2
DOT
 70
    64
  3
-   -   -   -   -   -   -   -   
 72
    65
 73
     2
 40
2.5
 49
0.625
 49
-1.875
  0
LTYPE
  2
DUMMY
 70
    64
  3
ダミー
 72
    65
 73
     0
 40
0.0
  0
LTYPE
  2
RAND1
 70
    64
  3
ランダム線1
 72
    65
 73
     4
 40
10.0
 49
1.0
 49
-2.0
 49
3.0
 49
-4.0
  0
LTYPE
  2
RAND2
 70
    64
  3
ランダム線2
 72
    65
 73
     4
 40
14.0
 49
2.0
 49
-3.0
 49
4.0
 49
-5.0
  0
LTYPE
  2
RAND3
 70
    64
  3
ランダム線3
 72
    65
 73
     4
 40
18.0
 49
3.0
 49
-4.0
 49
5.0
 49
-6.0
  0
LTYPE
  2
RAND4
 70
    64
  3
ランダム線4
 72
    65
 73
     4
 40
22.0
 49
4.0
 49
-5.0
 49
6.0
 49
-7.0
  0
LTYPE
  2
RAND5
 70
    64
  3
ランダム線5
 72
    65
 73
     4
 40
26.0
 49
5.0
 49
-6.0
 49
7.0
 49
-8.0
  0
LTYPE
  2
LONG1
 70
    64
  3
----------  --  ----------  --  
 72
    65
 73
     4
 40
40.0
 49
32.5
 49
-2.5
 49
2.5
 49
-2.5
  0
LTYPE
  2
LONG2
 70
    64
  3
--------  -  -  --------  -  -  
 72
    65
 73
     6
 40
40.0
 49
30.0
 49
-2.5
 49
1.25
 49
-2.5
 49
1.25
 49
-2.5
  0
LTYPE
  2
LONG3
 70
    64
  3
+++++++++++++++..+++++++++++++++
 72
    65
 73
     2
 40
40.0
 49
37.5
 49
-2.5
  0
LTYPE
  2
LONG4
 70
    64
  3
+++++++++++++++..+++++++++++++++
 72
    65
 73
     2
 40
80.0
 49
75.0
 49
-5.0
  0
LTYPE
  2
LONG5
 70
    64
  3
----------  --  ----------  --  
 72
    65
 73
     4
 40
60.0
 49
37.5
 49
-7.5
 49
7.5
 49
-7.5
  0
LTYPE
  2
dashed
 70
   64
  3
-------   -------------   ------
 72
   65
 73
    2
 40
7.5
 49
6
 49
-1.5
  0
LTYPE
  2
dashed_spaced
 70
   64
  3
----        --------        ----
 72
   65
 73
    2
 40
12
 49
6
 49
-6
  0
LTYPE
  2
long_dashed_dotted
 70
   64
  3
------------- --- --------------
 72
   65
 73
    4
 40
15.25
 49
12
 49
-1.5
 49
0.25
 49
-1.5
  0
LTYPE
  2
long_dashed_double-dotted
 70
   64
  3
----------- --- --- ------------
 72
   65
 73
    6
 40
17
 49
12
 49
-1.5
 49
0.25
 49
-1.5
 49
0.25
 49
-1.5
  0
LTYPE
  2
long_dashed_triplicate-dotted
 70
   64
  3
--------- --- --- --- ----------
 72
   65
 73
    8
 40
18.75
 49
12
 49
-1.5
 49
0.25
 49
-1.5
 49
0.25
 49
-1.5
 49
0.25
 49
-1.5
  0
LTYPE
  2
dotted
 70
   64
  3
   -       -       -       -    
 72
   65
 73
    2
 40
1.75
 49
0.25
 49
-1.5
  0
LTYPE
  2
chain
 70
   64
  3
-------------- -- --------------
 72
   65
 73
    4
 40
18.5
 49
12
 49
-1.5
 49
3.5
 49
-1.5
  0
LTYPE
  2
chain_double_dash
 70
   64
  3
------------ -- -- -------------
 72
   65
 73
    6
 40
23.5
 49
12
 49
-1.5
 49
3.5
 49
-1.5
 49
3.5
 49
-1.5
  0
LTYPE
  2
dashed_dotted
 70
   64
  3
-----------     -     ----------
 72
   65
 73
    4
 40
9.25
 49
6
 49
-1.5
 49
0.25
 49
-1.5
  0
LTYPE
  2
double-dashed_dotted
 70
   64
  3
------   -----------   -   -----
 72
   65
 73
    6
 40
16.75
 49
6
 49
-1.5
 49
6
 49
-1.5
 49
0.25
 49
-1.5
  0
LTYPE
  2
dashed_double-dotted
 70
   64
  3
---------    -    -    ---------
 72
   65
 73
    6
 40
11
 49
6
 49
-1.5
 49
0.25
 49
-1.5
 49
0.25
 49
-1.5
  0
LTYPE
  2
double-dashed_double-dotted
 70
   64
  3
-----   ---------   -   -   ----
 72
   65
 73
    8
 40
18.5
 49
6
 49
-1.5
 49
6
 49
-1.5
 49
0.25
 49
-1.5
 49
0.25
 49
-1.5
  0
LTYPE
  2
dashed_triplicate-dotted
 70
   64
  3
-------    -    -    -    ------
 72
   65
 73
    8
 40
12.75
 49
6
 49
-1.5
 49
0.25
 49
-1.5
 49
0.25
 49
-1.5
 49
0.25
 49
-1.5
  0
LTYPE
  2
double-dashed_triplicate-dotted
 70
   64
  3
-----  ---------  -  -  -  -----
 72
   65
 73
   10
 40
20.25
 49
6
 49
-1.5
 49
6
 49
-1.5
 49
0.25
 49
-1.5
 49
0.25
 49
-1.5
 49
0.25
 49
-1.5
  0
LTYPE
  2
undefined
 70
   64
  3
--------------------------------
 72
   65
 73
    0
 40
0
  0
LTYPE
  2
_
 70
   64
  3
                                
 72
   65
 73
    0
 40
0
  0
LTYPE
  2
__18
 70
   64
  3
                                
 72
   65
 73
    0
 40
0
  0
LTYPE
  2
__19
 70
   64
  3
                                
 72
   65
 73
    0
 40
0
  0
LTYPE
  2
__20
 70
   64
  3
                                
 72
   65
 73
    0
 40
0
  0
LTYPE
  2
__21
 70
   64
  3
                                
 72
   65
 73
    0
 40
0
  0
LTYPE
  2
__22
 70
   64
  3
                                
 72
   65
 73
    0
 40
0
  0
LTYPE
  2
__23
 70
   64
  3
                                
 72
   65
 73
    0
 40
0
  0
LTYPE
  2
__24
 70
   64
  3
                                
 72
   65
 73
    0
 40
0
  0
LTYPE
  2
__25
 70
   64
  3
                                
 72
   65
 73
    0
 40
0
  0
LTYPE
  2
__26
 70
   64
  3
                                
 72
   65
 73
    0
 40
0
  0
LTYPE
  2
__27
 70
   64
  3
                                
 72
   65
 73
    0
 40
0
  0
LTYPE
  2
__28
 70
   64
  3
                                
 72
   65
 73
    0
 40
0
  0
LTYPE
  2
__29
 70
   64
  3
                                
 72
   65
 73
    0
 40
0
  0
LTYPE
  2
__30
 70
   64
  3
                                
 72
   65
 73
    0
 40
0
  0
LTYPE
  2
__31
 70
   64
  3
                                
 72
   65
 73
    0
 40
0
  0
LTYPE
  2
__32
 70
   64
  3
                                
 72
   65
 73
    0
 40
0
  0
ENDTAB
  0
TABLE
  2
STYLE
  5
3
100
AcDbSymbolTable
 70
     1
  0
STYLE
  5
10
100
AcDbSymbolTableRecord
100
AcDbTextStyleTableRecord
  2
STANDARD
 70
     0
 40
0.0
 41
1.0
 50
0.0
 71
     0
 42
0.2
  3
txt
  4
bigfont.shx
  0
STYLE
  5
26
100
AcDbSymbolTableRecord
100
AcDbTextStyleTableRecord
  2
TATEGAKI
 70
    68
 40
0.0
 41
1.0
 50
0.0
 71
     0
 42
1.0
  3
txt
  4
bigfont.shx
  0
ENDTAB
  0
TABLE
  2
LAYER
 70
    2
  0
LAYER
  2
_0-0_
 70
   64
 62
    7
  6
CONTINUOUS
  0
LAYER
  2
ADD_LINE
 70
   64
 62
    7
  6
CONTINUOUS
  0
ENDTAB
  0
ENDSEC
  0
SECTION
  2
BLOCKS
  0
BLOCK
  2
-001-4
 70
   64
 10
0
 20
0
 30
0
  0
LINE
  8
_0-0_
  6
CONTINUOUS
 62
    7
 10
-25.328516830210148
 20
0.0575750518615478
 11
-0.3446030894531872
 21
-3.7160369193986185
  0
LINE
  8
_0-0_
  6
CONTINUOUS
 62
    7
 10
-25.103233169247048
 20
0.2127065315620768
 11
-0.2686971015255466
 21
-3.2754281090081037
  0
LINE
  8
_0-0_
  6
CONTINUOUS
 62
    7
 10
-16.235510597093281
 20
-9.2199955950502499
 11
-14.565136262172345
 21
-9.9569254486918339
  0
LINE
  8
_0-0_
  6
CONTINUOUS
 62
    7
 10
-14.565136262172345
 20
-9.9569254486918339
 11
-9.2592413159529059
 21
-11.258834856791978
  0
ARC
  8
_0-0_
  6
CONTINUOUS
 62
    7
 10
83.163311231397373
 20
316.8452504699564
 40
340.87273142254998
 50
254.26817859643739
 51
256.04091723939501
  0
ARC
  8
_0-0_
  6
CONTINUOUS
 62
    7
 10
401.62502221175617
 20
1402.0134576019655
 40
1471.5760063511334
 50
254.19963628407038
 51
254.60874102262252
  0
ARC
  8
_0-0_
  6
CONTINUOUS
 62
    7
 10
17.12460203930253
 20
2.1778528079267971
 40
19.911176900468767
 50
252.25321252123635
 51
258.39400120386148
  0
ARC
  8
_0-0_
  6
CONTINUOUS
 62
    7
 10
-25.108631534401354
 20
-0.0205993619303086
 40
0.2333683403647939
 50
88.674494017246417
 51
160.42849919238196
  0
ARC
  8
_0-0_
  6
CONTINUOUS
 62
    7
 10
-24.958799385305099
 20
-0.6088821803378436
 40
0.7621392467377469
 50
119.01934211765088
 51
193.20908763076031
  0
ARC
  8
_0-0_
  6
CONTINUOUS
 62
    7
 10
-23.204023573776283
 20
0.4761897139814124
 40
2.7963211467398321
 50
206.76388166930388
 51
231.42383610315434
  0
ARC
  8
_0-0_
  6
CONTINUOUS
 62
    7
 10
0.9287231543751772
 20
20.343094385791161
 40
33.998877947501654
 50
220.43909836316396
 51
225.67060811400759
  0
ARC
  8
_0-0_
  6
CONTINUOUS
 62
    7
 10
-14.353254350680487
 20
5.3536569233124567
 40
12.605942239753599
 50
227.74987340077632
 51
235.84589159979652
  0
ARC
  8
_0-0_
  6
CONTINUOUS
 62
    7
 10
-20.073537092525569
 20
-4.5424908967127919
 40
1.4588527170975882
 50
201.54148920314853
 51
218.4952456520702
  0
ARC
  8
_0-0_
  6
CONTINUOUS
 62
    7
 10
1.6580478498149063
 20
19.593329549940961
 40
33.917357500310999
 50
227.59355969692629
 51
238.15902508084238
  0
ARC
  8
_0-0_
  6
CONTINUOUS
 62
    7
 10
-1.7589899777711508
 20
-14.016306016207096
 40
10.396924244049938
 50
56.520637640628337
 51
82.181297100873707
  0
ARC
  8
_0-0_
  6
CONTINUOUS
 62
    7
 10
-6.9017593498906677
 20
-26.029978943119275
 40
23.371487388991369
 50
49.337922172941489
 51
62.261109566521526
  0
ARC
  8
_0-0_
  6
CONTINUOUS
 62
    7
 10
-24.183223880589054
 20
-43.864437839067641
 40
48.183628405288005
 50
40.904268062285126
 51
47.567935015854822
  0
ARC
  8
_0-0_
  6
CONTINUOUS
 62
    7
 10
7.8729430817768247
 20
-16.310865335152066
 40
5.9157332590789604
 50
25.650226258650775
 51
42.504164301610892
  0
ARC
  8
_0-0_
  6
CONTINUOUS
 62
    7
 10
-2.7586764791310259
 20
-18.163195022096509
 40
15.094555341557779
 50
54.513699913414541
 51
80.505160292133283
  0
ARC
  8
_0-0_
  6
CONTINUOUS
 62
    7
 10
-6.4744340863481966
 20
-24.743224992207942
 40
22.623345664622363
 50
46.538798028822256
 51
56.525475346882843
  0
ARC
  8
_0-0_
  6
CONTINUOUS
 62
    7
 10
-14.867837412252655
 20
-33.608008798917773
 40
34.831277175221871
 50
40.006850005193293
 51
46.54782585156088
  0
ARC
  8
_0-0_
  6
CONTINUOUS
 62
    7
 10
3.5770921913811833
 20
-19.426981537867398
 40
11.629072794388952
 50
33.735561388046662
 51
44.918394332102793
  0
ARC
  8
_0-0_
  6
CONTINUOUS
 62
    7
 10
10.789739534129026
 20
-13.437378491394455
 40
4.2499250102695054
 50
285.05040237110319
 51
295.87414067574105
  0
ARC
  8
_0-0_
  6
CONTINUOUS
 62
    7
 10
11.281520507138978
 20
-17.415758269651775
 40
0.6245839192394204
 50
302.06056699768743
 51
348.38377026958557
  0
ARC
  8
_0-0_
  6
CONTINUOUS
 62
    7
 10
11.593214380037196
 20
-17.357463842559106
 40
0.5879564606223526
 50
218.1779549844756
 51
271.93423448867571
  0
LINE
  8
_0-0_
  6
CONTINUOUS
 62
    7
 10
11.131024879800336
 20
-17.7208832496611
 11
9.9203337995338217
 21
-17.709673147066034
  0
LINE
  8
_0-0_
  6
CONTINUOUS
 62
    7
 10
12.947061500200107
 20
-21.139964541154498
 11
9.9203337995338217
 21
-17.709673147066034
  0
LINE
  8
_0-0_
  6
CONTINUOUS
 62
    7
 10
9.9203337995338217
 20
-17.709673147066034
 11
-3.0609650055460378
 21
-13.595565494678894
  0
LINE
  8
_0-0_
  6
CONTINUOUS
 62
    7
 10
-3.0609650055460378
 20
-13.595565494678894
 11
-13.710562470853361
 21
-11.062082308195258
  0
LINE
  8
_0-0_
  6
CONTINUOUS
 62
    7
 10
-13.710562470853361
 20
-11.062082308195258
 11
-13.710562470853361
 21
-10.613678204392841
  0
LINE
  8
_0-0_
  6
CONTINUOUS
 62
    7
 10
-13.710562470853361
 20
-10.613678204392841
 11
-13.717417055879636
 21
-10.161275592658427
  0
LINE
  8
_0-0_
  6
CONTINUOUS
 62
    7
 10
-21.430491765881442
 20
-5.0781449498484648
 11
-21.252632440022666
 21
-23.472058263068533
  0
LINE
  8
_0-0_
  6
CONTINUOUS
 62
    7
 10
-13.851040937108138
 20
-10.205054625768895
 11
-13.711388267241816
 21
-22.35483690413804
  0
LINE
  8
_0-0_
  6
CONTINUOUS
 62
    7
 10
-20.610230158637634
 20
-23.499988797041794
 11
-14.130346276840754
 21
-22.410697972084563
  0
LINE
  8
_0-0_
  6
CONTINUOUS
 62
    7
 10
-21.25263244002268
 20
-23.723433068827894
 11
-21.252632440022666
 21
-23.472058263068533
  0
LINE
  8
_0-0_
  6
CONTINUOUS
 62
    7
 10
-21.25263244002268
 20
-23.723433068827894
 11
12.37573046378526
 21
-41.34760000595648
  0
LINE
  8
_0-0_
  6
CONTINUOUS
 62
    7
 10
-13.711388267241816
 20
-22.35483690413804
 11
12.54331366762483
 21
-34.25324437674783
  0
LINE
  8
_0-0_
  6
CONTINUOUS
 62
    7
 10
12.37573046378526
 20
-41.34760000595648
 11
14.107423570127523
 21
-2.1051997735227843
  0
LINE
  8
_0-0_
  6
CONTINUOUS
 62
    7
 10
-13.710562470853361
 20
-11.062082308195258
 11
-8.2649341424556724
 21
-15.707369818501576
  0
LINE
  8
_0-0_
  6
CONTINUOUS
 62
    7
 10
-8.2649341424556724
 20
-15.707369818501576
 11
-7.2315043854449641
 21
-16.265980497966829
  0
LINE
  8
_0-0_
  6
CONTINUOUS
 62
    7
 10
-7.2315043854449641
 20
-16.265980497966829
 11
-6.1701440944609942
 21
-16.657007973592499
  0
LINE
  8
_0-0_
  6
CONTINUOUS
 62
    7
 10
-6.1701440944609942
 20
-16.657007973592499
 11
-4.8294784637443939
 21
-16.964243847298391
  0
LINE
  8
_0-0_
  6
CONTINUOUS
 62
    7
 10
-3.3770906971347472
 20
-17.411132390870584
 11
13.073993813116815
 21
-22.829655981683494
  0
LINE
  8
_0-0_
  6
CONTINUOUS
 62
    7
 10
12.37573046378526
 20
-41.34760000595648
 11
20.866612791657033
 21
-38.805921414389594
  0
LINE
  8
_0-0_
  6
CONTINUOUS
 62
    7
 10
20.866612791657033
 20
-38.805921414389594
 11
21.341431869202481
 21
-38.359032870817394
  0
LINE
  8
_0-0_
  6
CONTINUOUS
 62
    7
 10
21.341431869202481
 20
-38.359032870817394
 11
22.737958567865618
 21
-11.294345450726127
  0
LINE
  8
_0-0_
  6
CONTINUOUS
 62
    7
 10
22.737958567865618
 20
-11.294345450726127
 11
24.944470751753343
 21
-8.3057783155870482
  0
LINE
  8
_0-0_
  6
CONTINUOUS
 62
    7
 10
23.492082985143696
 20
-4.1720592875442151
 11
24.693095945993974
 21
-6.0713355977260477
  0
ARC
  8
_0-0_
  6
CONTINUOUS
 62
    7
 10
23.183349589042663
 20
-7.3725432546375345
 40
1.9931069787477214
 50
332.08045283561063
 51
40.757120624867028
  0
ARC
  8
_0-0_
  6
CONTINUOUS
 62
    7
 10
24.553443276127666
 20
-3.2922474673864457
 40
1.3786060010630055
 50
166.52684188726872
 51
219.65694424142498
  0
ARC
  8
_0-0_
  6
CONTINUOUS
 62
    7
 10
19.71690023346963
 20
-2.7764815471854831
 40
5.6494997704426417
 50
104.26384454070529
 51
173.175909803943
  0
ARC
  8
_0-0_
  6
CONTINUOUS
 62
    7
 10
19.275382088281944
 20
-0.5168820061080765
 40
3.3532516809253115
 50
36.929085326429401
 51
106.4656621900744
  0
ARC
  8
_0-0_
  6
CONTINUOUS
 62
    7
 10
15.49235608310515
 20
-3.343085057999744
 40
8.0753943252850195
 50
13.260740766154935
 51
36.831660793130744
  0
ARC
  8
_0-0_
  6
CONTINUOUS
 62
    7
 10
20.76606286935359
 20
-1.9934776376297805
 40
2.6347777396237038
 50
338.22114790599016
 51
11.000228574063591
  0
LINE
  8
_0-0_
  6
CONTINUOUS
 62
    7
 10
23.38036084925065
 20
-4.0882676856244302
 11
25.139984489566174
 21
-1.3231448222714448
  0
ARC
  8
_0-0_
  6
CONTINUOUS
 62
    7
 10
24.010914264835918
 20
0.109330888101141
 40
1.9112289052476996
 50
303.1555848166883
 51
34.454192330710988
  0
ARC
  8
_0-0_
  6
CONTINUOUS
 62
    7
 10
10.22536521760064
 20
-3.9947670997570839
 40
16.213080764578564
 50
18.652423193975157
 51
37.909119187574348
  0
ARC
  8
_0-0_
  6
CONTINUOUS
 62
    7
 10
1.6421701747338915
 20
-11.189019620323222
 40
27.408286884557036
 50
38.750681033982254
 51
51.617779300767637
  0
ARC
  8
_0-0_
  6
CONTINUOUS
 62
    7
 10
10.522500622150488
 20
-1.052919067886549
 40
13.964867653516915
 50
54.357957599982825
 51
77.601548805487269
  0
ARC
  8
_0-0_
  6
CONTINUOUS
 62
    7
 10
12.548064737836782
 20
-0.2242078850661499
 40
12.84735341013841
 50
85.657335446849174
 51
96.888724593264143
  0
ARC
  8
_0-0_
  6
CONTINUOUS
 62
    7
 10
-15.931865718116185
 20
10.751225014369894
 40
0.4945676615257219
 50
88.381905467262584
 51
171.22923671726647
  0
LINE
  8
_0-0_
  6
CONTINUOUS
 62
    7
 10
-25.103233169247048
 20
0.2127065315620768
 11
-15.945830985102816
 21
11.161803863776854
  0
LINE
  8
_0-0_
  6
CONTINUOUS
 62
    7
 10
-24.297060643108267
 20
0.3247566821510474
 11
-14.968262296038631
 21
11.022151193910545
  0
LINE
  8
_0-0_
  6
CONTINUOUS
 62
    7
 10
-14.102415742867493
 20
10.295957310605729
 11
-22.84467287649862
 21
0.1571734783114635
  0
LINE
  8
_0-0_
  6
CONTINUOUS
 62
    7
 10
-24.297060643108267
 20
0.3247566821510474
 11
-22.84467287649862
 21
0.1571734783114635
  0
LINE
  8
_0-0_
  6
CONTINUOUS
 62
    7
 10
-22.84467287649862
 20
0.1571734783114635
 11
-21.783312585514651
 21
-0.0662707934746293
  0
LINE
  8
_0-0_
  6
CONTINUOUS
 62
    7
 10
-24.297060643108267
 20
0.3247566821510474
 11
-24.88360185654679
 21
0.3806177500975707
  0
LINE
  8
_0-0_
  6
CONTINUOUS
 62
    7
 10
-15.917900451129555
 20
11.10594279583033
 11
-14.968262296038631
 21
11.133873329803592
  0
LINE
  8
_0-0_
  6
CONTINUOUS
 62
    7
 10
-14.968262296038631
 20
11.133873329803592
 11
-14.130346276840754
 21
10.268026776632468
  0
LINE
  8
_0-0_
  6
CONTINUOUS
 62
    7
 10
-15.917900451129555
 20
11.245595465696638
 11
11.007134299095398
 21
12.530400028466715
  0
LINE
  8
_0-0_
  6
CONTINUOUS
 62
    7
 10
-0.2209403581560707
 20
-3.2224211324532774
 11
11.481953376640874
 21
12.530400028466715
  0
LINE
  8
_0-0_
  6
CONTINUOUS
 62
    7
 10
19.553877694913709
 20
9.2345970196217451
 11
7.7113312902504418
 21
-7.0209737528169711
  0
LINE
  8
_0-0_
  6
CONTINUOUS
 62
    7
 10
19.386294491074139
 20
8.9832222138623905
 11
19.609738762860232
 21
8.0056535247982055
  0
LINE
  8
_0-0_
  6
CONTINUOUS
 62
    7
 10
19.609738762860232
 20
8.0056535247982055
 11
21.006265461523355
 21
7.6704871171190518
  0
LINE
  8
_0-0_
  6
CONTINUOUS
 62
    7
 10
19.74939143272654
 20
7.8660008549318974
 11
8.6888999793146269
 21
-7.8030287040683106
  0
LINE
  8
_0-0_
  6
CONTINUOUS
 62
    7
 10
21.09005706344314
 20
7.5587649812260054
 11
21.453154005095556
 21
7.056015369707282
  0
LINE
  8
_0-0_
  6
CONTINUOUS
 62
    7
 10
21.453154005095556
 20
7.056015369707282
 11
18.715961675715832
 21
3.1178100794772945
  0
LINE
  8
_0-0_
  6
CONTINUOUS
 62
    7
 10
13.688465560528599
 20
-4.1161982195976776
 11
9.9737045420847039
 21
-9.1436943347849109
  0
LINE
  8
_0-0_
  6
CONTINUOUS
 62
    7
 10
17.199422087108076
 20
2.2811020100900095
 11
21.201779199336187
 21
7.893931388905159
  0
LINE
  8
_0-0_
  6
CONTINUOUS
 62
    7
 10
9.4709549305659806
 20
-8.5571531213464027
 11
14.08372087575691
 21
-2.0882980220191172
  0
LINE
  8
_0-0_
  6
CONTINUOUS
 62
    7
 10
-21.475720908828222
 20
1.1174150910170511
 11
-14.641689927867432
 21
8.8868302006568456
  0
LINE
  8
_0-0_
  6
CONTINUOUS
 62
    7
 10
-21.571168268897509
 20
-0.1806690059252247
 11
-21.742973517022222
 21
0.2583888503934872
  0
LINE
  8
_0-0_
  6
CONTINUOUS
 62
    7
 10
-21.742973517022222
 20
0.2583888503934872
 11
-21.723884045008361
 21
0.7547151227537654
  0
LINE
  8
_0-0_
  6
CONTINUOUS
 62
    7
 10
-21.723884045008361
 20
0.7547151227537654
 11
-21.475720908828222
 21
1.1174150910170511
  0
LINE
  8
_0-0_
  6
CONTINUOUS
 62
    7
 10
-21.513899852855943
 20
0.2965677944212075
 11
-0.458212221571685
 21
-2.6813898397404898
  0
LINE
  8
_0-0_
  6
CONTINUOUS
 62
    7
 10
-13.629947911133016
 20
9.2304406969062569
 11
8.9338080092459364
 21
9.2304406969062569
  0
LINE
  8
_0-0_
  6
CONTINUOUS
 62
    7
 10
-15.252553032310857
 20
7.5696566317006955
 11
6.5285345354999578
 21
7.0924198313542774
  0
LINE
  8
_0-0_
  6
CONTINUOUS
 62
    7
 10
-15.13801620022771
 20
7.6651039917699819
 11
6.6048924235553983
 21
7.2833145514928503
  0
LINE
  8
_0-0_
  6
CONTINUOUS
 62
    7
 10
-15.08074778418613
 20
7.8941776559362751
 11
6.7194292556385307
 21
7.7414618798254082
  0
LINE
  8
_0-0_
  6
CONTINUOUS
 62
    7
 10
6.8339660877216772
 20
7.2642250794789902
 11
1.4507349798140012
 21
0.0865836022687602
  0
LINE
  8
_0-0_
  6
CONTINUOUS
 62
    7
 10
0.0762929948162991
 20
-0.1806690059252389
 11
-20.10127892383052
 21
2.2246044678207539
  0
LINE
  8
_0-0_
  6
CONTINUOUS
 62
    7
 10
-19.795847371608815
 20
2.7209307401810321
 11
-15.42435828043557
 21
7.7223724078115623
  0
ARC
  8
_0-0_
  6
CONTINUOUS
 62
    7
 10
-15.11892672821385
 20
7.5410224236799053
 40
0.3552129640611668
 50
83.829824904969655
 51
149.30027744918405
  0
ARC
  8
_0-0_
  6
CONTINUOUS
 62
    7
 10
-19.055976383716796
 20
1.9234834415375985
 40
1.0878103110552138
 50
132.85513611442482
 51
163.92985939307837
  0
ARC
  8
_0-0_
  6
CONTINUOUS
 62
    7
 10
0.2199799665962132
 20
2.7482751190119927
 40
2.9324664759999588
 50
267.19145813179614
 51
294.81562357170299
  0
ARC
  8
_0-0_
  6
CONTINUOUS
 62
    7
 10
6.6155527780566388
 20
7.4641687051825727
 40
0.2961111738829295
 50
317.52786109813371
 51
69.463605463457824
  0
LINE
  8
_0-0_
  6
CONTINUOUS
 62
    7
 10
-19.261342155220817
 20
2.26278341184846
 11
-14.794405703978285
 21
7.2833145514928503
  0
LINE
  8
_0-0_
  6
CONTINUOUS
 62
    7
 10
-14.794405703978285
 20
7.2833145514928503
 11
6.356729287375245
 21
6.9015251112157046
  0
LINE
  8
_0-0_
  6
CONTINUOUS
 62
    7
 10
5.8985819590426871
 20
6.1379462306614272
 11
-15.195284616269277
 21
6.6724514470494256
  0
LINE
  8
_0-0_
  6
CONTINUOUS
 62
    7
 10
-15.195284616269277
 20
6.6724514470494256
 11
5.7458661829318345
 21
5.8897830944812881
  0
LINE
  8
_0-0_
  6
CONTINUOUS
 62
    7
 10
-15.214374088283137
 20
7.5887461037145556
 11
-15.09983725619999
 21
7.0351514153127113
  0
LINE
  8
_0-0_
  6
CONTINUOUS
 62
    7
 10
-15.13801620022771
 20
7.6651039917699819
 11
-19.776757899594955
 21
2.3773202439316066
  0
LINE
  8
_0-0_
  6
CONTINUOUS
 62
    7
 10
-20.177636811885947
 20
2.0146202756683209
 11
0.1908298268994457
 21
-0.6960847502993772
  0
LINE
  8
_0-0_
  6
CONTINUOUS
 62
    7
 10
1.6798086439802944
 20
-0.3906531980776577
 11
6.1085661511951059
 21
5.6034410142734288
  0
ARC
  8
_0-0_
  6
CONTINUOUS
 62
    7
 10
0.3429162797570626
 20
2.3445954347650826
 40
3.044481282088372
 50
267.13660904004803
 51
296.04774178053481
  0
LINE
  8
_0-0_
  6
CONTINUOUS
 62
    7
 10
-15.061658312172284
 20
6.2143041187168535
 11
-14.794405703978285
 21
6.2143041187168535
  0
LINE
  8
_0-0_
  6
CONTINUOUS
 62
    7
 10
-14.794405703978285
 20
6.2143041187168535
 11
-14.546242567798146
 21
6.5197356709385588
  0
LINE
  8
_0-0_
  6
CONTINUOUS
 62
    7
 10
-16.149758216962127
 20
4.8207726617052913
 11
-15.825237192726561
 21
4.8207726617052913
  0
LINE
  8
_0-0_
  6
CONTINUOUS
 62
    7
 10
-15.825237192726561
 20
4.8207726617052913
 11
-15.462537224463276
 21
5.1834726299685769
  0
LINE
  8
_0-0_
  6
CONTINUOUS
 62
    7
 10
-17.218768649738124
 20
3.4845096207353095
 11
-16.932426569530264
 21
3.4845096207353095
  0
LINE
  8
_0-0_
  6
CONTINUOUS
 62
    7
 10
-16.932426569530264
 20
3.4845096207353095
 11
-16.607905545294699
 21
3.8853885330263012
  0
LINE
  8
_0-0_
  6
CONTINUOUS
 62
    7
 10
-18.325958026541826
 20
2.26278341184846
 11
-18.039615946333967
 21
2.2436939398345999
  0
LINE
  8
_0-0_
  6
CONTINUOUS
 62
    7
 10
-18.039615946333967
 20
2.2436939398345999
 11
-17.753273866126122
 21
2.5873044360840254
  0
LINE
  8
_0-0_
  6
CONTINUOUS
 62
    7
 10
-14.255128119586843
 20
6.1952146467029934
 11
-13.987875511392843
 21
6.1952146467029934
  0
LINE
  8
_0-0_
  6
CONTINUOUS
 62
    7
 10
-13.987875511392843
 20
6.1952146467029934
 11
-13.739712375212704
 21
6.5006461989246986
  0
LINE
  8
_0-0_
  6
CONTINUOUS
 62
    7
 10
-13.434280822990985
 20
6.0615883426060009
 11
-13.167028214796986
 21
6.0615883426060009
  0
LINE
  8
_0-0_
  6
CONTINUOUS
 62
    7
 10
-13.167028214796986
 20
6.0615883426060009
 11
-12.918865078616847
 21
6.3670198948277061
  0
LINE
  8
_0-0_
  6
CONTINUOUS
 62
    7
 10
-12.498896694311995
 20
6.0615883426060009
 11
-12.231644086117996
 21
6.0615883426060009
  0
LINE
  8
_0-0_
  6
CONTINUOUS
 62
    7
 10
-12.231644086117996
 20
6.0615883426060009
 11
-11.983480949937857
 21
6.3670198948277061
  0
LINE
  8
_0-0_
  6
CONTINUOUS
 62
    7
 10
-11.544423093619145
 20
6.0043199265644347
 11
-11.277170485425145
 21
6.0043199265644347
  0
LINE
  8
_0-0_
  6
CONTINUOUS
 62
    7
 10
-11.277170485425145
 20
6.0043199265644347
 11
-11.029007349245006
 21
6.30975147878614
  0
LINE
  8
_0-0_
  6
CONTINUOUS
 62
    7
 10
-10.685396852995581
 20
5.9279620385089942
 11
-10.418144244801582
 21
5.9279620385089942
  0
LINE
  8
_0-0_
  6
CONTINUOUS
 62
    7
 10
-10.418144244801582
 20
5.9279620385089942
 11
-10.169981108621442
 21
6.2333935907306994
  0
LINE
  8
_0-0_
  6
CONTINUOUS
 62
    7
 10
-9.6736548362611643
 20
5.9661409825367144
 11
-9.4064022280671651
 21
5.9661409825367144
  0
LINE
  8
_0-0_
  6
CONTINUOUS
 62
    7
 10
-9.4064022280671651
 20
5.9661409825367144
 11
-9.158239091887026
 21
6.2715725347584197
  0
LINE
  8
_0-0_
  6
CONTINUOUS
 62
    7
 10
-8.5664654594574614
 20
5.9279620385089942
 11
-8.2992128512634622
 21
5.9279620385089942
  0
LINE
  8
_0-0_
  6
CONTINUOUS
 62
    7
 10
-8.2992128512634622
 20
5.9279620385089942
 11
-8.0510497150833231
 21
6.2333935907306994
  0
LINE
  8
_0-0_
  6
CONTINUOUS
 62
    7
 10
-7.5356339707091848
 20
5.8897830944812881
 11
-7.2683813625151856
 21
5.8897830944812881
  0
LINE
  8
_0-0_
  6
CONTINUOUS
 62
    7
 10
-7.2683813625151856
 20
5.8897830944812881
 11
-7.0202182263350466
 21
6.1952146467029934
  0
LINE
  8
_0-0_
  6
CONTINUOUS
 62
    7
 10
-6.0084762096006159
 20
5.7561567903842814
 11
-5.7412236014066167
 21
5.7561567903842814
  0
LINE
  8
_0-0_
  6
CONTINUOUS
 62
    7
 10
-5.7412236014066167
 20
5.7561567903842814
 11
-5.4930604652264776
 21
6.0615883426059867
  0
LINE
  8
_0-0_
  6
CONTINUOUS
 62
    7
 10
-4.3286026723812085
 20
5.7179778463565754
 11
-4.0613500641872093
 21
5.7179778463565754
  0
LINE
  8
_0-0_
  6
CONTINUOUS
 62
    7
 10
-4.0613500641872093
 20
5.7179778463565754
 11
-3.8131869280070703
 21
6.0234093985782806
  0
LINE
  8
_0-0_
  6
CONTINUOUS
 62
    7
 10
-3.4481007757420628
 20
5.6416199583011348
 11
-3.047221863451071
 21
5.6416199583011348
  0
LINE
  8
_0-0_
  6
CONTINUOUS
 62
    7
 10
-3.047221863451071
 20
5.6416199583011348
 11
-2.6749771591808553
 21
6.0997672866336927
  0
LINE
  8
_0-0_
  6
CONTINUOUS
 62
    7
 10
-2.2836429828967795
 20
5.4698147101764221
 11
-1.8827640706057878
 21
5.4698147101764221
  0
LINE
  8
_0-0_
  6
CONTINUOUS
 62
    7
 10
-1.8827640706057878
 20
5.4698147101764221
 11
-1.510519366335572
 21
5.92796203850898
  0
LINE
  8
_0-0_
  6
CONTINUOUS
 62
    7
 10
-1.0428273019960841
 20
5.431635766148716
 11
-0.6419483897050923
 21
5.431635766148716
  0
LINE
  8
_0-0_
  6
CONTINUOUS
 62
    7
 10
-0.6419483897050923
 20
5.431635766148716
 11
-0.2697036854348766
 21
5.8897830944812739
  0
LINE
  8
_0-0_
  6
CONTINUOUS
 62
    7
 10
0.2743462669600518
 20
5.4507252381625619
 11
0.6752251792510435
 21
5.4507252381625619
  0
LINE
  8
_0-0_
  6
CONTINUOUS
 62
    7
 10
0.6752251792510435
 20
5.4507252381625619
 11
1.0474698835212592
 21
5.9088725664951198
  0
LINE
  8
_0-0_
  6
CONTINUOUS
 62
    7
 10
1.4388040598053351
 20
5.3934568221209958
 11
1.8396829720963268
 21
5.3934568221209958
  0
LINE
  8
_0-0_
  6
CONTINUOUS
 62
    7
 10
1.8396829720963268
 20
5.3934568221209958
 11
2.2119276763665425
 21
5.8516041504535536
  0
LINE
  8
_0-0_
  6
CONTINUOUS
 62
    7
 10
2.7368881567476109
 20
5.3170989340655694
 11
3.1377670690386026
 21
5.3170989340655694
  0
LINE
  8
_0-0_
  6
CONTINUOUS
 62
    7
 10
3.1377670690386026
 20
5.3170989340655694
 11
3.5100117733088183
 21
5.7752462623981273
  0
LINE
  8
_0-0_
  6
CONTINUOUS
 62
    7
 10
4.149509085773019
 20
5.221651573996283
 11
4.5503879980640107
 21
5.221651573996283
  0
LINE
  8
_0-0_
  6
CONTINUOUS
 62
    7
 10
4.5503879980640107
 20
5.221651573996283
 11
4.9226327023342265
 21
5.6797989023288409
  0
LINE
  8
_0-0_
  6
CONTINUOUS
 62
    7
 10
-14.519994543779106
 20
4.6680568855944387
 11
-14.119115631488114
 21
4.6680568855944387
  0
LINE
  8
_0-0_
  6
CONTINUOUS
 62
    7
 10
-14.119115631488114
 20
4.6680568855944387
 11
-13.746870927217898
 21
5.1262042139269965
  0
LINE
  8
_0-0_
  6
CONTINUOUS
 62
    7
 10
-15.340841840374949
 20
4.744414773649865
 11
-14.939962928083958
 21
4.744414773649865
  0
LINE
  8
_0-0_
  6
CONTINUOUS
 62
    7
 10
-14.939962928083958
 20
4.744414773649865
 11
-14.567718223813742
 21
5.2025621019824229
  0
LINE
  8
_0-0_
  6
CONTINUOUS
 62
    7
 10
-11.599305325658989
 20
4.4198937494142854
 11
-11.198426413367997
 21
4.4198937494142854
  0
LINE
  8
_0-0_
  6
CONTINUOUS
 62
    7
 10
-11.198426413367997
 20
4.4198937494142854
 11
-10.826181709097781
 21
4.8780410777468433
  0
LINE
  8
_0-0_
  6
CONTINUOUS
 62
    7
 10
-12.439242094268693
 20
4.6298779415667184
 11
-12.038363181977701
 21
4.6298779415667184
  0
LINE
  8
_0-0_
  6
CONTINUOUS
 62
    7
 10
-12.038363181977701
 20
4.6298779415667184
 11
-11.666118477707485
 21
5.0880252698992763
  0
LINE
  8
_0-0_
  6
CONTINUOUS
 62
    7
 10
-10.492115948855286
 20
4.4198937494142854
 11
-10.091237036564294
 21
4.4198937494142854
  0
LINE
  8
_0-0_
  6
CONTINUOUS
 62
    7
 10
-10.091237036564294
 20
4.4198937494142854
 11
-9.7189923322940786
 21
4.8780410777468433
  0
LINE
  8
_0-0_
  6
CONTINUOUS
 62
    7
 10
-8.277737195247866
 20
4.2289990292757267
 11
-7.8768582829568743
 21
4.2289990292757267
  0
LINE
  8
_0-0_
  6
CONTINUOUS
 62
    7
 10
-7.8768582829568743
 20
4.2289990292757267
 11
-7.5046135786866586
 21
4.6871463576082846
  0
LINE
  8
_0-0_
  6
CONTINUOUS
 62
    7
 10
-6.4642373539314661
 20
4.1335516692064402
 11
-6.0633584416404744
 21
4.1335516692064402
  0
LINE
  8
_0-0_
  6
CONTINUOUS
 62
    7
 10
-6.0633584416404744
 20
4.1335516692064402
 11
-5.6911137373702587
 21
4.5916989975389981
  0
LINE
  8
_0-0_
  6
CONTINUOUS
 62
    7
 10
-3.8489796880330545
 20
4.09537272517872
 11
-3.4481007757420628
 21
4.09537272517872
  0
LINE
  8
_0-0_
  6
CONTINUOUS
 62
    7
 10
-3.4481007757420628
 20
4.09537272517872
 11
-3.075856071471847
 21
4.5535200535112779
  0
LINE
  8
_0-0_
  6
CONTINUOUS
 62
    7
 10
-2.837237671298638
 20
3.9617464210817275
 11
-2.4363587590076463
 21
3.9617464210817275
  0
LINE
  8
_0-0_
  6
CONTINUOUS
 62
    7
 10
-2.4363587590076463
 20
3.9617464210817275
 11
-2.0641140547374306
 21
4.4198937494142854
  0
LINE
  8
_0-0_
  6
CONTINUOUS
 62
    7
 10
-1.6155114624117886
 20
3.9235674770540072
 11
-1.2146325501207969
 21
3.9235674770540072
  0
LINE
  8
_0-0_
  6
CONTINUOUS
 62
    7
 10
-1.2146325501207969
 20
3.9235674770540072
 11
-0.8423878458505811
 21
4.3817148053865651
  0
LINE
  8
_0-0_
  6
CONTINUOUS
 62
    7
 10
1.3051777557083284
 20
3.7708517009431546
 11
1.7060566679993201
 21
3.7708517009431546
  0
LINE
  8
_0-0_
  6
CONTINUOUS
 62
    7
 10
1.7060566679993201
 20
3.7708517009431546
 11
2.0783013722695358
 21
4.2289990292757125
  0
LINE
  8
_0-0_
  6
CONTINUOUS
 62
    7
 10
2.584172380636744
 20
3.5799569808045817
 11
2.9850512929277357
 21
3.5799569808045817
  0
LINE
  8
_0-0_
  6
CONTINUOUS
 62
    7
 10
2.9850512929277357
 20
3.5799569808045817
 11
3.3572959971979515
 21
4.0381043091371396
  0
LINE
  8
_0-0_
  6
CONTINUOUS
 62
    7
 10
1.419714587791475
 20
1.823725555529748
 11
1.8205935000824667
 21
1.823725555529748
  0
LINE
  8
_0-0_
  6
CONTINUOUS
 62
    7
 10
1.8205935000824667
 20
1.823725555529748
 11
2.1928382043526824
 21
2.2818728838623059
  0
LINE
  8
_0-0_
  6
CONTINUOUS
 62
    7
 10
0.2361673229323457
 20
1.9955308036544608
 11
0.6370462352233374
 21
1.9955308036544608
  0
LINE
  8
_0-0_
  6
CONTINUOUS
 62
    7
 10
0.6370462352233374
 20
1.9955308036544608
 11
1.0092909394935532
 21
2.4536781319870187
  0
LINE
  8
_0-0_
  6
CONTINUOUS
 62
    7
 10
0.3316146830016322
 20
0.1820309623380467
 11
0.7324935952926239
 21
0.1820309623380467
  0
LINE
  8
_0-0_
  6
CONTINUOUS
 62
    7
 10
0.7324935952926239
 20
0.1820309623380467
 11
1.1047382995628396
 21
0.6401782906706046
  0
LINE
  8
_0-0_
  6
CONTINUOUS
 62
    7
 10
-1.1000957180376503
 20
0.3538362104627594
 11
-0.6992168057466585
 21
0.3538362104627594
  0
LINE
  8
_0-0_
  6
CONTINUOUS
 62
    7
 10
-0.6992168057466585
 20
0.3538362104627594
 11
-0.3269721014764428
 21
0.8119835387953173
  0
LINE
  8
_0-0_
  6
CONTINUOUS
 62
    7
 10
-2.1118377347720667
 20
0.4683730425458918
 11
-1.710958822481075
 21
0.4683730425458918
  0
LINE
  8
_0-0_
  6
CONTINUOUS
 62
    7
 10
-1.710958822481075
 20
0.4683730425458918
 11
-1.3387141182108593
 21
0.9265203708784497
  0
LINE
  8
_0-0_
  6
CONTINUOUS
 62
    7
 10
-3.5244586637974891
 20
0.6401782906706046
 11
-3.1235797515064974
 21
0.6401782906706046
  0
LINE
  8
_0-0_
  6
CONTINUOUS
 62
    7
 10
-3.1235797515064974
 20
0.6401782906706046
 11
-2.7513350472362816
 21
1.0983256190031625
  0
LINE
  8
_0-0_
  6
CONTINUOUS
 62
    7
 10
-4.6507375126150521
 20
0.8119835387953173
 11
-4.2498586003240604
 21
0.8119835387953173
  0
LINE
  8
_0-0_
  6
CONTINUOUS
 62
    7
 10
-4.2498586003240604
 20
0.8119835387953173
 11
-3.8776138960538447
 21
1.2701308671278753
  0
LINE
  8
_0-0_
  6
CONTINUOUS
 62
    7
 10
-5.7770163614326151
 20
0.8119835387953173
 11
-5.3761374491416234
 21
0.8119835387953173
  0
LINE
  8
_0-0_
  6
CONTINUOUS
 62
    7
 10
-5.3761374491416234
 20
0.8119835387953173
 11
-5.0038927448714077
 21
1.2701308671278753
  0
LINE
  8
_0-0_
  6
CONTINUOUS
 62
    7
 10
-6.7314899621254511
 20
0.9837887869200301
 11
-6.3306110498344594
 21
0.9837887869200301
  0
LINE
  8
_0-0_
  6
CONTINUOUS
 62
    7
 10
-6.3306110498344594
 20
0.9837887869200301
 11
-5.9583663455642437
 21
1.441936115252588
  0
LINE
  8
_0-0_
  6
CONTINUOUS
 62
    7
 10
-8.0486635310815871
 20
1.0410572029616105
 11
-7.6477846187905953
 21
1.0410572029616105
  0
LINE
  8
_0-0_
  6
CONTINUOUS
 62
    7
 10
-7.6477846187905953
 20
1.0410572029616105
 11
-7.2755399145203796
 21
1.4992045312941684
  0
LINE
  8
_0-0_
  6
CONTINUOUS
 62
    7
 10
-11.236605357395703
 20
1.4419361152526022
 11
-10.835726445104712
 21
1.4419361152526022
  0
LINE
  8
_0-0_
  6
CONTINUOUS
 62
    7
 10
-10.835726445104712
 20
1.4419361152526022
 11
-10.463481740834496
 21
1.9000834435851601
  0
LINE
  8
_0-0_
  6
CONTINUOUS
 62
    7
 10
-12.019273709963841
 20
1.403757171224882
 11
-11.618394797672849
 21
1.403757171224882
  0
LINE
  8
_0-0_
  6
CONTINUOUS
 62
    7
 10
-11.618394797672849
 20
1.403757171224882
 11
-11.246150093402633
 21
1.8619044995574399
  0
LINE
  8
_0-0_
  6
CONTINUOUS
 62
    7
 10
-13.145552558781404
 20
1.613741363377315
 11
-12.744673646490412
 21
1.613741363377315
  0
LINE
  8
_0-0_
  6
CONTINUOUS
 62
    7
 10
-12.744673646490412
 20
1.613741363377315
 11
-12.372428942220196
 21
2.0718886917098729
  0
LINE
  8
_0-0_
  6
CONTINUOUS
 62
    7
 10
-14.004578799404968
 20
1.7473676674743075
 11
-13.603699887113976
 21
1.7473676674743075
  0
LINE
  8
_0-0_
  6
CONTINUOUS
 62
    7
 10
-13.603699887113976
 20
1.7473676674743075
 11
-13.23145518284376
 21
2.2055149958068654
  0
LINE
  8
_0-0_
  6
CONTINUOUS
 62
    7
 10
-14.863605040028531
 20
1.7473676674743075
 11
-14.46272612773754
 21
1.7473676674743075
  0
LINE
  8
_0-0_
  6
CONTINUOUS
 62
    7
 10
-14.46272612773754
 20
1.7473676674743075
 11
-14.090481423467324
 21
2.2055149958068654
  0
LINE
  8
_0-0_
  6
CONTINUOUS
 62
    7
 10
-15.951704944818374
 20
1.9382623876128804
 11
-15.550826032527382
 21
1.9382623876128804
  0
LINE
  8
_0-0_
  6
CONTINUOUS
 62
    7
 10
-15.550826032527382
 20
1.9382623876128804
 11
-15.178581328257167
 21
2.3964097159454383
  0
LINE
  8
_0-0_
  6
CONTINUOUS
 62
    7
 10
-16.658015409331085
 20
1.9573518596267405
 11
-16.257136497040094
 21
1.9573518596267405
  0
LINE
  8
_0-0_
  6
CONTINUOUS
 62
    7
 10
-16.257136497040094
 20
1.9573518596267405
 11
-15.884891792769878
 21
2.4154991879592984
  0
LINE
  8
_0-0_
  6
CONTINUOUS
 62
    7
 10
-17.421594289885363
 20
2.0909781637237472
 11
-17.020715377594371
 21
2.0909781637237472
  0
LINE
  8
_0-0_
  6
CONTINUOUS
 62
    7
 10
-17.020715377594371
 20
2.0909781637237472
 11
-16.648470673324155
 21
2.5491254920563051
  0
LINE
  8
_0-0_
  6
CONTINUOUS
 62
    7
 10
-16.658015409331085
 20
3.3317938446244426
 11
-16.257136497040094
 21
3.3317938446244426
  0
LINE
  8
_0-0_
  6
CONTINUOUS
 62
    7
 10
-16.257136497040094
 20
3.3317938446244426
 11
-15.884891792769878
 21
3.7899411729570005
  0
LINE
  8
_0-0_
  6
CONTINUOUS
 62
    7
 10
-15.512647088499662
 20
3.1599885964997299
 11
-15.11176817620867
 21
3.1599885964997299
  0
LINE
  8
_0-0_
  6
CONTINUOUS
 62
    7
 10
-15.11176817620867
 20
3.1599885964997299
 11
-14.739523471938455
 21
3.6181359248322877
  0
LINE
  8
_0-0_
  6
CONTINUOUS
 62
    7
 10
-13.699147247183262
 20
3.1218096524720238
 11
-13.298268334892271
 21
3.1218096524720238
  0
LINE
  8
_0-0_
  6
CONTINUOUS
 62
    7
 10
-13.298268334892271
 20
3.1218096524720238
 11
-12.926023630622055
 21
3.5799569808045817
  0
LINE
  8
_0-0_
  6
CONTINUOUS
 62
    7
 10
-12.515599982324119
 20
2.8545570442780246
 11
-12.114721070033127
 21
2.8545570442780246
  0
LINE
  8
_0-0_
  6
CONTINUOUS
 62
    7
 10
-12.114721070033127
 20
2.8545570442780246
 11
-11.742476365762911
 21
3.3127043726105825
  0
LINE
  8
_0-0_
  6
CONTINUOUS
 62
    7
 10
-5.0325269528921837
 20
2.3964097159454525
 11
-4.631648040601192
 21
2.3964097159454525
  0
LINE
  8
_0-0_
  6
CONTINUOUS
 62
    7
 10
-4.631648040601192
 20
2.3964097159454525
 11
-4.2594033363309762
 21
2.8545570442780104
  0
LINE
  8
_0-0_
  6
CONTINUOUS
 62
    7
 10
-3.963516520116201
 20
2.3773202439315924
 11
-3.5626376078252093
 21
2.3773202439315924
  0
LINE
  8
_0-0_
  6
CONTINUOUS
 62
    7
 10
-3.5626376078252093
 20
2.3773202439315924
 11
-3.1903929035549936
 21
2.8354675722641502
  0
LINE
  8
_0-0_
  6
CONTINUOUS
 62
    7
 10
-2.7799692552570576
 20
2.0909781637237472
 11
-2.3790903429660659
 21
2.0909781637237472
  0
LINE
  8
_0-0_
  6
CONTINUOUS
 62
    7
 10
-2.3790903429660659
 20
2.0909781637237472
 11
-2.0068456386958502
 21
2.5491254920563051
  0
LINE
  8
_0-0_
  6
CONTINUOUS
 62
    7
 10
-7.1896372904580232
 20
2.530036020042445
 11
-6.7887583781670315
 21
2.530036020042445
  0
LINE
  8
_0-0_
  6
CONTINUOUS
 62
    7
 10
-6.7887583781670315
 20
2.530036020042445
 11
-6.4165136738968158
 21
2.9881833483750029
  0
LINE
  8
_0-0_
  6
CONTINUOUS
 62
    7
 10
11.223490879629878
 20
-16.878242335345313
 11
9.9482655135067404
 21
-17.498143554988502
  0
LINE
  8
_0-0_
  6
CONTINUOUS
 62
    7
 10
9.8774196598332367
 20
-17.498143554988502
 11
-3.7958300991536902
 21
-13.282815261414811
  0
LINE
  8
_0-0_
  6
CONTINUOUS
 62
    7
 10
-3.7958300991536902
 20
-13.282815261414811
 11
-13.661115223189597
 21
-10.98032501702582
  0
ARC
  8
_0-0_
  6
CONTINUOUS
 62
    7
 10
-6.8581082806303755
 20
-15.596066358880535
 40
0.6354241284062799
 50
196.03941281658928
 51
278.57661881826721
  0
ARC
  8
_0-0_
  6
CONTINUOUS
 62
    7
 10
-6.7686108646309293
 20
-16.17700375822028
 40
0.0476725629848797
 50
276.34019174590236
 51
83.659808254098579
  0
ARC
  8
_0-0_
  6
CONTINUOUS
 62
    7
 10
-7.7861981827877855
 20
-16.995132413964726
 40
1.3399003284771847
 50
40.236997959091504
 51
68.255227532035335
  0
ARC
  8
_0-0_
  6
CONTINUOUS
 62
    7
 10
-7.3663402131158904
 20
-15.871254667362464
 40
0.1429046951804602
 50
57.615977921528696
 51
135.80369569398593
  0
ARC
  8
_0-0_
  6
CONTINUOUS
 62
    7
 10
-5.8999594740479893
 20
-16.645549053746421
 40
3.570361291952719
 50
58.13790071832409
 51
79.120854742989437
  0
ARC
  8
_0-0_
  6
CONTINUOUS
 62
    7
 10
-7.2932989115240474
 20
-19.612815241409244
 40
6.8367683026812065
 50
41.096269720371822
 51
61.348974103475243
  0
ARC
  8
_0-0_
  6
CONTINUOUS
 62
    7
 10
-5.91545820270386
 20
-19.343846744853458
 40
5.6654038836998533
 50
33.154531229520799
 51
48.224217120837928
  0
ARC
  8
_0-0_
  6
CONTINUOUS
 62
    7
 10
-1.7085370410582641
 20
-16.4519869618576
 40
0.57455546365272
 50
323.59782722386063
 51
21.068564252510974
  0
ARC
  8
_0-0_
  6
CONTINUOUS
 62
    7
 10
-1.9778668317196519
 20
-15.208325843873368
 40
1.745435825985165
 50
262.89641865926887
 51
294.78721046111389
  0
ARC
  8
_0-0_
  6
CONTINUOUS
 62
    7
 10
-1.9171505230680594
 20
-15.070612535709472
 40
1.8900946820560791
 50
225.74768721527684
 51
261.58614133316314
  0
ARC
  8
_0-0_
  6
CONTINUOUS
 62
    7
 10
-2.6925468230123215
 20
-15.911759851979141
 40
0.7471837239901812
 50
223.32588626602131
 51
302.73760025122135
  0
ARC
  8
_0-0_
  6
CONTINUOUS
 62
    7
 10
-2.8274460360821081
 20
-16.371004144997514
 40
0.5649213099991431
 50
342.56605806747041
 51
53.134578536962735
  0
ARC
  8
_0-0_
  6
CONTINUOUS
 62
    7
 10
-5.762569951371745
 20
-18.776108898704436
 40
4.3453637597099197
 50
41.109339289300749
 51
60.543344769810453
  0
ARC
  8
_0-0_
  6
CONTINUOUS
 62
    7
 10
-6.1896694695114576
 20
-17.91824166046954
 40
3.890265848401516
 50
48.770237158689959
 51
72.758153703910779
  0
ARC
  8
_0-0_
  6
CONTINUOUS
 62
    7
 10
-5.1871832782340022
 20
-14.499006493680824
 40
0.3323013552507019
 50
63.048564601160109
 51
151.3485178389698
  0
ARC
  8
_0-0_
  6
CONTINUOUS
 62
    7
 10
-4.9032962995900107
 20
-14.300605921848117
 40
0.5768234499980158
 50
183.88364406203343
 51
234.69908027993665
  0
ARC
  8
_0-0_
  6
CONTINUOUS
 62
    7
 10
-2.9078202423415433
 20
-13.378275049680269
 40
2.7136769151420994
 50
210.88788913911819
 51
231.00500239721941
  0
ARC
  8
_0-0_
  6
CONTINUOUS
 62
    7
 10
-4.4606339464845775
 20
-13.745603272350351
 40
1.1788014386577979
 50
164.14963934609301
 51
210.26247465667348
  0
ARC
  8
_0-0_
  6
CONTINUOUS
 62
    7
 10
-5.1569706956998118
 20
-13.60996150647162
 40
0.475655097696263
 50
98.356258469123603
 51
156.93898281108906
  0
ARC
  8
_0-0_
  6
CONTINUOUS
 62
    7
 10
0.5339974408553445
 20
-16.848066360538994
 40
5.3188655330273873
 50
154.53042978623225
 51
181.10773805575656
  0
ARC
  8
_0-0_
  6
CONTINUOUS
 62
    7
 10
2.2955823832982958
 20
-16.716059554105065
 40
7.0833502127467192
 50
181.8998695767294
 51
196.69861378739688
  0
ARC
  8
_0-0_
  6
CONTINUOUS
 62
    7
 10
-3.2150175676667772
 20
-18.243972514968817
 40
1.3713622717390681
 50
201.71534975382676
 51
236.96568656584839
  0
ARC
  8
_0-0_
  6
CONTINUOUS
 62
    7
 10
-3.7418758928446039
 20
-18.420819379136475
 40
0.997553369912996
 50
257.2164147739843
 51
306.26072763945831
  0
ARC
  8
_0-0_
  6
CONTINUOUS
 62
    7
 10
-9.9144211072215143
 20
-12.328614870243811
 40
9.6589242599156204
 50
314.4379010659589
 51
325.08938231549348
  0
ARC
  8
_0-0_
  6
CONTINUOUS
 62
    7
 10
-3.573284219407256
 20
-17.389829222279857
 40
1.0988670636767612
 50
289.60883660463219
 51
333.04216435370876
  0
ARC
  8
_0-0_
  6
CONTINUOUS
 62
    7
 10
-1.2932661231970854
 20
-17.425616107546603
 40
2.2464878949777156
 50
160.82280077025908
 51
207.92306178350282
  0
ARC
  8
_0-0_
  6
CONTINUOUS
 62
    7
 10
0.7754948487344819
 20
-17.298353735154713
 40
4.2190727350262556
 50
153.62678665353386
 51
169.50331570062198
  0
LINE
  8
_0-0_
  6
CONTINUOUS
 62
    7
 10
-15.096185027735203
 20
-25.644582973480802
 11
3.6558652887727163
 21
-35.292241228227631
  0
LINE
  8
_0-0_
  6
CONTINUOUS
 62
    7
 10
-14.234452445757825
 20
-25.363583218488174
 11
4.067998262761904
 21
-34.655308450244348
  0
LINE
  8
_0-0_
  6
CONTINUOUS
 62
    7
 10
-10.52525567985515
 20
-24.782850391503416
 11
8.9011940486350767
 21
-33.962175721262533
  0
LINE
  8
_0-0_
  6
CONTINUOUS
 62
    7
 10
-9.6822564148772727
 20
-24.595517221508331
 11
9.200927120627199
 21
-33.418909528276792
  0
LINE
  8
_0-0_
  6
CONTINUOUS
 62
    7
 10
-12.567187232801572
 20
-25.588383022482276
 11
-10.506522362855648
 21
-26.712382042452781
  0
LINE
  8
_0-0_
  6
CONTINUOUS
 62
    7
 10
-11.53685479782861
 20
-25.326116584489156
 11
-9.4199899768841533
 21
-26.300249068463593
  0
LINE
  8
_0-0_
  6
CONTINUOUS
 62
    7
 10
-8.7643238819013618
 20
-27.536647990431149
 11
-6.366459305964284
 21
-28.623180376402637
  0
LINE
  8
_0-0_
  6
CONTINUOUS
 62
    7
 10
-7.8276580319259494
 20
-26.993381797445409
 11
-5.1487937009962366
 21
-28.211047402413449
  0
LINE
  8
_0-0_
  6
CONTINUOUS
 62
    7
 10
-2.3949961020685038
 20
-30.57144534435151
 11
0.4524680818567787
 21
-31.995177436314151
  0
LINE
  8
_0-0_
  6
CONTINUOUS
 62
    7
 10
-0.9150640591073369
 20
-30.028179151365769
 11
1.8574668568199115
 21
-31.245844756333817
  0
LINE
  8
_0-0_
  6
CONTINUOUS
 62
    7
 10
2.5505995858017201
 20
-33.100443139285147
 11
5.7165301587186406
 21
-34.617841816245331
  0
LINE
  8
_0-0_
  6
CONTINUOUS
 62
    7
 10
3.9368650437653372
 20
-32.557176946299407
 11
6.9903957146852065
 21
-34.037108989260567
  0
ARC
  8
_0-0_
  6
CONTINUOUS
 62
    7
 10
-12.285753261851994
 20
-25.548621246996568
 40
0.2842289197006926
 50
78.685162905251104
 51
188.04168301151623
  0
ARC
  8
_0-0_
  6
CONTINUOUS
 62
    7
 10
-11.944730199772451
 20
-26.05416140424277
 40
0.8345127938389712
 50
60.740971786933535
 51
109.98810135926111
  0
ARC
  8
_0-0_
  6
CONTINUOUS
 62
    7
 10
-9.4541891718716329
 20
-26.476908604354307
 40
0.1799393691189165
 50
274.93068430640631
 51
79.043740685224762
  0
ARC
  8
_0-0_
  6
CONTINUOUS
 62
    7
 10
-10.024603563827753
 20
-25.696648093249706
 40
1.1242602832174391
 50
244.61782268759822
 51
301.4077523207684
  0
ARC
  8
_0-0_
  6
CONTINUOUS
 62
    7
 10
-8.6033876585874083
 20
-27.295669412664743
 40
0.2897777474494528
 50
128.31798342774317
 51
236.26323665753597
  0
ARC
  8
_0-0_
  6
CONTINUOUS
 62
    7
 10
-8.1880919167931125
 20
-28.525986088853216
 40
1.5744168759899879
 50
76.765817132092877
 51
112.20339488699665
  0
ARC
  8
_0-0_
  6
CONTINUOUS
 62
    7
 10
-5.4391601144886579
 20
-28.426480547907801
 40
0.36155787124891
 50
323.42696902148481
 51
36.573030978516087
  0
ARC
  8
_0-0_
  6
CONTINUOUS
 62
    7
 10
-5.7270287523810595
 20
-26.643693213454604
 40
2.0802021202594245
 50
252.09807039189769
 51
286.13912161493784
  0
ARC
  8
_0-0_
  6
CONTINUOUS
 62
    7
 10
-2.2279573588228772
 20
-30.330644165420331
 40
0.2930650943386539
 50
104.49889313076898
 51
235.25176355843672
  0
ARC
  8
_0-0_
  6
CONTINUOUS
 62
    7
 10
-1.5861485919472642
 20
-31.669112324365365
 40
1.7728553602783019
 50
67.757147540400879
 51
113.79129278945516
  0
ARC
  8
_0-0_
  6
CONTINUOUS
 62
    7
 10
1.474277158773674
 20
-31.504587403187145
 40
0.4623657664549027
 50
290.03316765583071
 51
34.028552863854706
  0
ARC
  8
_0-0_
  6
CONTINUOUS
 62
    7
 10
0.9437331707576674
 20
-29.891555132559091
 40
2.1602241051401476
 50
256.85513238244909
 51
288.59748960536439
  0
ARC
  8
_0-0_
  6
CONTINUOUS
 62
    7
 10
2.6550574161430802
 20
-32.822613090020575
 40
0.2968180833338494
 50
106.78682319229165
 51
249.3948719417171
  0
ARC
  8
_0-0_
  6
CONTINUOUS
 62
    7
 10
3.2343656562837708
 20
-33.915342428763743
 40
1.5290908629540516
 50
62.650124219929701
 51
115.78022657408651
  0
ARC
  8
_0-0_
  6
CONTINUOUS
 62
    7
 10
6.892714847473485
 20
-34.340187296431189
 40
0.3184305451690245
 50
291.44373466630043
 51
72.136086550193141
  0
ARC
  8
_0-0_
  6
CONTINUOUS
 62
    7
 10
6.3848832594155454
 20
-33.105505643988522
 40
1.6534378020135938
 50
246.15772454365924
 51
292.18164448382464
  0
ARC
  8
_0-0_
  6
CONTINUOUS
 62
    7
 10
-4.5105521570308014
 20
-29.278461540214217
 40
0.5261616630756254
 50
178.00156808941875
 51
273.94047577273898
  0
ARC
  8
_0-0_
  6
CONTINUOUS
 62
    7
 10
-4.174914369954223
 20
-30.006661152109565
 40
1.1399476828226804
 50
89.987276087370873
 51
139.0881808657858
  0
ARC
  8
_0-0_
  6
CONTINUOUS
 62
    7
 10
-3.7010753686862614
 20
-30.822446476851695
 40
2.0122562070157439
 50
67.723077516049443
 51
103.61229451757339
  0
ARC
  8
_0-0_
  6
CONTINUOUS
 62
    7
 10
-3.0801760077958278
 20
-29.368801738864214
 40
0.4323745498270495
 50
339.19452249810462
 51
70.839264458095499
  0
ARC
  8
_0-0_
  6
CONTINUOUS
 62
    7
 10
-3.2208386163290328
 20
-29.22978743825302
 40
0.6184365779793173
 50
278.85917154305758
 51
331.76325533620894
  0
ARC
  8
_0-0_
  6
CONTINUOUS
 62
    7
 10
-3.7153604270159946
 20
-26.77527246380825
 40
3.1217885421571481
 50
255.92801833704834
 51
280.88970112056228
  0
LINE
  8
_0-0_
  6
CONTINUOUS
 62
    7
 10
18.520416582661653
 20
-0.1998710388713931
 11
18.520416582661653
 21
-0.7046146631660121
  0
LINE
  8
_0-0_
  6
CONTINUOUS
 62
    7
 10
19.464067706342902
 20
-0.1559802889327244
 11
19.464067706342902
 21
-0.6387785382580091
  0
LINE
  8
_0-0_
  6
CONTINUOUS
 62
    7
 10
18.16929058315236
 20
-6.2129037804681673
 11
18.16929058315236
 21
-6.9371011544561014
  0
LINE
  8
_0-0_
  6
CONTINUOUS
 62
    7
 10
19.200723206710933
 20
-6.1690130305294986
 11
19.200723206710933
 21
-6.8712650295481126
  0
LINE
  8
_0-0_
  6
CONTINUOUS
 62
    7
 10
18.520416582661653
 20
-0.1998710388713931
 11
19.464067706342902
 21
-0.1559802889327244
  0
LINE
  8
_0-0_
  6
CONTINUOUS
 62
    7
 10
19.464067706342902
 20
-0.6387785382580091
 11
18.520416582661653
 21
-0.7046146631660121
  0
LINE
  8
_0-0_
  6
CONTINUOUS
 62
    7
 10
18.16929058315236
 20
-6.2129037804681673
 11
19.200723206710933
 21
-6.1690130305294986
  0
LINE
  8
_0-0_
  6
CONTINUOUS
 62
    7
 10
19.200723206710933
 20
-6.8712650295481126
 11
18.16929058315236
 21
-6.9371011544561014
  0
LINE
  8
_0-0_
  6
CONTINUOUS
 62
    7
 10
18.257072083029684
 20
-6.5420844050081399
 11
19.11294170683361
 21
-6.5201390300388056
  0
ARC
  8
_0-0_
  6
CONTINUOUS
 62
    7
 10
19.905652751479394
 20
-2.0015443231358319
 40
0.8429021000700395
 50
28.111742835947542
 51
109.97670370278878
  0
ARC
  8
_0-0_
  6
CONTINUOUS
 62
    7
 10
20.196278840853324
 20
-4.7386184215734346
 40
3.5763735184868382
 50
99.310355566479316
 51
132.15105563658233
  0
ARC
  8
_0-0_
  6
CONTINUOUS
 62
    7
 10
22.304959689610868
 20
-4.0198024991743608
 40
4.9054863570447571
 50
156.79806145278732
 51
185.63134111144379
  0
ARC
  8
_0-0_
  6
CONTINUOUS
 62
    7
 10
19.379603530588795
 20
-4.0616616163234056
 40
2.0052136309121353
 50
192.66088067535708
 51
245.32110740965419
  0
ARC
  8
_0-0_
  6
CONTINUOUS
 62
    7
 10
19.118830523669004
 20
-4.5029862531762888
 40
1.4962454351645873
 50
247.33907820225727
 51
307.73981207676121
  0
ARC
  8
_0-0_
  6
CONTINUOUS
 62
    7
 10
19.077921093484349
 20
-4.8375069713873415
 40
0.9219013854258835
 50
231.05767235483333
 51
311.06415102569429
  0
ARC
  8
_0-0_
  6
CONTINUOUS
 62
    7
 10
20.327326452065805
 20
-3.7333301126905525
 40
2.580993254328837
 50
168.7167142193847
 51
224.8800293432264
  0
ARC
  8
_0-0_
  6
CONTINUOUS
 62
    7
 10
20.309390176248996
 20
-3.6633192959773027
 40
2.5505375075284493
 50
128.6068100383867
 51
170.18037589859432
  0
ARC
  8
_0-0_
  6
CONTINUOUS
 62
    7
 10
19.712484895082042
 20
-3.2497211703961
 40
1.8665479733651538
 50
74.534645061212387
 51
122.1971271868526
  0
ARC
  8
_0-0_
  6
CONTINUOUS
 62
    7
 10
20.12651367850107
 20
-3.1213290585112645
 40
1.4487415994766428
 50
80.5720468195248
 51
155.7403360770204
  0
ARC
  8
_0-0_
  6
CONTINUOUS
 62
    7
 10
20.773246481857043
 20
-3.7528664345757221
 40
2.3186670258711355
 50
148.05594809817379
 51
199.40189700282366
  0
ARC
  8
_0-0_
  6
CONTINUOUS
 62
    7
 10
20.031387786878568
 20
-4.0533962439985913
 40
1.5195546464141352
 50
198.00576677988815
 51
256.76612128088971
  0
ARC
  8
_0-0_
  6
CONTINUOUS
 62
    7
 10
14.09842352635809
 20
-18.776630950373047
 40
14.373508618966158
 50
65.606723808412369
 51
67.134520730276705
  0
ARC
  8
_0-0_
  6
CONTINUOUS
 62
    7
 10
21.64843679654939
 20
-3.0183006095399492
 40
1.2147276864453955
 50
74.853015559653613
 51
161.64645543029405
  0
ARC
  8
_0-0_
  6
CONTINUOUS
 62
    7
 10
24.293269387093886
 20
-4.2512310957095707
 40
4.1270622344348649
 50
156.95698336956696
 51
188.37425902759992
  0
ARC
  8
_0-0_
  6
CONTINUOUS
 62
    7
 10
21.540437799595026
 20
-4.3948138695474057
 40
1.4066945953321579
 50
198.97853573402884
 51
258.64961393455195
  0
ARC
  8
_0-0_
  6
CONTINUOUS
 62
    7
 10
21.321377941247349
 20
-4.3248700206067667
 40
1.4502780918340326
 50
267.71632033949464
 51
333.93900426024192
  0
ARC
  8
_0-0_
  6
CONTINUOUS
 62
    7
 10
20.799420091167505
 20
-3.7367076580293883
 40
2.1980017990022334
 50
326.11931250677367
 51
8.1306843740009018
  0
ARC
  8
_0-0_
  6
CONTINUOUS
 62
    7
 10
20.248326106562729
 20
-3.6591551458791258
 40
2.7369642151012745
 50
4.890144397810201
 51
30.677632487574645
  0
ARC
  8
_0-0_
  6
CONTINUOUS
 62
    7
 10
21.368098805116659
 20
-3.4522835373995946
 40
1.7141083548175642
 50
43.945543338420627
 51
69.591034525620671
  0
LINE
  8
_0-0_
  6
CONTINUOUS
 62
    7
 10
21.175806953950755
 20
-2.7894252852524772
 11
21.987785827816012
 21
-2.7894252852524772
  0
LINE
  8
_0-0_
  6
CONTINUOUS
 62
    7
 10
21.987785827816012
 20
-2.7894252852524772
 11
22.360857202294639
 21
-3.5794587841484145
  0
LINE
  8
_0-0_
  6
CONTINUOUS
 62
    7
 10
22.360857202294639
 20
-3.5794587841484145
 11
22.031676577754666
 21
-4.6108914077069869
  0
LINE
  8
_0-0_
  6
CONTINUOUS
 62
    7
 10
22.031676577754666
 20
-4.6108914077069869
 11
21.131916204012086
 21
-4.8961812823082909
  0
LINE
  8
_0-0_
  6
CONTINUOUS
 62
    7
 10
21.131916204012086
 20
-4.8961812823082909
 11
20.802735579472113
 21
-4.3036561581363486
  0
LINE
  8
_0-0_
  6
CONTINUOUS
 62
    7
 10
20.802735579472113
 20
-4.3036561581363486
 11
20.736899454564124
 21
-3.3819504094244337
  0
LINE
  8
_0-0_
  6
CONTINUOUS
 62
    7
 10
20.736899454564124
 20
-3.3819504094244337
 11
21.175806953950755
 21
-2.7894252852524772
  0
LINE
  8
_0-0_
  6
CONTINUOUS
 62
    7
 10
21.175806953950755
 20
-2.7894252852524772
 11
21.570823703398716
 21
-3.5136226592404114
  0
LINE
  8
_0-0_
  6
CONTINUOUS
 62
    7
 10
21.570823703398716
 20
-3.5136226592404114
 11
21.175806953950755
 21
-4.764509032492299
  0
LINE
  8
_0-0_
  6
CONTINUOUS
 62
    7
 10
21.241643078858743
 20
-4.6986729075843101
 11
21.483042203521393
 21
-4.6767275326149758
  0
LINE
  8
_0-0_
  6
CONTINUOUS
 62
    7
 10
21.570823703398716
 20
-3.5136226592404114
 11
22.382802577263973
 21
-3.5794587841484145
  0
LINE
  8
_0-0_
  6
CONTINUOUS
 62
    7
 10
20.034647455545525
 20
-5.6862147812042139
 11
21.504987578490713
 21
-5.7959416560508714
  0
LINE
  8
_0-0_
  6
CONTINUOUS
 62
    7
 10
20.649117954686801
 20
-1.6043750369085927
 11
21.965840452846678
 21
-1.8677195365405623
  0
LINE
  8
_0-0_
  6
CONTINUOUS
 62
    7
 10
-14.198733240032624
 20
8.6058665854006051
 11
8.1708884940113222
 21
8.318462451772632
  0
LINE
  8
_0-0_
  6
CONTINUOUS
 62
    7
 10
-14.198733240032624
 20
8.6058665854006051
 11
-14.72564081835057
 21
8.0789590070826591
  0
ARC
  8
_0-0_
  6
CONTINUOUS
 62
    7
 10
-13.718176702867652
 20
7.8289111442522454
 40
1.404303886861209
 50
86.397881509562055
 51
131.11941918612064
  0
ENDBLK
  0
ENDSEC
  0
SECTION
  2
ENTITIES
  0
INSERT
  2
-001-4
  8
_0-0_
 10
141.54056511240952
 20
118.07183495735913
 41
1
 42
1
 50
0
  0
ENDSEC
  0
EOF
