  0
SECTION
  2
HEADER
  9
$ACADVER
  1
AC1009
  9
$INSBASE
 10
0
 20
0
 30
0
  9
$EXTMIN
 10
0
 20
0
  9
$EXTMAX
 10
297
 20
210
  9
$LIMMIN
 10
0
 20
0
  9
$LIMMAX
 10
297
 20
210
  9
$LTSCALE
 40
1
  0
ENDSEC
  0
SECTION
  2
TABLES
  0
TABLE
  2
LTYPE
 70
     9
  0
LTYPE
  2
CONTINUOUS
 70
    64
  3
実線
 72
    65
 73
     0
 40
0.0
  0
LTYPE
  2
DASHED1
 70
    64
  3
--  --  --  --  --  --  --  --  
 72
    65
 73
     2
 40
2.5
 49
1.25
 49
-1.25
  0
LTYPE
  2
DASHED2
 70
    64
  3
----    ----    ----    ----    
 72
    65
 73
     2
 40
5.0
 49
2.5
 49
-2.5
  0
LTYPE
  2
DASHED3
 70
    64
  3
------  ------  ------  ------  
 72
    65
 73
     2
 40
5.0
 49
3.75
 49
-1.25
  0
LTYPE
  2
CENTER1
 70
    64
  3
----- - ----- - ----- - ----- - 
 72
    65
 73
     4
 40
10.0
 49
6.25
 49
-1.25
 49
1.25
 49
-1.25
  0
LTYPE
  2
CENTER2
 70
    64
  3
----------  --  ----------  --  
 72
    65
 73
     4
 40
20.0
 49
12.5
 49
-2.5
 49
2.5
 49
-2.5
  0
LTYPE
  2
PHANTOM1
 70
    64
  3
--- - - --- - - --- - - --- - - 
 72
    65
 73
     6
 40
10.0
 49
3.25
 49
-1.25
 49
1.25
 49
-1.25
 49
1.25
 49
-1.25
  0
LTYPE
  2
PHANTOM2
 70
    64
  3
--------  -  -  --------  -  -  
 72
    65
 73
     6
 40
20.0
 49
10.0
 49
-2.5
 49
1.25
 49
-2.5
 49
1.25
 49
-2.5
  0
LTYPE
  2
DOT
 70
    64
  3
-   -   -   -   -   -   -   -   
 72
    65
 73
     2
 40
2.5
 49
0.625
 49
-1.875
  0
LTYPE
  2
DUMMY
 70
    64
  3
ダミー
 72
    65
 73
     0
 40
0.0
  0
LTYPE
  2
RAND1
 70
    64
  3
ランダム線1
 72
    65
 73
     4
 40
10.0
 49
1.0
 49
-2.0
 49
3.0
 49
-4.0
  0
LTYPE
  2
RAND2
 70
    64
  3
ランダム線2
 72
    65
 73
     4
 40
14.0
 49
2.0
 49
-3.0
 49
4.0
 49
-5.0
  0
LTYPE
  2
RAND3
 70
    64
  3
ランダム線3
 72
    65
 73
     4
 40
18.0
 49
3.0
 49
-4.0
 49
5.0
 49
-6.0
  0
LTYPE
  2
RAND4
 70
    64
  3
ランダム線4
 72
    65
 73
     4
 40
22.0
 49
4.0
 49
-5.0
 49
6.0
 49
-7.0
  0
LTYPE
  2
RAND5
 70
    64
  3
ランダム線5
 72
    65
 73
     4
 40
26.0
 49
5.0
 49
-6.0
 49
7.0
 49
-8.0
  0
LTYPE
  2
LONG1
 70
    64
  3
----------  --  ----------  --  
 72
    65
 73
     4
 40
40.0
 49
32.5
 49
-2.5
 49
2.5
 49
-2.5
  0
LTYPE
  2
LONG2
 70
    64
  3
--------  -  -  --------  -  -  
 72
    65
 73
     6
 40
40.0
 49
30.0
 49
-2.5
 49
1.25
 49
-2.5
 49
1.25
 49
-2.5
  0
LTYPE
  2
LONG3
 70
    64
  3
+++++++++++++++..+++++++++++++++
 72
    65
 73
     2
 40
40.0
 49
37.5
 49
-2.5
  0
LTYPE
  2
LONG4
 70
    64
  3
+++++++++++++++..+++++++++++++++
 72
    65
 73
     2
 40
80.0
 49
75.0
 49
-5.0
  0
LTYPE
  2
LONG5
 70
    64
  3
----------  --  ----------  --  
 72
    65
 73
     4
 40
60.0
 49
37.5
 49
-7.5
 49
7.5
 49
-7.5
  0
LTYPE
  2
dashed
 70
   64
  3
-------   -------------   ------
 72
   65
 73
    2
 40
7.5
 49
6
 49
-1.5
  0
LTYPE
  2
dashed_spaced
 70
   64
  3
----        --------        ----
 72
   65
 73
    2
 40
12
 49
6
 49
-6
  0
LTYPE
  2
long_dashed_dotted
 70
   64
  3
------------- --- --------------
 72
   65
 73
    4
 40
15.25
 49
12
 49
-1.5
 49
0.25
 49
-1.5
  0
LTYPE
  2
long_dashed_double-dotted
 70
   64
  3
----------- --- --- ------------
 72
   65
 73
    6
 40
17
 49
12
 49
-1.5
 49
0.25
 49
-1.5
 49
0.25
 49
-1.5
  0
LTYPE
  2
long_dashed_triplicate-dotted
 70
   64
  3
--------- --- --- --- ----------
 72
   65
 73
    8
 40
18.75
 49
12
 49
-1.5
 49
0.25
 49
-1.5
 49
0.25
 49
-1.5
 49
0.25
 49
-1.5
  0
LTYPE
  2
dotted
 70
   64
  3
   -       -       -       -    
 72
   65
 73
    2
 40
1.75
 49
0.25
 49
-1.5
  0
LTYPE
  2
chain
 70
   64
  3
-------------- -- --------------
 72
   65
 73
    4
 40
18.5
 49
12
 49
-1.5
 49
3.5
 49
-1.5
  0
LTYPE
  2
chain_double_dash
 70
   64
  3
------------ -- -- -------------
 72
   65
 73
    6
 40
23.5
 49
12
 49
-1.5
 49
3.5
 49
-1.5
 49
3.5
 49
-1.5
  0
LTYPE
  2
dashed_dotted
 70
   64
  3
-----------     -     ----------
 72
   65
 73
    4
 40
9.25
 49
6
 49
-1.5
 49
0.25
 49
-1.5
  0
LTYPE
  2
double-dashed_dotted
 70
   64
  3
------   -----------   -   -----
 72
   65
 73
    6
 40
16.75
 49
6
 49
-1.5
 49
6
 49
-1.5
 49
0.25
 49
-1.5
  0
LTYPE
  2
dashed_double-dotted
 70
   64
  3
---------    -    -    ---------
 72
   65
 73
    6
 40
11
 49
6
 49
-1.5
 49
0.25
 49
-1.5
 49
0.25
 49
-1.5
  0
LTYPE
  2
double-dashed_double-dotted
 70
   64
  3
-----   ---------   -   -   ----
 72
   65
 73
    8
 40
18.5
 49
6
 49
-1.5
 49
6
 49
-1.5
 49
0.25
 49
-1.5
 49
0.25
 49
-1.5
  0
LTYPE
  2
dashed_triplicate-dotted
 70
   64
  3
-------    -    -    -    ------
 72
   65
 73
    8
 40
12.75
 49
6
 49
-1.5
 49
0.25
 49
-1.5
 49
0.25
 49
-1.5
 49
0.25
 49
-1.5
  0
LTYPE
  2
double-dashed_triplicate-dotted
 70
   64
  3
-----  ---------  -  -  -  -----
 72
   65
 73
   10
 40
20.25
 49
6
 49
-1.5
 49
6
 49
-1.5
 49
0.25
 49
-1.5
 49
0.25
 49
-1.5
 49
0.25
 49
-1.5
  0
LTYPE
  2
undefined
 70
   64
  3
--------------------------------
 72
   65
 73
    0
 40
0
  0
LTYPE
  2
_
 70
   64
  3
                                
 72
   65
 73
    0
 40
0
  0
LTYPE
  2
__18
 70
   64
  3
                                
 72
   65
 73
    0
 40
0
  0
LTYPE
  2
__19
 70
   64
  3
                                
 72
   65
 73
    0
 40
0
  0
LTYPE
  2
__20
 70
   64
  3
                                
 72
   65
 73
    0
 40
0
  0
LTYPE
  2
__21
 70
   64
  3
                                
 72
   65
 73
    0
 40
0
  0
LTYPE
  2
__22
 70
   64
  3
                                
 72
   65
 73
    0
 40
0
  0
LTYPE
  2
__23
 70
   64
  3
                                
 72
   65
 73
    0
 40
0
  0
LTYPE
  2
__24
 70
   64
  3
                                
 72
   65
 73
    0
 40
0
  0
LTYPE
  2
__25
 70
   64
  3
                                
 72
   65
 73
    0
 40
0
  0
LTYPE
  2
__26
 70
   64
  3
                                
 72
   65
 73
    0
 40
0
  0
LTYPE
  2
__27
 70
   64
  3
                                
 72
   65
 73
    0
 40
0
  0
LTYPE
  2
__28
 70
   64
  3
                                
 72
   65
 73
    0
 40
0
  0
LTYPE
  2
__29
 70
   64
  3
                                
 72
   65
 73
    0
 40
0
  0
LTYPE
  2
__30
 70
   64
  3
                                
 72
   65
 73
    0
 40
0
  0
LTYPE
  2
__31
 70
   64
  3
                                
 72
   65
 73
    0
 40
0
  0
LTYPE
  2
__32
 70
   64
  3
                                
 72
   65
 73
    0
 40
0
  0
ENDTAB
  0
TABLE
  2
STYLE
  5
3
100
AcDbSymbolTable
 70
     1
  0
STYLE
  5
10
100
AcDbSymbolTableRecord
100
AcDbTextStyleTableRecord
  2
STANDARD
 70
     0
 40
0.0
 41
1.0
 50
0.0
 71
     0
 42
0.2
  3
txt
  4
bigfont.shx
  0
STYLE
  5
26
100
AcDbSymbolTableRecord
100
AcDbTextStyleTableRecord
  2
TATEGAKI
 70
    68
 40
0.0
 41
1.0
 50
0.0
 71
     0
 42
1.0
  3
txt
  4
bigfont.shx
  0
ENDTAB
  0
TABLE
  2
LAYER
 70
    2
  0
LAYER
  2
_0-0_
 70
   64
 62
    7
  6
CONTINUOUS
  0
LAYER
  2
ADD_LINE
 70
   64
 62
    7
  6
CONTINUOUS
  0
ENDTAB
  0
ENDSEC
  0
SECTION
  2
BLOCKS
  0
BLOCK
  2
-004-34
 70
   64
 10
0
 20
0
 30
0
  0
LINE
  8
_0-0_
  6
CONTINUOUS
 62
    7
 10
-5.3628151167493172
 20
25.376510993469623
 11
11.94884629830284
 21
27.124732959029089
  0
LINE
  8
_0-0_
  6
CONTINUOUS
 62
    7
 10
14.805696827387791
 20
21.922706622486317
 11
10.115345212472192
 21
-8.9909744758210906
  0
LINE
  8
_0-0_
  6
CONTINUOUS
 62
    7
 10
-16.534379872275579
 20
-9.971684358939811
 11
9.0067166489466786
 21
-12.956453568431556
  0
LINE
  8
_0-0_
  6
CONTINUOUS
 62
    7
 10
9.2199144496246674
 20
-12.700616207617983
 11
9.6889496111162146
 21
-10.227521719753383
  0
LINE
  8
_0-0_
  6
CONTINUOUS
 62
    7
 10
10.115345212472192
 20
-10.355440400160177
 11
9.646310050980631
 21
-12.956453568431556
  0
LINE
  8
_0-0_
  6
CONTINUOUS
 62
    7
 10
9.6889496111162146
 20
-10.227521719753383
 11
10.115345212472192
 21
-10.355440400160177
  0
LINE
  8
_0-0_
  6
CONTINUOUS
 62
    7
 10
9.3478331300314466
 20
-12.87117444816036
 11
10.712299054370533
 21
-14.193000812363849
  0
LINE
  8
_0-0_
  6
CONTINUOUS
 62
    7
 10
11.309252896268887
 20
-11.506708523821274
 11
10.712299054370533
 21
-14.193000812363849
  0
LINE
  8
_0-0_
  6
CONTINUOUS
 62
    7
 10
9.4331122503026421
 20
-14.534117293448631
 11
-13.976006264139798
 21
-11.506708523821274
  0
LINE
  8
_0-0_
  6
CONTINUOUS
 62
    7
 10
-13.976006264139798
 20
-11.506708523821274
 11
-16.577019432411177
 21
-10.056963479211007
  0
LINE
  8
_0-0_
  6
CONTINUOUS
 62
    7
 10
-16.577019432411177
 20
-9.8437656785330176
 11
-15.852146910106043
 21
-7.6691481116176021
  0
LINE
  8
_0-0_
  6
CONTINUOUS
 62
    7
 10
-15.852146910106043
 20
-7.6691481116176021
 11
9.6889496111162146
 21
-10.227521719753383
  0
LINE
  8
_0-0_
  6
CONTINUOUS
 62
    7
 10
10.115345212472192
 20
-10.355440400160177
 11
11.26661333613329
 21
-11.421429403550093
  0
LINE
  8
_0-0_
  6
CONTINUOUS
 62
    7
 10
11.309252896268887
 20
-11.378789843414495
 11
11.479811136811264
 21
-11.421429403550093
  0
LINE
  8
_0-0_
  6
CONTINUOUS
 62
    7
 10
9.987426532065399
 20
-9.5026491974482497
 11
9.9021474117942034
 21
-9.8864052386686154
  0
LINE
  8
_0-0_
  6
CONTINUOUS
 62
    7
 10
10.243263892878971
 20
-9.6732074379906265
 11
10.200624332743374
 21
-9.8864052386686154
  0
LINE
  8
_0-0_
  6
CONTINUOUS
 62
    7
 10
9.9021474117942034
 20
-9.8864052386686154
 11
10.157984772607776
 21
-10.014323919075409
  0
LINE
  8
_0-0_
  6
CONTINUOUS
 62
    7
 10
10.157984772607776
 20
-10.014323919075409
 11
11.26661333613329
 21
-11.080312922465311
  0
LINE
  8
_0-0_
  6
CONTINUOUS
 62
    7
 10
9.7742287313874101
 20
-9.971684358939811
 11
9.7315891712518123
 21
-10.09960303934659
  0
LINE
  8
_0-0_
  6
CONTINUOUS
 62
    7
 10
10.115345212472192
 20
-10.09960303934659
 11
10.030066092200997
 21
-10.312800840024579
  0
LINE
  8
_0-0_
  6
CONTINUOUS
 62
    7
 10
9.9021474117942034
 20
-9.8864052386686154
 11
-16.193263391190811
 21
-7.4133107508040155
  0
LINE
  8
_0-0_
  6
CONTINUOUS
 62
    7
 10
-16.065344710784018
 20
-6.9016360291768706
 11
-16.193263391190811
 21
-7.157473389990443
  0
LINE
  8
_0-0_
  6
CONTINUOUS
 62
    7
 10
-16.193263391190811
 20
-7.4133107508040155
 11
-16.065344710784018
 21
-7.9676250325667723
  0
LINE
  8
_0-0_
  6
CONTINUOUS
 62
    7
 10
-16.107984270919616
 20
-7.0295547095836497
 11
9.9021474117942034
 21
-9.5026491974482497
  0
LINE
  8
_0-0_
  6
CONTINUOUS
 62
    7
 10
10.157984772607776
 20
-9.5026491974482497
 11
11.309252896268887
 21
-10.696556881244945
  0
LINE
  8
_0-0_
  6
CONTINUOUS
 62
    7
 10
11.223973775997692
 20
-10.270161279888981
 11
10.285903453014569
 21
-9.3747305170414563
  0
LINE
  8
_0-0_
  6
CONTINUOUS
 62
    7
 10
10.285903453014569
 20
-9.3747305170414563
 11
9.987426532065399
 21
-9.2894513967702608
  0
LINE
  8
_0-0_
  6
CONTINUOUS
 62
    7
 10
9.987426532065399
 20
-9.2894513967702608
 11
-15.980065590512822
 21
-6.8589964690412728
  0
LINE
  8
_0-0_
  6
CONTINUOUS
 62
    7
 10
-15.297832628343286
 20
-6.4326008676853093
 11
9.9021474117942034
 21
-8.905695355549895
  0
LINE
  8
_0-0_
  6
CONTINUOUS
 62
    7
 10
-16.02270515064842
 20
-6.8589964690412728
 11
-16.02270515064842
 21
-6.4326008676853093
  0
LINE
  8
_0-0_
  6
CONTINUOUS
 62
    7
 10
-16.02270515064842
 20
-6.4326008676853093
 11
-13.63488978305503
 21
2.0953111594339759
  0
LINE
  8
_0-0_
  6
CONTINUOUS
 62
    7
 10
-13.592250222919432
 20
3.672974884451051
 11
-9.7120502505801625
 21
20.345042897469256
  0
LINE
  8
_0-0_
  6
CONTINUOUS
 62
    7
 10
-15.297832628343286
 20
-6.4326008676853093
 11
-15.852146910106043
 21
-6.3899613075497115
  0
LINE
  8
_0-0_
  6
CONTINUOUS
 62
    7
 10
10.157984772607776
 20
-8.9056953555499092
 11
11.394532016540069
 21
-10.056963479211007
  0
LINE
  8
_0-0_
  6
CONTINUOUS
 62
    7
 10
-15.852146910106043
 20
-10.440719520431372
 11
-15.212553508072105
 21
-28.391974337517475
  0
LINE
  8
_0-0_
  6
CONTINUOUS
 62
    7
 10
-14.786157906716141
 20
-28.391974337517475
 11
-15.511030429021275
 21
-10.653917321109361
  0
LINE
  8
_0-0_
  6
CONTINUOUS
 62
    7
 10
-14.631601587267724
 20
-28.636765054917241
 11
7.2292706311174015
 21
-33.715320374922236
  0
LINE
  8
_0-0_
  6
CONTINUOUS
 62
    7
 10
7.5986201089359469
 20
-33.738404717285889
 11
11.24594620239408
 21
-33.784573402013208
  0
LINE
  8
_0-0_
  6
CONTINUOUS
 62
    7
 10
11.915392130940191
 20
-34.084669852740781
 11
11.707633049667265
 21
-34.084669852740781
  0
LINE
  8
_0-0_
  6
CONTINUOUS
 62
    7
 10
11.707633049667265
 20
-34.084669852740781
 11
11.36136791421238
 21
-34.061585510377121
  0
LINE
  8
_0-0_
  6
CONTINUOUS
 62
    7
 10
11.36136791421238
 20
-34.061585510377121
 11
7.0676802345717959
 21
-34.107754195104434
  0
LINE
  8
_0-0_
  6
CONTINUOUS
 62
    7
 10
7.1600176040264358
 20
-33.807657744376868
 11
7.1600176040264358
 21
-34.015416825649801
  0
LINE
  8
_0-0_
  6
CONTINUOUS
 62
    7
 10
7.0676802345717959
 20
-34.107754195104434
 11
-14.700854614358704
 21
-28.913777163281146
  0
LINE
  8
_0-0_
  6
CONTINUOUS
 62
    7
 10
-14.608517244904064
 20
-28.313584261826009
 11
-12.253914323810847
 21
-26.836186350551834
  0
LINE
  8
_0-0_
  6
CONTINUOUS
 62
    7
 10
-12.207745639083527
 20
-26.605342926915242
 11
11.24594620239408
 21
-31.660813904556576
  0
LINE
  8
_0-0_
  6
CONTINUOUS
 62
    7
 10
11.24594620239408
 20
-33.784573402013208
 11
11.684548707303605
 21
-6.406543358713563
  0
LINE
  8
_0-0_
  6
CONTINUOUS
 62
    7
 10
12.123151212213131
 20
-9.2920861541709456
 11
11.661464364939945
 21
-34.015416825649808
  0
LINE
  8
_0-0_
  6
CONTINUOUS
 62
    7
 10
11.915392130940191
 20
-34.084669852740781
 11
13.462043069305352
 21
-31.776235616374876
  0
LINE
  8
_0-0_
  6
CONTINUOUS
 62
    7
 10
13.462043069305352
 20
-31.776235616374876
 11
13.785223862396577
 21
-10.538640641808527
  0
ARC
  8
_0-0_
  6
CONTINUOUS
 62
    7
 10
9.7736291556340973
 20
-12.581149604428916
 40
1.9824314760343007
 50
260.10941037294236
 51
293.89069630722145
  0
ARC
  8
_0-0_
  6
CONTINUOUS
 62
    7
 10
10.778568482689892
 20
-14.384134078274712
 40
0.2022957302256465
 50
109.12237457477551
 51
182.71766608552028
  0
ARC
  8
_0-0_
  6
CONTINUOUS
 62
    7
 10
8.9178519215166716
 20
-12.534095234700061
 40
0.4316057250010189
 50
281.88179702900635
 51
342.70608897097065
  0
ARC
  8
_0-0_
  6
CONTINUOUS
 62
    7
 10
-14.54406925476674
 20
-28.248231000424248
 40
0.683764099581079
 50
192.13545493890371
 51
256.74428718571301
  0
ARC
  8
_0-0_
  6
CONTINUOUS
 62
    7
 10
-14.593082123083136
 20
-28.441257223888648
 40
0.1992663070229708
 50
165.6809180424745
 51
258.85419141214385
  0
LINE
  8
_0-0_
  6
CONTINUOUS
 62
    7
 10
-12.207745639083527
 20
-26.605342926915242
 11
-12.565969542132336
 21
-11.682859446101503
  0
ARC
  8
_0-0_
  6
CONTINUOUS
 62
    7
 10
-16.407492574031622
 20
-9.9503645788720121
 40
0.2002565386336302
 50
147.83821883199911
 51
212.16178116800089
  0
ARC
  8
_0-0_
  6
CONTINUOUS
 62
    7
 10
-15.277866385816353
 20
-7.2853920703972221
 40
0.9242915482928255
 50
172.04493295501575
 51
187.9550670449851
  0
ARC
  8
_0-0_
  6
CONTINUOUS
 62
    7
 10
-11.980509811361827
 20
2.6192228477477499
 40
1.7191319465795181
 50
198.34175748492652
 51
250.67885132881554
  0
ARC
  8
_0-0_
  6
CONTINUOUS
 62
    7
 10
-10.518900008843019
 20
2.8368342120278953
 40
3.1850608726433802
 50
164.78038538865104
 51
193.77872934221452
  0
LINE
  8
_0-0_
  6
CONTINUOUS
 62
    7
 10
-14.015509447897017
 20
-1.1474074638641127
 11
-15.188471791723899
 21
-6.3157727913512929
  0
LINE
  8
_0-0_
  6
CONTINUOUS
 62
    7
 10
-13.172671337991218
 20
-1.1867846542260736
 11
-14.463993827623767
 21
-6.3924284405572394
  0
LINE
  8
_0-0_
  6
CONTINUOUS
 62
    7
 10
-12.284887126368858
 20
-1.3280230515296267
 11
-13.515678874299866
 21
-6.4529591822587662
  0
LINE
  8
_0-0_
  6
CONTINUOUS
 62
    7
 10
-11.45763365644801
 20
-1.3280230515296267
 11
-12.668248490478504
 21
-6.6345514073633467
  0
LINE
  8
_0-0_
  6
CONTINUOUS
 62
    7
 10
-10.509318703124109
 20
-1.3078461376291131
 11
-11.740110451055131
 21
-6.6950821490648735
  0
LINE
  8
_0-0_
  6
CONTINUOUS
 62
    7
 10
-9.7022421471037745
 20
-1.3078461376291131
 11
-10.912856981134283
 21
-6.7959667185674135
  0
LINE
  8
_0-0_
  6
CONTINUOUS
 62
    7
 10
-8.8346348493819136
 20
-1.4692614488331941
 11
-10.045249683412408
 21
-6.8363205463684267
  0
LINE
  8
_0-0_
  6
CONTINUOUS
 62
    7
 10
-7.8863198960580121
 20
-1.5701460183357341
 11
-9.1171116439890341
 21
-6.9372051158709667
  0
LINE
  8
_0-0_
  6
CONTINUOUS
 62
    7
 10
-6.9178280288336111
 20
-1.5701460183357341
 11
-8.0880890350630921
 21
-7.0380896853735209
  0
LINE
  8
_0-0_
  6
CONTINUOUS
 62
    7
 10
-6.0098669033107228
 20
-1.6306767600372609
 11
-7.2003048234407316
 21
-7.1389742548760609
  0
LINE
  8
_0-0_
  6
CONTINUOUS
 62
    7
 10
-5.1220826916883624
 20
-1.6104998461367472
 11
-6.2923436979178433
 21
-7.2196819104780872
  0
LINE
  8
_0-0_
  6
CONTINUOUS
 62
    7
 10
-4.0930600827624346
 20
-1.6912075017387735
 11
-5.3036749167929287
 21
-7.3003895660801277
  0
LINE
  8
_0-0_
  6
CONTINUOUS
 62
    7
 10
-3.2456296989410731
 20
-1.7113844156392872
 11
-4.4158907051705683
 21
-7.4416279633836808
  0
LINE
  8
_0-0_
  6
CONTINUOUS
 62
    7
 10
-2.2569609178161585
 20
-1.7719151573408141
 11
-3.4473988379461531
 21
-7.5626894467867345
  0
LINE
  8
_0-0_
  6
CONTINUOUS
 62
    7
 10
-1.2279383088902307
 20
-1.8122689851418272
 11
-2.3780224012192122
 21
-7.6433971023887608
  0
LINE
  8
_0-0_
  6
CONTINUOUS
 62
    7
 10
-0.239269527765316
 20
-1.8526228129428546
 11
-1.3893536200942975
 21
-7.7039278440902876
  0
LINE
  8
_0-0_
  6
CONTINUOUS
 62
    7
 10
0.7090454255585854
 20
-2.0140381241469214
 11
-0.340154097267856
 21
-7.8048124135928418
  0
LINE
  8
_0-0_
  6
CONTINUOUS
 62
    7
 10
1.6977142066834858
 20
-2.0947457797489477
 11
0.668691597757558
 21
-7.9258738969958813
  0
LINE
  8
_0-0_
  6
CONTINUOUS
 62
    7
 10
2.7469137295099273
 20
-2.2158072631520014
 11
1.7582449483850127
 21
-7.9864046386974081
  0
LINE
  8
_0-0_
  6
CONTINUOUS
 62
    7
 10
3.7557594245353556
 20
-2.2763380048535282
 11
2.7267368156094278
 21
-8.0267584664984213
  0
LINE
  8
_0-0_
  6
CONTINUOUS
 62
    7
 10
4.7444282056602702
 20
-2.3570456604555545
 11
3.7557594245353556
 21
-8.1276430360009755
  0
LINE
  8
_0-0_
  6
CONTINUOUS
 62
    7
 10
5.874335384088738
 20
-2.2965149187540277
 11
4.8251358612622965
 21
-8.3495890889065691
  0
LINE
  8
_0-0_
  6
CONTINUOUS
 62
    7
 10
7.0042425625172058
 20
-2.3772225743560682
 11
5.8541584701882243
 21
-8.4101198306080818
  0
LINE
  8
_0-0_
  6
CONTINUOUS
 62
    7
 10
8.0332651714431336
 20
-2.3368687465550551
 11
6.9235349069151795
 21
-8.6320658835136754
  0
LINE
  8
_0-0_
  6
CONTINUOUS
 62
    7
 10
9.2237030915731424
 20
-2.4982840577591219
 11
8.0332651714431336
 21
-8.6522427974141891
  0
LINE
  8
_0-0_
  6
CONTINUOUS
 62
    7
 10
10.333433356101096
 20
-2.4982840577591219
 11
9.2842338332746692
 21
-8.7934811947177423
  0
LINE
  8
_0-0_
  6
CONTINUOUS
 62
    7
 10
-6.1309283867137907
 20
23.368519562692697
 11
10.979094600917364
 21
24.942318846932352
  0
LINE
  8
_0-0_
  6
CONTINUOUS
 62
    7
 10
-6.009866903310737
 20
22.763212145677443
 11
11.221217567723471
 21
24.135242290912018
  0
LINE
  8
_0-0_
  6
CONTINUOUS
 62
    7
 10
-9.0364039883869935
 20
19.171721471386945
 11
-12.305064040269372
 21
4.6846972908218873
  0
LINE
  8
_0-0_
  6
CONTINUOUS
 62
    7
 10
-13.071786768488693
 20
4.3618666684137537
 11
-9.2381731273920877
 21
20.866582239029654
  0
LINE
  8
_0-0_
  6
CONTINUOUS
 62
    7
 10
-11.054095378437836
 20
1.1739142721334304
 11
6.7015888540095716
 21
0.366837716113082
  0
LINE
  8
_0-0_
  6
CONTINUOUS
 62
    7
 10
-9.1574654717900472
 20
4.0390360460056201
 11
7.6297268934329594
 21
3.5547901123934196
  0
LINE
  8
_0-0_
  6
CONTINUOUS
 62
    7
 10
8.2753881382492409
 20
4.1197437016076606
 11
11.221217567723471
 21
21.149059033636775
  0
LINE
  8
_0-0_
  6
CONTINUOUS
 62
    7
 10
10.736971634111271
 20
21.592951139447962
 11
-5.9291592477086965
 21
20.382336305417454
  0
LINE
  8
_0-0_
  6
CONTINUOUS
 62
    7
 10
-6.413405181320897
 20
20.05950568300932
 11
-9.6417114054022477
 21
4.9268202576279947
  0
LINE
  8
_0-0_
  6
CONTINUOUS
 62
    7
 10
-9.1574654717900472
 20
4.1600975294086737
 11
-6.009866903310737
 21
19.333136782591012
  0
LINE
  8
_0-0_
  6
CONTINUOUS
 62
    7
 10
-5.4852671418975092
 20
19.696321232800159
 11
11.059802256519404
 21
20.785874583427614
  0
LINE
  8
_0-0_
  6
CONTINUOUS
 62
    7
 10
11.665109673534658
 20
4.2408051850107
 11
14.449523791804822
 21
21.835074106254055
  0
LINE
  8
_0-0_
  6
CONTINUOUS
 62
    7
 10
12.351124746151939
 20
-1.5701460183357199
 11
15.418015659029223
 21
18.848890848978812
  0
LINE
  8
_0-0_
  6
CONTINUOUS
 62
    7
 10
15.418015659029223
 20
18.848890848978812
 11
14.933769725417022
 21
24.700195880126259
  0
LINE
  8
_0-0_
  6
CONTINUOUS
 62
    7
 10
12.351124746151939
 20
-1.5701460183357199
 11
12.472186229554993
 21
-3.5474835805855491
  0
ARC
  8
_0-0_
  6
CONTINUOUS
 62
    7
 10
3.2960306221873594
 20
15.790940117392978
 40
13.782235672196249
 50
145.8390500600338
 51
160.70495296368441
  0
ARC
  8
_0-0_
  6
CONTINUOUS
 62
    7
 10
-4.9690723156077894
 20
21.826874858605038
 40
3.5714072973251256
 50
96.329648829238138
 51
151.51949947193845
  0
ARC
  8
_0-0_
  6
CONTINUOUS
 62
    7
 10
-5.1721304557767951
 20
18.997286978308551
 40
4.4751500286751034
 50
102.37149134983386
 51
155.31018259188008
  0
ARC
  8
_0-0_
  6
CONTINUOUS
 62
    7
 10
12.429041519714531
 20
25.706250693112239
 40
1.4975578083624081
 50
38.435364325403775
 51
108.70237238134644
  0
ARC
  8
_0-0_
  6
CONTINUOUS
 62
    7
 10
11.666296550822963
 20
23.880063673935013
 40
3.3688273601245715
 50
14.090097470237126
 51
54.926948505100221
  0
ARC
  8
_0-0_
  6
CONTINUOUS
 62
    7
 10
11.430583682407715
 20
21.756408648415274
 40
3.2177424048112004
 50
31.741576589816088
 51
98.065922484799827
  0
ARC
  8
_0-0_
  6
CONTINUOUS
 62
    7
 10
13.206450444108157
 20
22.449329545955607
 40
1.3865572808062203
 50
333.70406289279168
 51
46.148428120511504
  0
ARC
  8
_0-0_
  6
CONTINUOUS
 62
    7
 10
4.6166824593284304
 20
23.784230012978057
 40
10.357667842032201
 50
349.64630533872747
 51
5.0734997127458881
  0
ARC
  8
_0-0_
  6
CONTINUOUS
 62
    7
 10
11.944625860553415
 20
21.772080338071461
 40
2.4714072860393315
 50
4.2709924219197433
 51
107.02033426800094
  0
ARC
  8
_0-0_
  6
CONTINUOUS
 62
    7
 10
-5.0005677944897258
 20
18.764555883012605
 40
4.0563231627087406
 50
125.24806322269231
 51
174.23906245024921
  0
ARC
  8
_0-0_
  6
CONTINUOUS
 62
    7
 10
-5.1439179820738588
 20
19.446735571811701
 40
3.427664569235386
 50
104.63350811841866
 51
129.87714863146729
  0
ARC
  8
_0-0_
  6
CONTINUOUS
 62
    7
 10
-6.0905745589127633
 20
20.099859510810333
 40
0.3253429608622579
 50
60.255118703058088
 51
187.12501634890117
  0
ARC
  8
_0-0_
  6
CONTINUOUS
 62
    7
 10
-5.6063286253005629
 20
19.310717989368214
 40
0.4041605424939242
 50
72.570137182332004
 51
176.8201698801343
  0
ARC
  8
_0-0_
  6
CONTINUOUS
 62
    7
 10
-9.0900321016488874
 20
4.6517770628789492
 40
0.6164404376479157
 50
153.50116117346863
 51
263.71975815846156
  0
ARC
  8
_0-0_
  6
CONTINUOUS
 62
    7
 10
7.2746132087840607
 20
4.6120604007800239
 40
1.1153143914296084
 50
288.56606021766743
 51
333.80579011375119
  0
ARC
  8
_0-0_
  6
CONTINUOUS
 62
    7
 10
10.886617078873371
 20
21.270120517039828
 40
0.3558277250334403
 50
340.10941787003918
 51
114.86968797395828
  0
ARC
  8
_0-0_
  6
CONTINUOUS
 62
    7
 10
7.1235298968162652
 20
4.9429650144740833
 40
4.5955386294110872
 50
264.73194784080329
 51
351.21125968129729
  0
LINE
  8
_0-0_
  6
CONTINUOUS
 62
    7
 10
-18.223539774168401
 20
-0.7322257722763936
 11
-14.921551401660565
 21
-0.8530302249291139
  0
LINE
  8
_0-0_
  6
CONTINUOUS
 62
    7
 10
-14.921551401660565
 20
-0.8530302249291139
 11
-15.948389249208731
 21
-1.3966502618663839
  0
LINE
  8
_0-0_
  6
CONTINUOUS
 62
    7
 10
-15.948389249208731
 20
-1.3966502618663839
 11
-16.02892555097722
 21
-1.8597339970351641
  0
LINE
  8
_0-0_
  6
CONTINUOUS
 62
    7
 10
-16.02892555097722
 20
-1.8597339970351641
 11
-16.02892555097722
 21
-2.1617451286669791
  0
LINE
  8
_0-0_
  6
CONTINUOUS
 62
    7
 10
-16.02892555097722
 20
-2.1617451286669791
 11
-16.089327777303581
 21
-2.504024411183039
  0
LINE
  8
_0-0_
  6
CONTINUOUS
 62
    7
 10
-16.089327777303581
 20
-2.504024411183039
 11
-16.63294781424085
 21
-2.6852310901621337
  0
LINE
  8
_0-0_
  6
CONTINUOUS
 62
    7
 10
-16.63294781424085
 20
-2.6852310901621337
 11
-16.83428856866206
 21
-5.1415882941008846
  0
LINE
  8
_0-0_
  6
CONTINUOUS
 62
    7
 10
-16.83428856866206
 20
-5.1415882941008846
 11
-16.411472984377511
 21
-5.5644038783854199
  0
LINE
  8
_0-0_
  6
CONTINUOUS
 62
    7
 10
-16.411472984377511
 20
-5.5644038783854199
 11
-16.351070758051151
 21
-6.4301691223966202
  0
LINE
  8
_0-0_
  6
CONTINUOUS
 62
    7
 10
-16.351070758051151
 20
-6.4301691223966202
 11
-16.492009286146001
 21
-6.5711076504914701
  0
LINE
  8
_0-0_
  6
CONTINUOUS
 62
    7
 10
-16.492009286146001
 20
-6.5711076504914701
 11
-16.310802607166906
 21
-7.416738819060555
  0
LINE
  8
_0-0_
  6
CONTINUOUS
 62
    7
 10
-16.10946185274571
 20
-7.6986158752502405
 11
-18.485282754915971
 21
-7.416738819060555
  0
LINE
  8
_0-0_
  6
CONTINUOUS
 62
    7
 10
-18.485282754915971
 20
-7.416738819060555
 11
-19.371182074369301
 21
-6.7120461785863199
  0
LINE
  8
_0-0_
  6
CONTINUOUS
 62
    7
 10
-19.371182074369301
 20
-6.7120461785863199
 11
-19.310779848042927
 21
-6.2892305943017703
  0
LINE
  8
_0-0_
  6
CONTINUOUS
 62
    7
 10
-19.310779848042927
 20
-6.2892305943017703
 11
-19.230243546274451
 21
-5.866415010017235
  0
LINE
  8
_0-0_
  6
CONTINUOUS
 62
    7
 10
-19.230243546274451
 20
-5.866415010017235
 11
-19.773863583211707
 21
-5.0006497660060347
  0
LINE
  8
_0-0_
  6
CONTINUOUS
 62
    7
 10
-19.773863583211707
 20
-5.0006497660060347
 11
-19.793997658653836
 21
-3.007376297236064
  0
LINE
  8
_0-0_
  6
CONTINUOUS
 62
    7
 10
-19.793997658653836
 20
-3.007376297236064
 11
-19.270511697158696
 21
-2.5241584866251543
  0
LINE
  8
_0-0_
  6
CONTINUOUS
 62
    7
 10
-19.270511697158696
 20
-2.5241584866251543
 11
-19.310779848042927
 21
-1.6986613934981989
  0
LINE
  8
_0-0_
  6
CONTINUOUS
 62
    7
 10
-19.310779848042927
 20
-1.6986613934981989
 11
-18.223539774168401
 21
-0.7322257722763936
  0
LINE
  8
_0-0_
  6
CONTINUOUS
 62
    7
 10
-18.968500565526881
 20
-1.6785273180560836
 11
-16.512143361588116
 21
-1.7590636198245591
  0
LINE
  8
_0-0_
  6
CONTINUOUS
 62
    7
 10
-18.847696112874146
 20
-2.2221473549933393
 11
-16.37120483349328
 21
-2.302683656761829
  0
LINE
  8
_0-0_
  6
CONTINUOUS
 62
    7
 10
-16.753752266893571
 20
-2.9469740709097039
 11
-19.592656904232626
 21
-2.9872422217939345
  0
LINE
  8
_0-0_
  6
CONTINUOUS
 62
    7
 10
-19.491986527022021
 20
-4.9805156905639194
 11
-16.995361172199026
 21
-5.1013201432166397
  0
LINE
  8
_0-0_
  6
CONTINUOUS
 62
    7
 10
-19.008768716411112
 20
-5.8865490854593503
 11
-16.653081889682966
 21
-5.9872194626699553
  0
LINE
  8
_0-0_
  6
CONTINUOUS
 62
    7
 10
-19.189975395390206
 20
-6.36976689607026
 11
-16.612813738798721
 21
-6.5107054241651099
  0
ARC
  8
_0-0_
  6
CONTINUOUS
 62
    7
 10
13.399877314934287
 20
-5.2771260508862383
 40
29.494878617535118
 50
176.80166368001787
 51
182.39700980839748
  0
ARC
  8
_0-0_
  6
CONTINUOUS
 62
    7
 10
-14.227077563295197
 20
-3.5417892946495186
 40
1.8241909180928388
 50
117.25575640705608
 51
182.81987540010883
  0
ARC
  8
_0-0_
  6
CONTINUOUS
 62
    7
 10
-14.611346169558132
 20
-2.3132189287955072
 40
0.5983683695485863
 50
96.582801183953961
 51
138.93428001816389
  0
LINE
  8
_0-0_
  6
CONTINUOUS
 62
    7
 10
-14.921551401660565
 20
-0.8530302249291139
 11
-14.61954027002875
 21
-1.2355776583294187
  0
LINE
  8
_0-0_
  6
CONTINUOUS
 62
    7
 10
11.867755045465643
 20
-6.9669923058406908
 11
12.224012762524325
 21
-7.79826031231093
  0
LINE
  8
_0-0_
  6
CONTINUOUS
 62
    7
 10
12.224012762524325
 20
-7.79826031231093
 11
12.045883903994991
 21
-8.6889046049576137
  0
LINE
  8
_0-0_
  6
CONTINUOUS
 62
    7
 10
12.045883903994991
 20
-8.6889046049576137
 11
12.441725811837955
 21
-10.410816904074551
  0
LINE
  8
_0-0_
  6
CONTINUOUS
 62
    7
 10
12.441725811837955
 20
-10.410816904074551
 11
13.134449150563157
 21
-10.489985285643144
  0
LINE
  8
_0-0_
  6
CONTINUOUS
 62
    7
 10
13.134449150563157
 20
-10.489985285643144
 11
13.213617532131749
 21
-10.727490430348922
  0
LINE
  8
_0-0_
  6
CONTINUOUS
 62
    7
 10
13.213617532131749
 20
-10.727490430348922
 11
17.6272548045809
 21
-11.103540242799752
  0
LINE
  8
_0-0_
  6
CONTINUOUS
 62
    7
 10
11.867755045465643
 20
-6.9669923058406908
 11
11.887547140857805
 21
-5.4034167698609537
  0
LINE
  8
_0-0_
  6
CONTINUOUS
 62
    7
 10
11.887547140857805
 20
-5.4034167698609537
 11
12.362557430269362
 21
-3.7012965661361648
  0
LINE
  8
_0-0_
  6
CONTINUOUS
 62
    7
 10
12.362557430269362
 20
-3.7012965661361648
 11
12.679230956543748
 21
-3.3252467536853487
  0
LINE
  8
_0-0_
  6
CONTINUOUS
 62
    7
 10
12.679230956543748
 20
-3.3252467536853487
 11
12.797983528896637
 21
-3.2064941813324594
  0
LINE
  8
_0-0_
  6
CONTINUOUS
 62
    7
 10
12.797983528896637
 20
-3.2064941813324594
 11
13.530291058406135
 21
-2.3158498886857615
  0
LINE
  8
_0-0_
  6
CONTINUOUS
 62
    7
 10
13.530291058406135
 20
-2.3158498886857615
 11
18.023096712423865
 21
-2.7314838919208881
  0
LINE
  8
_0-0_
  6
CONTINUOUS
 62
    7
 10
18.023096712423865
 20
-2.7314838919208881
 11
18.18143347556105
 21
-3.2460783721167559
  0
LINE
  8
_0-0_
  6
CONTINUOUS
 62
    7
 10
18.18143347556105
 20
-3.2460783721167559
 11
18.537691192619732
 21
-3.4044151352539416
  0
LINE
  8
_0-0_
  6
CONTINUOUS
 62
    7
 10
18.537691192619732
 20
-3.4044151352539416
 11
18.755404241933363
 21
-3.4044151352539416
  0
LINE
  8
_0-0_
  6
CONTINUOUS
 62
    7
 10
18.755404241933363
 20
-3.4044151352539416
 11
19.032493577423452
 21
-5.4034167698609537
  0
LINE
  8
_0-0_
  6
CONTINUOUS
 62
    7
 10
19.032493577423452
 20
-5.4034167698609537
 11
18.8939489096784
 21
-5.4034167698609537
  0
LINE
  8
_0-0_
  6
CONTINUOUS
 62
    7
 10
18.8939489096784
 20
-5.4034167698609537
 11
18.8939489096784
 21
-6.4128136348605267
  0
LINE
  8
_0-0_
  6
CONTINUOUS
 62
    7
 10
18.8939489096784
 20
-6.4128136348605267
 11
19.032493577423452
 21
-6.5513583026055642
  0
LINE
  8
_0-0_
  6
CONTINUOUS
 62
    7
 10
19.032493577423452
 20
-6.5513583026055642
 11
18.8939489096784
 21
-8.0357654570167085
  0
LINE
  8
_0-0_
  6
CONTINUOUS
 62
    7
 10
18.8939489096784
 20
-8.0357654570167085
 11
18.319978143306102
 21
-9.1441227989770368
  0
LINE
  8
_0-0_
  6
CONTINUOUS
 62
    7
 10
18.319978143306102
 20
-9.1441227989770368
 11
18.260601857129643
 21
-9.9951829008394242
  0
LINE
  8
_0-0_
  6
CONTINUOUS
 62
    7
 10
18.260601857129643
 20
-9.9951829008394242
 11
17.6272548045809
 21
-11.103540242799752
  0
LINE
  8
_0-0_
  6
CONTINUOUS
 62
    7
 10
17.6272548045809
 20
-11.103540242799752
 11
16.736610511934202
 21
-9.8566382330943867
  0
LINE
  8
_0-0_
  6
CONTINUOUS
 62
    7
 10
16.736610511934202
 20
-9.8566382330943867
 11
16.716818416542054
 21
-9.2232911805456297
  0
LINE
  8
_0-0_
  6
CONTINUOUS
 62
    7
 10
16.716818416542054
 20
-9.2232911805456297
 11
17.013699847424292
 21
-8.3326468878989459
  0
LINE
  8
_0-0_
  6
CONTINUOUS
 62
    7
 10
17.013699847424292
 20
-8.3326468878989459
 11
16.558481653404868
 21
-7.4420025952522622
  0
LINE
  8
_0-0_
  6
CONTINUOUS
 62
    7
 10
16.558481653404868
 20
-7.4420025952522622
 11
16.91473937046355
 21
-5.3044562929002126
  0
LINE
  8
_0-0_
  6
CONTINUOUS
 62
    7
 10
16.91473937046355
 20
-5.3044562929002126
 11
17.270997087522218
 21
-4.5919408587828627
  0
LINE
  8
_0-0_
  6
CONTINUOUS
 62
    7
 10
17.270997087522218
 20
-4.5919408587828627
 11
17.4689180414437
 21
-3.6815044707440165
  0
LINE
  8
_0-0_
  6
CONTINUOUS
 62
    7
 10
17.4689180414437
 20
-3.6815044707440165
 11
18.023096712423865
 21
-2.8898206550580738
  0
LINE
  8
_0-0_
  6
CONTINUOUS
 62
    7
 10
13.114657055171008
 20
-3.3846230398617934
 11
16.954323561247847
 21
-3.6617123753518683
  0
LINE
  8
_0-0_
  6
CONTINUOUS
 62
    7
 10
12.481310002622251
 20
-4.5721487633907145
 11
16.558481653404868
 21
-4.8294460034886413
  0
LINE
  8
_0-0_
  6
CONTINUOUS
 62
    7
 10
13.490706867621839
 20
-4.1367226647634396
 11
16.776194702718499
 21
-4.3346436186849218
  0
LINE
  8
_0-0_
  6
CONTINUOUS
 62
    7
 10
12.125052285563584
 20
-6.7690713519192087
 11
16.222016031738349
 21
-7.1055369735857283
  0
LINE
  8
_0-0_
  6
CONTINUOUS
 62
    7
 10
12.679230956543748
 20
-7.9368049800559675
 11
16.241808127130497
 21
-8.1347259339774638
  0
LINE
  8
_0-0_
  6
CONTINUOUS
 62
    7
 10
12.263596953308621
 20
-8.6691125095654655
 11
16.380352794875535
 21
-9.0055781312319994
  0
LINE
  8
_0-0_
  6
CONTINUOUS
 62
    7
 10
13.114657055171008
 20
-10.371232713290254
 11
16.815778893502795
 21
-10.371232713290254
  0
ARC
  8
_0-0_
  6
CONTINUOUS
 62
    7
 10
15.11880763933938
 20
-6.0937665595186843
 40
3.4484726674836987
 50
151.59634919258625
 51
185.20388432226667
  0
ARC
  8
_0-0_
  6
CONTINUOUS
 62
    7
 10
-12.185968940916169
 20
-28.086280090135809
 40
0.4141900832314379
 50
170.99187014637369
 51
266.86321703921124
  0
ARC
  8
_0-0_
  6
CONTINUOUS
 62
    7
 10
-11.936007612972858
 20
-28.068988850629935
 40
0.66075673712829
 50
97.707466360675653
 51
175.87235485581547
  0
ARC
  8
_0-0_
  6
CONTINUOUS
 62
    7
 10
-11.401443206746379
 20
-29.992994170440056
 40
2.6530222586918022
 50
80.364426884847802
 51
103.58544113691666
  0
ARC
  8
_0-0_
  6
CONTINUOUS
 62
    7
 10
-11.334594678809253
 20
-29.981115163732028
 40
2.6308982127884391
 50
75.623582024851615
 51
81.756553027106534
  0
ARC
  8
_0-0_
  6
CONTINUOUS
 62
    7
 10
-7.4261539321345111
 20
-28.096456027756751
 40
1.4492196218801519
 50
257.60474017905938
 51
303.17297545188023
  0
ARC
  8
_0-0_
  6
CONTINUOUS
 62
    7
 10
-7.0014168717237624
 20
-28.755963271407978
 40
0.6648159964104517
 50
303.63380997246156
 51
14.291167976695181
  0
ARC
  8
_0-0_
  6
CONTINUOUS
 62
    7
 10
-6.6382979598717782
 20
-28.83413107173336
 40
0.3711182889663197
 50
40.755361203947537
 51
89.210851839852026
  0
ARC
  8
_0-0_
  6
CONTINUOUS
 62
    7
 10
-2.809231830148704
 20
-30.144730651800508
 40
0.7172966099185894
 50
156.74370982860415
 51
234.17872565227898
  0
ARC
  8
_0-0_
  6
CONTINUOUS
 62
    7
 10
-2.6770115458788126
 20
-30.417298102949218
 40
0.9669298881421919
 50
83.443619444768629
 51
144.914594848609
  0
ARC
  8
_0-0_
  6
CONTINUOUS
 62
    7
 10
-2.0424530611791027
 20
-33.040840312486829
 40
3.6222722754155612
 50
75.732457934214494
 51
98.32007990082613
  0
ARC
  8
_0-0_
  6
CONTINUOUS
 62
    7
 10
-1.3723938112884184
 20
-30.912196367827512
 40
1.3997227434214043
 50
40.200974167091253
 51
80.847247826416819
  0
ARC
  8
_0-0_
  6
CONTINUOUS
 62
    7
 10
-0.8192518456170603
 20
-30.274661138618498
 40
0.5804534534927259
 50
302.69437316406982
 51
27.268905573627695
  0
ARC
  8
_0-0_
  6
CONTINUOUS
 62
    7
 10
-1.8625049124437396
 20
-28.731483391905108
 40
2.4430607657828083
 50
274.20498469855772
 51
303.7358309184151
  0
ARC
  8
_0-0_
  6
CONTINUOUS
 62
    7
 10
-1.8166795951730847
 20
-28.708830288573559
 40
2.4627482287630977
 50
235.00619047139728
 51
273.10301772675643
  0
ARC
  8
_0-0_
  6
CONTINUOUS
 62
    7
 10
5.5591929393491597
 20
-29.173319415517312
 40
3.3762019485170343
 50
228.49093758430186
 51
239.68961625734312
  0
ARC
  8
_0-0_
  6
CONTINUOUS
 62
    7
 10
3.9113163778092286
 20
-31.670644477666301
 40
0.5904739799290579
 50
113.98721029312685
 51
183.00425626846476
  0
ARC
  8
_0-0_
  6
CONTINUOUS
 62
    7
 10
4.5821096994796449
 20
-32.856242399695965
 40
1.9507738084132444
 50
85.943262138705109
 51
117.8340539405511
  0
ARC
  8
_0-0_
  6
CONTINUOUS
 62
    7
 10
4.8121198783566541
 20
-30.698746921829645
 40
0.2307450375507686
 50
246.50143432404636
 51
274.57392125989975
  0
ARC
  8
_0-0_
  6
CONTINUOUS
 62
    7
 10
9.0995096126242458
 20
-33.90968901895252
 40
2.1256723908709301
 50
41.13926737511526
 51
69.211754310971116
  0
ARC
  8
_0-0_
  6
CONTINUOUS
 62
    7
 10
10.458171986098563
 20
-32.712705710540611
 40
0.3150532677681411
 50
298.47392351318001
 51
39.755022377502769
  0
ARC
  8
_0-0_
  6
CONTINUOUS
 62
    7
 10
9.4961924305947605
 20
-31.175328012462828
 40
2.1280768945357038
 50
262.26888995682725
 51
301.5084261224286
  0
ARC
  8
_0-0_
  6
CONTINUOUS
 62
    7
 10
8.3947584245447757
 20
-35.666966785573798
 40
2.5184752973997511
 50
71.114954959232165
 51
81.893578479175645
  0
ARC
  8
_0-0_
  6
CONTINUOUS
 62
    7
 10
4.3394734299323687
 20
-32.604601476337358
 40
1.2158377317220184
 50
72.666336629751385
 51
136.98662331096071
  0
ARC
  8
_0-0_
  6
CONTINUOUS
 62
    7
 10
9.2197084802952105
 20
-33.961330013952349
 40
1.605653043027029
 50
37.240567573022787
 51
64.571714654518388
  0
ARC
  8
_0-0_
  6
CONTINUOUS
 62
    7
 10
-11.727460662842788
 20
-28.861846940016676
 40
1.0444365796114627
 50
93.180876723257711
 51
141.06173008505962
  0
ARC
  8
_0-0_
  6
CONTINUOUS
 62
    7
 10
-11.369321027620387
 20
-29.732911698527296
 40
1.9586008528602032
 50
73.412207535693682
 51
102.26563348785373
  0
ARC
  8
_0-0_
  6
CONTINUOUS
 62
    7
 10
-6.7659353543724023
 20
-29.134677705465961
 40
0.2081897471325764
 50
352.38145351243162
 51
68.131420814627276
  0
LINE
  8
_0-0_
  6
CONTINUOUS
 62
    7
 10
-12.208633358542116
 20
-28.499849611765413
 11
-7.7372354811730304
 21
-29.511894398824261
  0
LINE
  8
_0-0_
  6
CONTINUOUS
 62
    7
 10
-6.6883890654938654
 20
-28.941469155209269
 11
-10.810171470969891
 21
-27.85582111090978
  0
LINE
  8
_0-0_
  6
CONTINUOUS
 62
    7
 10
-10.681365770798777
 20
-27.432602381776078
 11
-6.633186622563386
 21
-28.463047983145088
  0
LINE
  8
_0-0_
  6
CONTINUOUS
 62
    7
 10
4.7201158068058504
 20
-30.910356286396478
 11
9.8539429993407168
 21
-31.922401073455326
  0
LINE
  8
_0-0_
  6
CONTINUOUS
 62
    7
 10
9.9091454422712104
 20
-32.511227131380473
 11
4.7017149924956811
 21
-31.443979901391145
  0
LINE
  8
_0-0_
  6
CONTINUOUS
 62
    7
 10
3.8552775342282928
 20
-32.088008402246771
 11
8.7498941407310724
 21
-33.173656446546261
  0
ARC
  8
_0-0_
  6
CONTINUOUS
 62
    7
 10
7.5940691575650732
 20
-8.1474748033510878
 40
0.3064277655167998
 50
199.08904076726645
 51
333.28280956415205
  0
ARC
  8
_0-0_
  6
CONTINUOUS
 62
    7
 10
7.8101392399009768
 20
-7.1983046274158653
 40
0.3345718131190023
 50
16.669722256879968
 51
141.42215245632346
  0
LINE
  8
_0-0_
  6
CONTINUOUS
 62
    7
 10
7.5485838350534067
 20
-6.9896732100100394
 11
7.304491400326782
 21
-8.2476880659087897
  0
LINE
  8
_0-0_
  6
CONTINUOUS
 62
    7
 10
7.8677816343112994
 20
-8.2852407481744308
 11
8.1306504101707446
 21
-7.1023312568069485
  0
ARC
  8
_0-0_
  6
CONTINUOUS
 62
    7
 10
-13.965958478918367
 20
-6.1555416648143932
 40
0.2451422124134398
 50
199.08904076726645
 51
333.28280956415205
  0
ARC
  8
_0-0_
  6
CONTINUOUS
 62
    7
 10
-13.793102413049652
 20
-5.3962055240662181
 40
0.2676574504952019
 50
16.669722256879968
 51
141.42215245632346
  0
LINE
  8
_0-0_
  6
CONTINUOUS
 62
    7
 10
-14.002346736927706
 20
-5.2293003901415602
 11
-14.197620684709008
 21
-6.2357122748605605
  0
LINE
  8
_0-0_
  6
CONTINUOUS
 62
    7
 10
-13.746988497521386
 20
-6.265754420673062
 11
-13.536693476833833
 21
-5.319426827579079
  0
ARC
  8
_0-0_
  6
CONTINUOUS
 62
    7
 10
-13.476206615716151
 20
-0.2639899083334711
 40
0.2451422124134398
 50
202.08904076726645
 51
336.28280956415199
  0
ARC
  8
_0-0_
  6
CONTINUOUS
 62
    7
 10
-13.343328026114065
 20
0.5033521761238546
 40
0.2676574504952019
 50
19.669722256879961
 51
144.42215245632346
  0
LINE
  8
_0-0_
  6
CONTINUOUS
 62
    7
 10
-13.561020727704246
 20
0.6590775705846141
 11
-13.703355530965737
 21
-0.3561749104102602
  0
LINE
  8
_0-0_
  6
CONTINUOUS
 62
    7
 10
-13.251768635100447
 20
-0.3625916180757116
 11
-13.091288775933677
 21
0.5934450569419595
  0
ARC
  8
_0-0_
  6
CONTINUOUS
 62
    7
 10
-12.236968100950222
 20
-0.3203189317319328
 40
0.2451422124134398
 50
202.08904076726645
 51
336.28280956415199
  0
ARC
  8
_0-0_
  6
CONTINUOUS
 62
    7
 10
-12.104089511348135
 20
0.4470231527253929
 40
0.2676574504952019
 50
19.669722256879961
 51
144.42215245632346
  0
LINE
  8
_0-0_
  6
CONTINUOUS
 62
    7
 10
-12.321782212938317
 20
0.6027485471861524
 11
-12.464117016199808
 21
-0.4125039338087219
  0
LINE
  8
_0-0_
  6
CONTINUOUS
 62
    7
 10
-12.012530120334517
 20
-0.4189206414741732
 11
-11.852050261167747
 21
0.5371160335434979
  0
ARC
  8
_0-0_
  6
CONTINUOUS
 62
    7
 10
-10.960176903918651
 20
-0.3766479551303803
 40
0.2451422124134398
 50
202.08904076726645
 51
336.28280956415199
  0
ARC
  8
_0-0_
  6
CONTINUOUS
 62
    7
 10
-10.827298314316565
 20
0.3906941293269454
 40
0.2676574504952019
 50
19.669722256879961
 51
144.42215245632346
  0
LINE
  8
_0-0_
  6
CONTINUOUS
 62
    7
 10
-11.044991015906746
 20
0.5464195237877049
 11
-11.187325819168237
 21
-0.4688329572071694
  0
LINE
  8
_0-0_
  6
CONTINUOUS
 62
    7
 10
-10.735738923302947
 20
-0.4752496648726207
 11
-10.575259064136176
 21
0.4807870101450504
  0
ARC
  8
_0-0_
  6
CONTINUOUS
 62
    7
 10
-9.720938389152721
 20
-0.4893060019272752
 40
0.2451422124134398
 50
202.08904076726645
 51
336.28280956415199
  0
ARC
  8
_0-0_
  6
CONTINUOUS
 62
    7
 10
-9.5880597995506349
 20
0.2780360825300505
 40
0.2676574504952019
 50
19.669722256879961
 51
144.42215245632346
  0
LINE
  8
_0-0_
  6
CONTINUOUS
 62
    7
 10
-9.805752501140816
 20
0.43376147699081
 11
-9.948087304402307
 21
-0.5814910040040643
  0
LINE
  8
_0-0_
  6
CONTINUOUS
 62
    7
 10
-9.4965004085370168
 20
-0.5879077116695157
 11
-9.3360205493702466
 21
0.3681289633481554
  0
ARC
  8
_0-0_
  6
CONTINUOUS
 62
    7
 10
-8.331489145324241
 20
-0.5456350253257369
 40
0.2451422124134398
 50
202.08904076726645
 51
336.28280956415199
  0
ARC
  8
_0-0_
  6
CONTINUOUS
 62
    7
 10
-8.1986105557221549
 20
0.2217070591315888
 40
0.2676574504952019
 50
19.669722256879961
 51
144.42215245632346
  0
LINE
  8
_0-0_
  6
CONTINUOUS
 62
    7
 10
-8.416303257312336
 20
0.3774324535923483
 11
-8.558638060573827
 21
-0.637820027402526
  0
LINE
  8
_0-0_
  6
CONTINUOUS
 62
    7
 10
-8.1070511647085368
 20
-0.6442367350679774
 11
-7.9465713055417666
 21
0.3117999399496937
  0
ARC
  8
_0-0_
  6
CONTINUOUS
 62
    7
 10
-7.0734742894254907
 20
-0.5831877075913638
 40
0.2451422124134398
 50
202.08904076726645
 51
336.28280956415199
  0
ARC
  8
_0-0_
  6
CONTINUOUS
 62
    7
 10
-6.9405956998234046
 20
0.1841543768659619
 40
0.2676574504952019
 50
19.669722256879961
 51
144.42215245632346
  0
LINE
  8
_0-0_
  6
CONTINUOUS
 62
    7
 10
-7.1582884014135857
 20
0.3398797713267214
 11
-7.3006232046750767
 21
-0.6753727096681529
  0
LINE
  8
_0-0_
  6
CONTINUOUS
 62
    7
 10
-6.8490363088097865
 20
-0.6817894173336043
 11
-6.6885564496430163
 21
0.2742472576840668
  0
ARC
  8
_0-0_
  6
CONTINUOUS
 62
    7
 10
-5.7028013867298455
 20
-0.7333984366538999
 40
0.2451422124134398
 50
202.08904076726645
 51
336.28280956415199
  0
ARC
  8
_0-0_
  6
CONTINUOUS
 62
    7
 10
-5.5699227971277594
 20
0.0339436478034258
 40
0.2676574504952019
 50
19.669722256879961
 51
144.42215245632346
  0
LINE
  8
_0-0_
  6
CONTINUOUS
 62
    7
 10
-5.7876154987179405
 20
0.1896690422641853
 11
-5.9299503019794315
 21
-0.825583438730689
  0
LINE
  8
_0-0_
  6
CONTINUOUS
 62
    7
 10
-5.4783634061141413
 20
-0.8320001463961403
 11
-5.3178835469473711
 21
0.1240365286215308
  0
ARC
  8
_0-0_
  6
CONTINUOUS
 62
    7
 10
-4.2382467783700974
 20
-0.7521747777867204
 40
0.2451422124134398
 50
202.08904076726645
 51
336.28280956415199
  0
ARC
  8
_0-0_
  6
CONTINUOUS
 62
    7
 10
-4.1053681887680114
 20
0.0151673066706052
 40
0.2676574504952019
 50
19.669722256879961
 51
144.42215245632346
  0
LINE
  8
_0-0_
  6
CONTINUOUS
 62
    7
 10
-4.3230608903581924
 20
0.1708927011313647
 11
-4.4653956936196835
 21
-0.8443597798635096
  0
LINE
  8
_0-0_
  6
CONTINUOUS
 62
    7
 10
-4.0138087977543933
 20
-0.8507764875289609
 11
-3.853328938587623
 21
0.1052601874887102
  0
LINE
  8
_0-0_
  6
CONTINUOUS
 62
    7
 10
-0.911715806477773
 20
-1.0296697260637802
 11
-0.911715806477773
 21
-1.0296697260637802
  0
LINE
  8
_0-0_
  6
CONTINUOUS
 62
    7
 10
-0.911715806477773
 20
-1.0296697260637802
 11
-0.8885664793633429
 21
-1.0678948600781797
  0
LINE
  8
_0-0_
  6
CONTINUOUS
 62
    7
 10
-0.8885664793633429
 20
-1.0678948600781797
 11
-0.85741223233241
 21
-1.1022170139503529
  0
LINE
  8
_0-0_
  6
CONTINUOUS
 62
    7
 10
-0.85741223233241
 20
-1.1022170139503529
 11
-0.8191996714161997
 21
-1.1315933264027409
  0
LINE
  8
_0-0_
  6
CONTINUOUS
 62
    7
 10
-0.8191996714161997
 20
-1.1315933264027409
 11
-0.775089865941662
 21
-1.15513121304661
  0
LINE
  8
_0-0_
  6
CONTINUOUS
 62
    7
 10
-0.775089865941662
 20
-1.15513121304661
 11
-0.7264230700275026
 21
-1.1721154871070312
  0
LINE
  8
_0-0_
  6
CONTINUOUS
 62
    7
 10
-0.7264230700275026
 20
-1.1721154871070312
 11
-0.6746779996409857
 21
-1.182030090011136
  0
LINE
  8
_0-0_
  6
CONTINUOUS
 62
    7
 10
-0.6746779996409857
 20
-1.182030090011136
 11
-0.6214269025615368
 21
-1.1845737715667142
  0
LINE
  8
_0-0_
  6
CONTINUOUS
 62
    7
 10
-0.6214269025615368
 20
-1.1845737715667142
 11
-0.5682877864275598
 21
-1.179669243296865
  0
LINE
  8
_0-0_
  6
CONTINUOUS
 62
    7
 10
-0.5682877864275598
 20
-1.179669243296865
 11
-0.5168752563930952
 21
-1.1674655268112559
  0
LINE
  8
_0-0_
  6
CONTINUOUS
 62
    7
 10
-0.5168752563930952
 20
-1.1674655268112559
 11
-0.4687514561672449
 21
-1.1483334258599245
  0
LINE
  8
_0-0_
  6
CONTINUOUS
 62
    7
 10
-0.4687514561672449
 20
-1.1483334258599245
 11
-0.4253786030680532
 21
-1.1228542596489663
  0
LINE
  8
_0-0_
  6
CONTINUOUS
 62
    7
 10
-0.4253786030680532
 20
-1.1228542596489663
 11
-0.3880745592892165
 21
-1.0918021997506213
  0
LINE
  8
_0-0_
  6
CONTINUOUS
 62
    7
 10
-0.3880745592892165
 20
-1.0918021997506213
 11
-0.3579727893241979
 21
-1.0561207472917999
  0
LINE
  8
_0-0_
  6
CONTINUOUS
 62
    7
 10
-0.3579727893241979
 20
-1.0561207472917999
 11
-0.3477202579154888
 21
-1.0400350253492798
  0
LINE
  8
_0-0_
  6
CONTINUOUS
 62
    7
 10
-0.7028953345193256
 20
-0.0153522171517666
 11
-0.7028953345193256
 21
-0.0153522171517666
  0
LINE
  8
_0-0_
  6
CONTINUOUS
 62
    7
 10
-0.7028953345193256
 20
-0.0153522171517666
 11
-0.6638973209607046
 21
0.0198294571296805
  0
LINE
  8
_0-0_
  6
CONTINUOUS
 62
    7
 10
-0.6638973209607046
 20
0.0198294571296805
 11
-0.6179648681281155
 21
0.0491512695997795
  0
LINE
  8
_0-0_
  6
CONTINUOUS
 62
    7
 10
-0.6179648681281155
 20
0.0491512695997795
 11
-0.5664936103579341
 21
0.071722291824179
  0
LINE
  8
_0-0_
  6
CONTINUOUS
 62
    7
 10
-0.5664936103579341
 20
0.071722291824179
 11
-0.5110474757717936
 21
0.0868567147140791
  0
LINE
  8
_0-0_
  6
CONTINUOUS
 62
    7
 10
-0.5110474757717936
 20
0.0868567147140791
 11
-0.4533111671119967
 21
0.0940946864883576
  0
LINE
  8
_0-0_
  6
CONTINUOUS
 62
    7
 10
-0.4533111671119967
 20
0.0940946864883576
 11
-0.395038972901189
 21
0.0932162850372437
  0
LINE
  8
_0-0_
  6
CONTINUOUS
 62
    7
 10
-0.395038972901189
 20
0.0932162850372437
 11
-0.3380014642733129
 21
0.0842482001443367
  0
LINE
  8
_0-0_
  6
CONTINUOUS
 62
    7
 10
-0.3380014642733129
 20
0.0842482001443367
 11
-0.2839316970656545
 21
0.0674629225310378
  0
LINE
  8
_0-0_
  6
CONTINUOUS
 62
    7
 10
-0.2839316970656545
 20
0.0674629225310378
 11
-0.2344725537941962
 21
0.0433704643638666
  0
LINE
  8
_0-0_
  6
CONTINUOUS
 62
    7
 10
-0.2344725537941962
 20
0.0433704643638666
 11
-0.191126825499707
 21
0.0127028627928607
  0
LINE
  8
_0-0_
  6
CONTINUOUS
 62
    7
 10
-0.191126825499707
 20
0.0127028627928607
 11
-0.1552115502024181
 21
-0.0236080626268
  0
LINE
  8
_0-0_
  6
CONTINUOUS
 62
    7
 10
-0.1552115502024181
 20
-0.0236080626268
 11
-0.1278179953682316
 21
-0.0644590228004541
  0
LINE
  8
_0-0_
  6
CONTINUOUS
 62
    7
 10
-0.1278179953682316
 20
-0.0644590228004541
 11
-0.1180379713264759
 21
-0.085109921479794
  0
LINE
  8
_0-0_
  6
CONTINUOUS
 62
    7
 10
-0.70289533451934
 20
-0.0153522171517721
 11
-0.9117158064777726
 21
-1.029669726063787
  0
LINE
  8
_0-0_
  6
CONTINUOUS
 62
    7
 10
-0.3477202579154834
 20
-1.0400350253492689
 11
-0.1180379713264869
 21
-0.0851099214797841
  0
LINE
  8
_0-0_
  6
CONTINUOUS
 62
    7
 10
0.5409517602249532
 20
-1.1431196542219648
 11
0.5409517602249532
 21
-1.1431196542219648
  0
LINE
  8
_0-0_
  6
CONTINUOUS
 62
    7
 10
0.5409517602249532
 20
-1.1431196542219648
 11
0.5660699109322762
 21
-1.1800808598477817
  0
LINE
  8
_0-0_
  6
CONTINUOUS
 62
    7
 10
0.5660699109322762
 20
-1.1800808598477817
 11
0.5989777448936235
 21
-1.212725489091532
  0
LINE
  8
_0-0_
  6
CONTINUOUS
 62
    7
 10
0.5989777448936235
 20
-1.212725489091532
 11
0.6386753742262466
 21
-1.2400616514126237
  0
LINE
  8
_0-0_
  6
CONTINUOUS
 62
    7
 10
0.6386753742262466
 20
-1.2400616514126237
 11
0.6839566065508437
 21
-1.2612587513516964
  0
LINE
  8
_0-0_
  6
CONTINUOUS
 62
    7
 10
0.6839566065508437
 20
-1.2612587513516964
 11
0.7334455945366411
 21
-1.2756727257533513
  0
LINE
  8
_0-0_
  6
CONTINUOUS
 62
    7
 10
0.7334455945366411
 20
-1.2756727257533513
 11
0.7856386403263264
 21
-1.2828656132992169
  0
LINE
  8
_0-0_
  6
CONTINUOUS
 62
    7
 10
0.7856386403263264
 20
-1.2828656132992169
 11
0.8389498846345357
 21
-1.282618861740989
  0
LINE
  8
_0-0_
  6
CONTINUOUS
 62
    7
 10
0.8389498846345357
 20
-1.282618861740989
 11
0.8917594922797554
 21
-1.2749399684999023
  0
LINE
  8
_0-0_
  6
CONTINUOUS
 62
    7
 10
0.8917594922797554
 20
-1.2749399684999023
 11
0.9424628700566363
 21
-1.2600622528613792
  0
LINE
  8
_0-0_
  6
CONTINUOUS
 62
    7
 10
0.9424628700566363
 20
-1.2600622528613792
 11
0.9895194214885748
 21
-1.2384377666866091
  0
LINE
  8
_0-0_
  6
CONTINUOUS
 62
    7
 10
0.9895194214885748
 20
-1.2384377666866091
 11
1.0314993570720756
 21
-1.2107235590454946
  0
LINE
  8
_0-0_
  6
CONTINUOUS
 62
    7
 10
1.0314993570720756
 20
-1.2107235590454946
 11
1.0671271377073066
 21
-1.1777617121131452
  0
LINE
  8
_0-0_
  6
CONTINUOUS
 62
    7
 10
1.0671271377073066
 20
-1.1777617121131452
 11
1.0953202313081927
 21
-1.1405537549291005
  0
LINE
  8
_0-0_
  6
CONTINUOUS
 62
    7
 10
1.0953202313081927
 20
-1.1405537549291005
 11
1.1047168503392086
 21
-1.1239535018742646
  0
LINE
  8
_0-0_
  6
CONTINUOUS
 62
    7
 10
0.6964007742211711
 20
-0.1192634131206977
 11
0.6964007742211711
 21
-0.1192634131206977
  0
LINE
  8
_0-0_
  6
CONTINUOUS
 62
    7
 10
0.6964007742211711
 20
-0.1192634131206977
 11
0.7335040757918219
 21
-0.0820889557699633
  0
LINE
  8
_0-0_
  6
CONTINUOUS
 62
    7
 10
0.7335040757918219
 20
-0.0820889557699633
 11
0.7778389946997679
 21
-0.05040340898321
  0
LINE
  8
_0-0_
  6
CONTINUOUS
 62
    7
 10
0.7778389946997679
 20
-0.05040340898321
 11
0.8280584368685424
 21
-0.0251695220658934
  0
LINE
  8
_0-0_
  6
CONTINUOUS
 62
    7
 10
0.8280584368685424
 20
-0.0251695220658934
 11
0.8826365099601112
 21
-0.0071540139030328
  0
LINE
  8
_0-0_
  6
CONTINUOUS
 62
    7
 10
0.8826365099601112
 20
-0.0071540139030328
 11
0.9399148868414244
 21
0.0030957234061298
  0
LINE
  8
_0-0_
  6
CONTINUOUS
 62
    7
 10
0.9399148868414244
 20
0.0030957234061298
 11
0.9981531930152007
 21
0.0052682567800733
  0
LINE
  8
_0-0_
  6
CONTINUOUS
 62
    7
 10
0.9981531930152007
 20
0.0052682567800733
 11
1.0555818870183549
 21
-0.0007024251084148
  0
LINE
  8
_0-0_
  6
CONTINUOUS
 62
    7
 10
1.0555818870183549
 20
-0.0007024251084148
 11
1.1104560270439221
 21
-0.0146349061114637
  0
LINE
  8
_0-0_
  6
CONTINUOUS
 62
    7
 10
1.1104560270439221
 20
-0.0146349061114637
 11
1.1611082901148804
 21
-0.0361058548439713
  0
LINE
  8
_0-0_
  6
CONTINUOUS
 62
    7
 10
1.1611082901148804
 20
-0.0361058548439713
 11
1.2059996328491005
 21
-0.0644628873935246
  0
LINE
  8
_0-0_
  6
CONTINUOUS
 62
    7
 10
1.2059996328491005
 20
-0.0644628873935246
 11
1.2437660545137188
 21
-0.0988443896754563
  0
LINE
  8
_0-0_
  6
CONTINUOUS
 62
    7
 10
1.2437660545137188
 20
-0.0988443896754563
 11
1.2732600414971871
 21
-0.1382056971408095
  0
LINE
  8
_0-0_
  6
CONTINUOUS
 62
    7
 10
1.2732600414971871
 20
-0.1382056971408095
 11
1.2841074468855533
 21
-0.1583164475709183
  0
LINE
  8
_0-0_
  6
CONTINUOUS
 62
    7
 10
0.6964007742211606
 20
-0.1192634131206915
 11
0.5409517602249565
 21
-1.1431196542219624
  0
LINE
  8
_0-0_
  6
CONTINUOUS
 62
    7
 10
1.1047168503392015
 20
-1.1239535018742544
 11
1.2841074468855425
 21
-0.1583164475709111
  0
LINE
  8
_0-0_
  6
CONTINUOUS
 62
    7
 10
2.0806117331159553
 20
-1.1618959953547712
 11
2.0806117331159553
 21
-1.1618959953547712
  0
LINE
  8
_0-0_
  6
CONTINUOUS
 62
    7
 10
2.0806117331159553
 20
-1.1618959953547712
 11
2.1057298838232783
 21
-1.198857200980588
  0
LINE
  8
_0-0_
  6
CONTINUOUS
 62
    7
 10
2.1057298838232783
 20
-1.198857200980588
 11
2.1386377177846252
 21
-1.2315018302243383
  0
LINE
  8
_0-0_
  6
CONTINUOUS
 62
    7
 10
2.1386377177846252
 20
-1.2315018302243383
 11
2.1783353471172484
 21
-1.2588379925454301
  0
LINE
  8
_0-0_
  6
CONTINUOUS
 62
    7
 10
2.1783353471172484
 20
-1.2588379925454301
 11
2.2236165794418454
 21
-1.2800350924845028
  0
LINE
  8
_0-0_
  6
CONTINUOUS
 62
    7
 10
2.2236165794418454
 20
-1.2800350924845028
 11
2.2731055674276428
 21
-1.2944490668861577
  0
LINE
  8
_0-0_
  6
CONTINUOUS
 62
    7
 10
2.2731055674276428
 20
-1.2944490668861577
 11
2.3252986132173286
 21
-1.3016419544320232
  0
LINE
  8
_0-0_
  6
CONTINUOUS
 62
    7
 10
2.3252986132173286
 20
-1.3016419544320232
 11
2.3786098575255377
 21
-1.3013952028737954
  0
LINE
  8
_0-0_
  6
CONTINUOUS
 62
    7
 10
2.3786098575255377
 20
-1.3013952028737954
 11
2.4314194651707575
 21
-1.2937163096327087
  0
LINE
  8
_0-0_
  6
CONTINUOUS
 62
    7
 10
2.4314194651707575
 20
-1.2937163096327087
 11
2.4821228429476383
 21
-1.2788385939941855
  0
LINE
  8
_0-0_
  6
CONTINUOUS
 62
    7
 10
2.4821228429476383
 20
-1.2788385939941855
 11
2.5291793943795766
 21
-1.2572141078194154
  0
LINE
  8
_0-0_
  6
CONTINUOUS
 62
    7
 10
2.5291793943795766
 20
-1.2572141078194154
 11
2.5711593299630775
 21
-1.2294999001783009
  0
LINE
  8
_0-0_
  6
CONTINUOUS
 62
    7
 10
2.5711593299630775
 20
-1.2294999001783009
 11
2.6067871105983085
 21
-1.1965380532459515
  0
LINE
  8
_0-0_
  6
CONTINUOUS
 62
    7
 10
2.6067871105983085
 20
-1.1965380532459515
 11
2.6349802041991945
 21
-1.1593300960619068
  0
LINE
  8
_0-0_
  6
CONTINUOUS
 62
    7
 10
2.6349802041991945
 20
-1.1593300960619068
 11
2.6443768232302105
 21
-1.1427298430070709
  0
LINE
  8
_0-0_
  6
CONTINUOUS
 62
    7
 10
2.2360607471121732
 20
-0.138039754253504
 11
2.2360607471121732
 21
-0.138039754253504
  0
LINE
  8
_0-0_
  6
CONTINUOUS
 62
    7
 10
2.2360607471121732
 20
-0.138039754253504
 11
2.273164048682824
 21
-0.1008652969027696
  0
LINE
  8
_0-0_
  6
CONTINUOUS
 62
    7
 10
2.273164048682824
 20
-0.1008652969027696
 11
2.3174989675907698
 21
-0.0691797501160164
  0
LINE
  8
_0-0_
  6
CONTINUOUS
 62
    7
 10
2.3174989675907698
 20
-0.0691797501160164
 11
2.3677184097595445
 21
-0.0439458631986997
  0
LINE
  8
_0-0_
  6
CONTINUOUS
 62
    7
 10
2.3677184097595445
 20
-0.0439458631986997
 11
2.4222964828511131
 21
-0.0259303550358391
  0
LINE
  8
_0-0_
  6
CONTINUOUS
 62
    7
 10
2.4222964828511131
 20
-0.0259303550358391
 11
2.4795748597324265
 21
-0.0156806177266765
  0
LINE
  8
_0-0_
  6
CONTINUOUS
 62
    7
 10
2.4795748597324265
 20
-0.0156806177266765
 11
2.5378131659062024
 21
-0.013508084352733
  0
LINE
  8
_0-0_
  6
CONTINUOUS
 62
    7
 10
2.5378131659062024
 20
-0.013508084352733
 11
2.5952418599093567
 21
-0.0194787662412211
  0
LINE
  8
_0-0_
  6
CONTINUOUS
 62
    7
 10
2.5952418599093567
 20
-0.0194787662412211
 11
2.6501159999349237
 21
-0.03341124724427
  0
LINE
  8
_0-0_
  6
CONTINUOUS
 62
    7
 10
2.6501159999349237
 20
-0.03341124724427
 11
2.7007682630058825
 21
-0.0548821959767776
  0
LINE
  8
_0-0_
  6
CONTINUOUS
 62
    7
 10
2.7007682630058825
 20
-0.0548821959767776
 11
2.7456596057401024
 21
-0.083239228526331
  0
LINE
  8
_0-0_
  6
CONTINUOUS
 62
    7
 10
2.7456596057401024
 20
-0.083239228526331
 11
2.7834260274047207
 21
-0.1176207308082627
  0
LINE
  8
_0-0_
  6
CONTINUOUS
 62
    7
 10
2.7834260274047207
 20
-0.1176207308082627
 11
2.8129200143881889
 21
-0.1569820382736159
  0
LINE
  8
_0-0_
  6
CONTINUOUS
 62
    7
 10
2.8129200143881889
 20
-0.1569820382736159
 11
2.823767419776555
 21
-0.1770927887037247
  0
LINE
  8
_0-0_
  6
CONTINUOUS
 62
    7
 10
2.2360607471121625
 20
-0.1380397542534979
 11
2.0806117331159584
 21
-1.1618959953547687
  0
LINE
  8
_0-0_
  6
CONTINUOUS
 62
    7
 10
2.6443768232302034
 20
-1.1427298430070607
 11
2.8237674197765443
 21
-0.1770927887037174
  0
LINE
  8
_0-0_
  6
CONTINUOUS
 62
    7
 10
3.5263900003428827
 20
-1.2557777010188598
 11
3.5263900003428827
 21
-1.2557777010188598
  0
LINE
  8
_0-0_
  6
CONTINUOUS
 62
    7
 10
3.5263900003428827
 20
-1.2557777010188598
 11
3.5515081510502058
 21
-1.2927389066446766
  0
LINE
  8
_0-0_
  6
CONTINUOUS
 62
    7
 10
3.5515081510502058
 20
-1.2927389066446766
 11
3.5844159850115527
 21
-1.3253835358884269
  0
LINE
  8
_0-0_
  6
CONTINUOUS
 62
    7
 10
3.5844159850115527
 20
-1.3253835358884269
 11
3.6241136143441759
 21
-1.3527196982095187
  0
LINE
  8
_0-0_
  6
CONTINUOUS
 62
    7
 10
3.6241136143441759
 20
-1.3527196982095187
 11
3.6693948466687729
 21
-1.3739167981485914
  0
LINE
  8
_0-0_
  6
CONTINUOUS
 62
    7
 10
3.6693948466687729
 20
-1.3739167981485914
 11
3.7188838346545703
 21
-1.3883307725502463
  0
LINE
  8
_0-0_
  6
CONTINUOUS
 62
    7
 10
3.7188838346545703
 20
-1.3883307725502463
 11
3.771076880444256
 21
-1.3955236600961118
  0
LINE
  8
_0-0_
  6
CONTINUOUS
 62
    7
 10
3.771076880444256
 20
-1.3955236600961118
 11
3.8243881247524651
 21
-1.395276908537884
  0
LINE
  8
_0-0_
  6
CONTINUOUS
 62
    7
 10
3.8243881247524651
 20
-1.395276908537884
 11
3.8771977323976849
 21
-1.3875980152967973
  0
LINE
  8
_0-0_
  6
CONTINUOUS
 62
    7
 10
3.8771977323976849
 20
-1.3875980152967973
 11
3.9279011101745658
 21
-1.3727202996582741
  0
LINE
  8
_0-0_
  6
CONTINUOUS
 62
    7
 10
3.9279011101745658
 20
-1.3727202996582741
 11
3.9749576616065041
 21
-1.351095813483504
  0
LINE
  8
_0-0_
  6
CONTINUOUS
 62
    7
 10
3.9749576616065041
 20
-1.351095813483504
 11
4.0169375971900054
 21
-1.3233816058423895
  0
LINE
  8
_0-0_
  6
CONTINUOUS
 62
    7
 10
4.0169375971900054
 20
-1.3233816058423895
 11
4.0525653778252355
 21
-1.2904197589100401
  0
LINE
  8
_0-0_
  6
CONTINUOUS
 62
    7
 10
4.0525653778252355
 20
-1.2904197589100401
 11
4.0807584714261225
 21
-1.2532118017259954
  0
LINE
  8
_0-0_
  6
CONTINUOUS
 62
    7
 10
4.0807584714261225
 20
-1.2532118017259954
 11
4.090155090457138
 21
-1.2366115486711595
  0
LINE
  8
_0-0_
  6
CONTINUOUS
 62
    7
 10
3.6818390143391007
 20
-0.2319214599175926
 11
3.6818390143391007
 21
-0.2319214599175926
  0
LINE
  8
_0-0_
  6
CONTINUOUS
 62
    7
 10
3.6818390143391007
 20
-0.2319214599175926
 11
3.7189423159097514
 21
-0.1947470025668582
  0
LINE
  8
_0-0_
  6
CONTINUOUS
 62
    7
 10
3.7189423159097514
 20
-0.1947470025668582
 11
3.7632772348176973
 21
-0.163061455780105
  0
LINE
  8
_0-0_
  6
CONTINUOUS
 62
    7
 10
3.7632772348176973
 20
-0.163061455780105
 11
3.813496676986472
 21
-0.1378275688627883
  0
LINE
  8
_0-0_
  6
CONTINUOUS
 62
    7
 10
3.813496676986472
 20
-0.1378275688627883
 11
3.8680747500780406
 21
-0.1198120606999277
  0
LINE
  8
_0-0_
  6
CONTINUOUS
 62
    7
 10
3.8680747500780406
 20
-0.1198120606999277
 11
3.925353126959354
 21
-0.1095623233907651
  0
LINE
  8
_0-0_
  6
CONTINUOUS
 62
    7
 10
3.925353126959354
 20
-0.1095623233907651
 11
3.9835914331331299
 21
-0.1073897900168216
  0
LINE
  8
_0-0_
  6
CONTINUOUS
 62
    7
 10
3.9835914331331299
 20
-0.1073897900168216
 11
4.0410201271362842
 21
-0.1133604719053097
  0
LINE
  8
_0-0_
  6
CONTINUOUS
 62
    7
 10
4.0410201271362842
 20
-0.1133604719053097
 11
4.0958942671618512
 21
-0.1272929529083586
  0
LINE
  8
_0-0_
  6
CONTINUOUS
 62
    7
 10
4.0958942671618512
 20
-0.1272929529083586
 11
4.1465465302328095
 21
-0.1487639016408662
  0
LINE
  8
_0-0_
  6
CONTINUOUS
 62
    7
 10
4.1465465302328095
 20
-0.1487639016408662
 11
4.1914378729670299
 21
-0.1771209341904196
  0
LINE
  8
_0-0_
  6
CONTINUOUS
 62
    7
 10
4.1914378729670299
 20
-0.1771209341904196
 11
4.2292042946316482
 21
-0.2115024364723513
  0
LINE
  8
_0-0_
  6
CONTINUOUS
 62
    7
 10
4.2292042946316482
 20
-0.2115024364723513
 11
4.258698281615116
 21
-0.2508637439377045
  0
LINE
  8
_0-0_
  6
CONTINUOUS
 62
    7
 10
4.258698281615116
 20
-0.2508637439377045
 11
4.2695456870034825
 21
-0.2709744943678133
  0
LINE
  8
_0-0_
  6
CONTINUOUS
 62
    7
 10
3.68183901433909
 20
-0.2319214599175865
 11
3.5263900003428859
 21
-1.2557777010188573
  0
LINE
  8
_0-0_
  6
CONTINUOUS
 62
    7
 10
4.0901550904571309
 20
-1.2366115486711493
 11
4.2695456870034718
 21
-0.270974494367806
  0
LINE
  8
_0-0_
  6
CONTINUOUS
 62
    7
 10
5.0848263143667047
 20
-1.3308830655501278
 11
5.0848263143667047
 21
-1.3308830655501278
  0
LINE
  8
_0-0_
  6
CONTINUOUS
 62
    7
 10
5.0848263143667047
 20
-1.3308830655501278
 11
5.1099444650740278
 21
-1.3678442711759446
  0
LINE
  8
_0-0_
  6
CONTINUOUS
 62
    7
 10
5.1099444650740278
 20
-1.3678442711759446
 11
5.1428522990353756
 21
-1.400488900419695
  0
LINE
  8
_0-0_
  6
CONTINUOUS
 62
    7
 10
5.1428522990353756
 20
-1.400488900419695
 11
5.1825499283679983
 21
-1.4278250627407867
  0
LINE
  8
_0-0_
  6
CONTINUOUS
 62
    7
 10
5.1825499283679983
 20
-1.4278250627407867
 11
5.2278311606925953
 21
-1.4490221626798594
  0
LINE
  8
_0-0_
  6
CONTINUOUS
 62
    7
 10
5.2278311606925953
 20
-1.4490221626798594
 11
5.2773201486783927
 21
-1.4634361370815143
  0
LINE
  8
_0-0_
  6
CONTINUOUS
 62
    7
 10
5.2773201486783927
 20
-1.4634361370815143
 11
5.3295131944680785
 21
-1.4706290246273799
  0
LINE
  8
_0-0_
  6
CONTINUOUS
 62
    7
 10
5.3295131944680785
 20
-1.4706290246273799
 11
5.3828244387762876
 21
-1.470382273069152
  0
LINE
  8
_0-0_
  6
CONTINUOUS
 62
    7
 10
5.3828244387762876
 20
-1.470382273069152
 11
5.4356340464215069
 21
-1.4627033798280653
  0
LINE
  8
_0-0_
  6
CONTINUOUS
 62
    7
 10
5.4356340464215069
 20
-1.4627033798280653
 11
5.4863374241983882
 21
-1.4478256641895422
  0
LINE
  8
_0-0_
  6
CONTINUOUS
 62
    7
 10
5.4863374241983882
 20
-1.4478256641895422
 11
5.533393975630327
 21
-1.4262011780147721
  0
LINE
  8
_0-0_
  6
CONTINUOUS
 62
    7
 10
5.533393975630327
 20
-1.4262011780147721
 11
5.5753739112138279
 21
-1.3984869703736575
  0
LINE
  8
_0-0_
  6
CONTINUOUS
 62
    7
 10
5.5753739112138279
 20
-1.3984869703736575
 11
5.6110016918490579
 21
-1.3655251234413082
  0
LINE
  8
_0-0_
  6
CONTINUOUS
 62
    7
 10
5.6110016918490579
 20
-1.3655251234413082
 11
5.6391947854499449
 21
-1.3283171662572635
  0
LINE
  8
_0-0_
  6
CONTINUOUS
 62
    7
 10
5.6391947854499449
 20
-1.3283171662572635
 11
5.6485914044809604
 21
-1.3117169132024276
  0
LINE
  8
_0-0_
  6
CONTINUOUS
 62
    7
 10
5.2402753283629231
 20
-0.3070268244488607
 11
5.2402753283629231
 21
-0.3070268244488607
  0
LINE
  8
_0-0_
  6
CONTINUOUS
 62
    7
 10
5.2402753283629231
 20
-0.3070268244488607
 11
5.2773786299335734
 21
-0.2698523670981263
  0
LINE
  8
_0-0_
  6
CONTINUOUS
 62
    7
 10
5.2773786299335734
 20
-0.2698523670981263
 11
5.3217135488415197
 21
-0.238166820311373
  0
LINE
  8
_0-0_
  6
CONTINUOUS
 62
    7
 10
5.3217135488415197
 20
-0.238166820311373
 11
5.3719329910102944
 21
-0.2129329333940563
  0
LINE
  8
_0-0_
  6
CONTINUOUS
 62
    7
 10
5.3719329910102944
 20
-0.2129329333940563
 11
5.426511064101863
 21
-0.1949174252311958
  0
LINE
  8
_0-0_
  6
CONTINUOUS
 62
    7
 10
5.426511064101863
 20
-0.1949174252311958
 11
5.483789440983176
 21
-0.1846676879220331
  0
LINE
  8
_0-0_
  6
CONTINUOUS
 62
    7
 10
5.483789440983176
 20
-0.1846676879220331
 11
5.5420277471569523
 21
-0.1824951545480896
  0
LINE
  8
_0-0_
  6
CONTINUOUS
 62
    7
 10
5.5420277471569523
 20
-0.1824951545480896
 11
5.5994564411601067
 21
-0.1884658364365778
  0
LINE
  8
_0-0_
  6
CONTINUOUS
 62
    7
 10
5.5994564411601067
 20
-0.1884658364365778
 11
5.6543305811856737
 21
-0.2023983174396267
  0
LINE
  8
_0-0_
  6
CONTINUOUS
 62
    7
 10
5.6543305811856737
 20
-0.2023983174396267
 11
5.7049828442566319
 21
-0.2238692661721343
  0
LINE
  8
_0-0_
  6
CONTINUOUS
 62
    7
 10
5.7049828442566319
 20
-0.2238692661721343
 11
5.7498741869908523
 21
-0.2522262987216876
  0
LINE
  8
_0-0_
  6
CONTINUOUS
 62
    7
 10
5.7498741869908523
 20
-0.2522262987216876
 11
5.7876406086554706
 21
-0.2866078010036193
  0
LINE
  8
_0-0_
  6
CONTINUOUS
 62
    7
 10
5.7876406086554706
 20
-0.2866078010036193
 11
5.8171345956389384
 21
-0.3259691084689725
  0
LINE
  8
_0-0_
  6
CONTINUOUS
 62
    7
 10
5.8171345956389384
 20
-0.3259691084689725
 11
5.8279820010273049
 21
-0.3460798588990813
  0
LINE
  8
_0-0_
  6
CONTINUOUS
 62
    7
 10
5.2402753283629124
 20
-0.3070268244488545
 11
5.0848263143667083
 21
-1.3308830655501254
  0
LINE
  8
_0-0_
  6
CONTINUOUS
 62
    7
 10
5.6485914044809533
 20
-1.3117169132024173
 11
5.8279820010272942
 21
-0.3460798588990741
  0
LINE
  8
_0-0_
  6
CONTINUOUS
 62
    7
 10
6.7371443340546158
 20
-1.4247647712142164
 11
6.7371443340546158
 21
-1.4247647712142164
  0
LINE
  8
_0-0_
  6
CONTINUOUS
 62
    7
 10
6.7371443340546158
 20
-1.4247647712142164
 11
6.7622624847619388
 21
-1.4617259768400332
  0
LINE
  8
_0-0_
  6
CONTINUOUS
 62
    7
 10
6.7622624847619388
 20
-1.4617259768400332
 11
6.7951703187232866
 21
-1.4943706060837836
  0
LINE
  8
_0-0_
  6
CONTINUOUS
 62
    7
 10
6.7951703187232866
 20
-1.4943706060837836
 11
6.8348679480559094
 21
-1.5217067684048753
  0
LINE
  8
_0-0_
  6
CONTINUOUS
 62
    7
 10
6.8348679480559094
 20
-1.5217067684048753
 11
6.8801491803805064
 21
-1.542903868343948
  0
LINE
  8
_0-0_
  6
CONTINUOUS
 62
    7
 10
6.8801491803805064
 20
-1.542903868343948
 11
6.9296381683663038
 21
-1.5573178427456029
  0
LINE
  8
_0-0_
  6
CONTINUOUS
 62
    7
 10
6.9296381683663038
 20
-1.5573178427456029
 11
6.9818312141559895
 21
-1.5645107302914685
  0
LINE
  8
_0-0_
  6
CONTINUOUS
 62
    7
 10
6.9818312141559895
 20
-1.5645107302914685
 11
7.0351424584641986
 21
-1.5642639787332406
  0
LINE
  8
_0-0_
  6
CONTINUOUS
 62
    7
 10
7.0351424584641986
 20
-1.5642639787332406
 11
7.087952066109418
 21
-1.5565850854921539
  0
LINE
  8
_0-0_
  6
CONTINUOUS
 62
    7
 10
7.087952066109418
 20
-1.5565850854921539
 11
7.1386554438862992
 21
-1.5417073698536308
  0
LINE
  8
_0-0_
  6
CONTINUOUS
 62
    7
 10
7.1386554438862992
 20
-1.5417073698536308
 11
7.185711995318238
 21
-1.5200828836788607
  0
LINE
  8
_0-0_
  6
CONTINUOUS
 62
    7
 10
7.185711995318238
 20
-1.5200828836788607
 11
7.2276919309017389
 21
-1.4923686760377461
  0
LINE
  8
_0-0_
  6
CONTINUOUS
 62
    7
 10
7.2276919309017389
 20
-1.4923686760377461
 11
7.263319711536969
 21
-1.4594068291053968
  0
LINE
  8
_0-0_
  6
CONTINUOUS
 62
    7
 10
7.263319711536969
 20
-1.4594068291053968
 11
7.2915128051378559
 21
-1.4221988719213521
  0
LINE
  8
_0-0_
  6
CONTINUOUS
 62
    7
 10
7.2915128051378559
 20
-1.4221988719213521
 11
7.3009094241688715
 21
-1.4055986188665162
  0
LINE
  8
_0-0_
  6
CONTINUOUS
 62
    7
 10
6.8925933480508341
 20
-0.4009085301129493
 11
6.8925933480508341
 21
-0.4009085301129493
  0
LINE
  8
_0-0_
  6
CONTINUOUS
 62
    7
 10
6.8925933480508341
 20
-0.4009085301129493
 11
6.9296966496214845
 21
-0.3637340727622149
  0
LINE
  8
_0-0_
  6
CONTINUOUS
 62
    7
 10
6.9296966496214845
 20
-0.3637340727622149
 11
6.9740315685294307
 21
-0.3320485259754616
  0
LINE
  8
_0-0_
  6
CONTINUOUS
 62
    7
 10
6.9740315685294307
 20
-0.3320485259754616
 11
7.0242510106982055
 21
-0.3068146390581449
  0
LINE
  8
_0-0_
  6
CONTINUOUS
 62
    7
 10
7.0242510106982055
 20
-0.3068146390581449
 11
7.078829083789774
 21
-0.2887991308952844
  0
LINE
  8
_0-0_
  6
CONTINUOUS
 62
    7
 10
7.078829083789774
 20
-0.2887991308952844
 11
7.136107460671087
 21
-0.2785493935861217
  0
LINE
  8
_0-0_
  6
CONTINUOUS
 62
    7
 10
7.136107460671087
 20
-0.2785493935861217
 11
7.1943457668448634
 21
-0.2763768602121782
  0
LINE
  8
_0-0_
  6
CONTINUOUS
 62
    7
 10
7.1943457668448634
 20
-0.2763768602121782
 11
7.2517744608480177
 21
-0.2823475421006664
  0
LINE
  8
_0-0_
  6
CONTINUOUS
 62
    7
 10
7.2517744608480177
 20
-0.2823475421006664
 11
7.3066486008735847
 21
-0.2962800231037153
  0
LINE
  8
_0-0_
  6
CONTINUOUS
 62
    7
 10
7.3066486008735847
 20
-0.2962800231037153
 11
7.357300863944543
 21
-0.3177509718362229
  0
LINE
  8
_0-0_
  6
CONTINUOUS
 62
    7
 10
7.357300863944543
 20
-0.3177509718362229
 11
7.4021922066787633
 21
-0.3461080043857762
  0
LINE
  8
_0-0_
  6
CONTINUOUS
 62
    7
 10
7.4021922066787633
 20
-0.3461080043857762
 11
7.4399586283433816
 21
-0.3804895066677079
  0
LINE
  8
_0-0_
  6
CONTINUOUS
 62
    7
 10
7.4399586283433816
 20
-0.3804895066677079
 11
7.4694526153268495
 21
-0.4198508141330611
  0
LINE
  8
_0-0_
  6
CONTINUOUS
 62
    7
 10
7.4694526153268495
 20
-0.4198508141330611
 11
7.4803000207152159
 21
-0.4399615645631699
  0
LINE
  8
_0-0_
  6
CONTINUOUS
 62
    7
 10
6.8925933480508235
 20
-0.4009085301129431
 11
6.7371443340546193
 21
-1.424764771214214
  0
LINE
  8
_0-0_
  6
CONTINUOUS
 62
    7
 10
7.3009094241688643
 20
-1.4055986188665059
 11
7.4803000207152053
 21
-0.4399615645631627
  0
LINE
  8
_0-0_
  6
CONTINUOUS
 62
    7
 10
8.2580279658128113
 20
-1.4810937946126639
 11
8.2580279658128113
 21
-1.4810937946126639
  0
LINE
  8
_0-0_
  6
CONTINUOUS
 62
    7
 10
8.2580279658128113
 20
-1.4810937946126639
 11
8.2831461165201343
 21
-1.5180550002384807
  0
LINE
  8
_0-0_
  6
CONTINUOUS
 62
    7
 10
8.2831461165201343
 20
-1.5180550002384807
 11
8.3160539504814821
 21
-1.5506996294822311
  0
LINE
  8
_0-0_
  6
CONTINUOUS
 62
    7
 10
8.3160539504814821
 20
-1.5506996294822311
 11
8.3557515798141058
 21
-1.5780357918033228
  0
LINE
  8
_0-0_
  6
CONTINUOUS
 62
    7
 10
8.3557515798141058
 20
-1.5780357918033228
 11
8.4010328121387019
 21
-1.5992328917423955
  0
LINE
  8
_0-0_
  6
CONTINUOUS
 62
    7
 10
8.4010328121387019
 20
-1.5992328917423955
 11
8.4505218001245002
 21
-1.6136468661440504
  0
LINE
  8
_0-0_
  6
CONTINUOUS
 62
    7
 10
8.4505218001245002
 20
-1.6136468661440504
 11
8.5027148459141841
 21
-1.620839753689916
  0
LINE
  8
_0-0_
  6
CONTINUOUS
 62
    7
 10
8.5027148459141841
 20
-1.620839753689916
 11
8.5560260902223941
 21
-1.6205930021316881
  0
LINE
  8
_0-0_
  6
CONTINUOUS
 62
    7
 10
8.5560260902223941
 20
-1.6205930021316881
 11
8.6088356978676135
 21
-1.6129141088906014
  0
LINE
  8
_0-0_
  6
CONTINUOUS
 62
    7
 10
8.6088356978676135
 20
-1.6129141088906014
 11
8.6595390756444939
 21
-1.5980363932520782
  0
LINE
  8
_0-0_
  6
CONTINUOUS
 62
    7
 10
8.6595390756444939
 20
-1.5980363932520782
 11
8.7065956270764335
 21
-1.5764119070773082
  0
LINE
  8
_0-0_
  6
CONTINUOUS
 62
    7
 10
8.7065956270764335
 20
-1.5764119070773082
 11
8.7485755626599335
 21
-1.5486976994361936
  0
LINE
  8
_0-0_
  6
CONTINUOUS
 62
    7
 10
8.7485755626599335
 20
-1.5486976994361936
 11
8.7842033432951645
 21
-1.5157358525038442
  0
LINE
  8
_0-0_
  6
CONTINUOUS
 62
    7
 10
8.7842033432951645
 20
-1.5157358525038442
 11
8.8123964368960515
 21
-1.4785278953197996
  0
LINE
  8
_0-0_
  6
CONTINUOUS
 62
    7
 10
8.8123964368960515
 20
-1.4785278953197996
 11
8.821793055927067
 21
-1.4619276422649636
  0
LINE
  8
_0-0_
  6
CONTINUOUS
 62
    7
 10
8.4134769798090296
 20
-0.4572375535113967
 11
8.4134769798090296
 21
-0.4572375535113967
  0
LINE
  8
_0-0_
  6
CONTINUOUS
 62
    7
 10
8.4134769798090296
 20
-0.4572375535113967
 11
8.4505802813796809
 21
-0.4200630961606624
  0
LINE
  8
_0-0_
  6
CONTINUOUS
 62
    7
 10
8.4505802813796809
 20
-0.4200630961606624
 11
8.4949152002876271
 21
-0.3883775493739091
  0
LINE
  8
_0-0_
  6
CONTINUOUS
 62
    7
 10
8.4949152002876271
 20
-0.3883775493739091
 11
8.5451346424564001
 21
-0.3631436624565924
  0
LINE
  8
_0-0_
  6
CONTINUOUS
 62
    7
 10
8.5451346424564001
 20
-0.3631436624565924
 11
8.5997127155479696
 21
-0.3451281542937318
  0
LINE
  8
_0-0_
  6
CONTINUOUS
 62
    7
 10
8.5997127155479696
 20
-0.3451281542937318
 11
8.6569910924292834
 21
-0.3348784169845692
  0
LINE
  8
_0-0_
  6
CONTINUOUS
 62
    7
 10
8.6569910924292834
 20
-0.3348784169845692
 11
8.7152293986030589
 21
-0.3327058836106257
  0
LINE
  8
_0-0_
  6
CONTINUOUS
 62
    7
 10
8.7152293986030589
 20
-0.3327058836106257
 11
8.7726580926062123
 21
-0.3386765654991139
  0
LINE
  8
_0-0_
  6
CONTINUOUS
 62
    7
 10
8.7726580926062123
 20
-0.3386765654991139
 11
8.8275322326317802
 21
-0.3526090465021627
  0
LINE
  8
_0-0_
  6
CONTINUOUS
 62
    7
 10
8.8275322326317802
 20
-0.3526090465021627
 11
8.8781844957027385
 21
-0.3740799952346703
  0
LINE
  8
_0-0_
  6
CONTINUOUS
 62
    7
 10
8.8781844957027385
 20
-0.3740799952346703
 11
8.923075838436958
 21
-0.4024370277842237
  0
LINE
  8
_0-0_
  6
CONTINUOUS
 62
    7
 10
8.923075838436958
 20
-0.4024370277842237
 11
8.9608422601015771
 21
-0.4368185300661554
  0
LINE
  8
_0-0_
  6
CONTINUOUS
 62
    7
 10
8.9608422601015771
 20
-0.4368185300661554
 11
8.990336247085045
 21
-0.4761798375315086
  0
LINE
  8
_0-0_
  6
CONTINUOUS
 62
    7
 10
8.990336247085045
 20
-0.4761798375315086
 11
9.0011836524734115
 21
-0.4962905879616174
  0
LINE
  8
_0-0_
  6
CONTINUOUS
 62
    7
 10
8.413476979809019
 20
-0.4572375535113906
 11
8.2580279658128148
 21
-1.4810937946126614
  0
LINE
  8
_0-0_
  6
CONTINUOUS
 62
    7
 10
8.8217930559270599
 20
-1.4619276422649534
 11
9.0011836524734008
 21
-0.4962905879616101
  0
LINE
  8
_0-0_
  6
CONTINUOUS
 62
    7
 10
9.8727933032350812
 20
-1.6125281825423936
 11
9.8727933032350812
 21
-1.6125281825423936
  0
LINE
  8
_0-0_
  6
CONTINUOUS
 62
    7
 10
9.8727933032350812
 20
-1.6125281825423936
 11
9.8979114539424042
 21
-1.6494893881682104
  0
LINE
  8
_0-0_
  6
CONTINUOUS
 62
    7
 10
9.8979114539424042
 20
-1.6494893881682104
 11
9.930819287903752
 21
-1.6821340174119608
  0
LINE
  8
_0-0_
  6
CONTINUOUS
 62
    7
 10
9.930819287903752
 20
-1.6821340174119608
 11
9.9705169172363757
 21
-1.7094701797330525
  0
LINE
  8
_0-0_
  6
CONTINUOUS
 62
    7
 10
9.9705169172363757
 20
-1.7094701797330525
 11
10.015798149560972
 21
-1.7306672796721252
  0
LINE
  8
_0-0_
  6
CONTINUOUS
 62
    7
 10
10.015798149560972
 20
-1.7306672796721252
 11
10.06528713754677
 21
-1.7450812540737801
  0
LINE
  8
_0-0_
  6
CONTINUOUS
 62
    7
 10
10.06528713754677
 20
-1.7450812540737801
 11
10.117480183336454
 21
-1.7522741416196457
  0
LINE
  8
_0-0_
  6
CONTINUOUS
 62
    7
 10
10.117480183336454
 20
-1.7522741416196457
 11
10.170791427644664
 21
-1.7520273900614178
  0
LINE
  8
_0-0_
  6
CONTINUOUS
 62
    7
 10
10.170791427644664
 20
-1.7520273900614178
 11
10.223601035289883
 21
-1.7443484968203311
  0
LINE
  8
_0-0_
  6
CONTINUOUS
 62
    7
 10
10.223601035289883
 20
-1.7443484968203311
 11
10.274304413066764
 21
-1.729470781181808
  0
LINE
  8
_0-0_
  6
CONTINUOUS
 62
    7
 10
10.274304413066764
 20
-1.729470781181808
 11
10.321360964498703
 21
-1.7078462950070379
  0
LINE
  8
_0-0_
  6
CONTINUOUS
 62
    7
 10
10.321360964498703
 20
-1.7078462950070379
 11
10.363340900082203
 21
-1.6801320873659233
  0
LINE
  8
_0-0_
  6
CONTINUOUS
 62
    7
 10
10.363340900082203
 20
-1.6801320873659233
 11
10.398968680717434
 21
-1.647170240433574
  0
LINE
  8
_0-0_
  6
CONTINUOUS
 62
    7
 10
10.398968680717434
 20
-1.647170240433574
 11
10.427161774318321
 21
-1.6099622832495293
  0
LINE
  8
_0-0_
  6
CONTINUOUS
 62
    7
 10
10.427161774318321
 20
-1.6099622832495293
 11
10.436558393349337
 21
-1.5933620301946934
  0
LINE
  8
_0-0_
  6
CONTINUOUS
 62
    7
 10
10.0282423172313
 20
-0.5886719414411265
 11
10.0282423172313
 21
-0.5886719414411265
  0
LINE
  8
_0-0_
  6
CONTINUOUS
 62
    7
 10
10.0282423172313
 20
-0.5886719414411265
 11
10.065345618801951
 21
-0.5514974840903921
  0
LINE
  8
_0-0_
  6
CONTINUOUS
 62
    7
 10
10.065345618801951
 20
-0.5514974840903921
 11
10.109680537709897
 21
-0.5198119373036388
  0
LINE
  8
_0-0_
  6
CONTINUOUS
 62
    7
 10
10.109680537709897
 20
-0.5198119373036388
 11
10.15989997987867
 21
-0.4945780503863221
  0
LINE
  8
_0-0_
  6
CONTINUOUS
 62
    7
 10
10.15989997987867
 20
-0.4945780503863221
 11
10.214478052970239
 21
-0.4765625422234616
  0
LINE
  8
_0-0_
  6
CONTINUOUS
 62
    7
 10
10.214478052970239
 20
-0.4765625422234616
 11
10.271756429851553
 21
-0.4663128049142989
  0
LINE
  8
_0-0_
  6
CONTINUOUS
 62
    7
 10
10.271756429851553
 20
-0.4663128049142989
 11
10.329994736025329
 21
-0.4641402715403554
  0
LINE
  8
_0-0_
  6
CONTINUOUS
 62
    7
 10
10.329994736025329
 20
-0.4641402715403554
 11
10.387423430028482
 21
-0.4701109534288436
  0
LINE
  8
_0-0_
  6
CONTINUOUS
 62
    7
 10
10.387423430028482
 20
-0.4701109534288436
 11
10.44229757005405
 21
-0.4840434344318925
  0
LINE
  8
_0-0_
  6
CONTINUOUS
 62
    7
 10
10.44229757005405
 20
-0.4840434344318925
 11
10.492949833125008
 21
-0.5055143831644001
  0
LINE
  8
_0-0_
  6
CONTINUOUS
 62
    7
 10
10.492949833125008
 20
-0.5055143831644001
 11
10.537841175859228
 21
-0.5338714157139534
  0
LINE
  8
_0-0_
  6
CONTINUOUS
 62
    7
 10
10.537841175859228
 20
-0.5338714157139534
 11
10.575607597523847
 21
-0.5682529179958851
  0
LINE
  8
_0-0_
  6
CONTINUOUS
 62
    7
 10
10.575607597523847
 20
-0.5682529179958851
 11
10.605101584507315
 21
-0.6076142254612383
  0
LINE
  8
_0-0_
  6
CONTINUOUS
 62
    7
 10
10.605101584507315
 20
-0.6076142254612383
 11
10.615948989895681
 21
-0.6277249758913471
  0
LINE
  8
_0-0_
  6
CONTINUOUS
 62
    7
 10
10.028242317231289
 20
-0.5886719414411203
 11
9.8727933032350847
 21
-1.6125281825423912
  0
LINE
  8
_0-0_
  6
CONTINUOUS
 62
    7
 10
10.43655839334933
 20
-1.5933620301946831
 11
10.615948989895671
 21
-0.6277249758913399
  0
ARC
  8
_0-0_
  6
CONTINUOUS
 62
    7
 10
-6.52501414902693
 20
2.0697788194972162
 40
0.9359481442497744
 50
89.964415483040668
 51
166.1811482649405
  0
ARC
  8
_0-0_
  6
CONTINUOUS
 62
    7
 10
-6.7442139803232095
 20
2.0129224237481935
 40
0.7444851450114969
 50
157.87366519062275
 51
231.61346048231778
  0
ARC
  8
_0-0_
  6
CONTINUOUS
 62
    7
 10
-6.8458241522584729
 20
2.438450105112949
 40
1.0716096653043679
 50
250.33103301757686
 51
284.08356225099533
  0
ARC
  8
_0-0_
  6
CONTINUOUS
 62
    7
 10
-7.2333147688560189
 20
2.674299075815739
 40
1.4305555089772168
 50
296.94580342504349
 51
336.83057258843826
  0
ARC
  8
_0-0_
  6
CONTINUOUS
 62
    7
 10
-6.7347406562822272
 20
2.3397521031604214
 40
0.8479154236099492
 50
344.37994496121291
 51
31.150387075638832
  0
ARC
  8
_0-0_
  6
CONTINUOUS
 62
    7
 10
-6.4421250983480434
 20
2.4945491554541377
 40
0.5177616586795578
 50
33.241086972745613
 51
99.147025990339628
  0
ARC
  8
_0-0_
  6
CONTINUOUS
 62
    7
 10
3.9511057385894475
 20
1.7216733184157391
 40
0.9359481442497744
 50
89.964415483040668
 51
166.1811482649405
  0
ARC
  8
_0-0_
  6
CONTINUOUS
 62
    7
 10
3.731905907293168
 20
1.6648169226667164
 40
0.7444851450114969
 50
157.87366519062275
 51
231.61346048231778
  0
ARC
  8
_0-0_
  6
CONTINUOUS
 62
    7
 10
3.6302957353579046
 20
2.0903446040314719
 40
1.0716096653043679
 50
250.33103301757686
 51
284.08356225099533
  0
ARC
  8
_0-0_
  6
CONTINUOUS
 62
    7
 10
3.2428051187603586
 20
2.3261935747342619
 40
1.4305555089772168
 50
296.94580342504349
 51
336.83057258843826
  0
ARC
  8
_0-0_
  6
CONTINUOUS
 62
    7
 10
3.7413792313341503
 20
1.9916466020789443
 40
0.8479154236099492
 50
344.37994496121291
 51
31.150387075638832
  0
ARC
  8
_0-0_
  6
CONTINUOUS
 62
    7
 10
4.0339947892683341
 20
2.1464436543726606
 40
0.5177616586795578
 50
33.241086972745613
 51
99.147025990339628
  0
ARC
  8
_0-0_
  6
CONTINUOUS
 62
    7
 10
-10.619934826686361
 20
7.2712534361474184
 40
0.842353329824797
 50
89.964415483040668
 51
166.1811482649405
  0
ARC
  8
_0-0_
  6
CONTINUOUS
 62
    7
 10
-10.817214674853005
 20
7.220082679973288
 40
0.6700366305103473
 50
157.87366519062275
 51
231.61346048231778
  0
ARC
  8
_0-0_
  6
CONTINUOUS
 62
    7
 10
-10.908663829594744
 20
7.6030575932015694
 40
0.9644486987739311
 50
250.33103301757686
 51
284.08356225099533
  0
ARC
  8
_0-0_
  6
CONTINUOUS
 62
    7
 10
-11.257405384532532
 20
7.8153216668340804
 40
1.2874999580794952
 50
296.94580342504349
 51
336.83057258843826
  0
ARC
  8
_0-0_
  6
CONTINUOUS
 62
    7
 10
-10.808688683216118
 20
7.514229391444303
 40
0.7631238812489542
 50
344.37994496121291
 51
31.150387075638832
  0
ARC
  8
_0-0_
  6
CONTINUOUS
 62
    7
 10
-10.54533468107536
 20
7.6535467385086378
 40
0.465985492811602
 50
33.241086972745613
 51
99.147025990339628
  0
ARC
  8
_0-0_
  6
CONTINUOUS
 62
    7
 10
11.080699337751668
 20
7.2260311784411186
 40
0.9359481442497744
 50
89.964415483040668
 51
166.1811482649405
  0
ARC
  8
_0-0_
  6
CONTINUOUS
 62
    7
 10
10.861499506455388
 20
7.169174782692096
 40
0.7444851450114969
 50
157.87366519062275
 51
231.61346048231778
  0
ARC
  8
_0-0_
  6
CONTINUOUS
 62
    7
 10
10.759889334520125
 20
7.5947024640568515
 40
1.0716096653043679
 50
250.33103301757686
 51
284.08356225099533
  0
ARC
  8
_0-0_
  6
CONTINUOUS
 62
    7
 10
10.372398717922579
 20
7.8305514347596414
 40
1.4305555089772168
 50
296.94580342504349
 51
336.83057258843826
  0
ARC
  8
_0-0_
  6
CONTINUOUS
 62
    7
 10
10.87097283049637
 20
7.4960044621043238
 40
0.8479154236099492
 50
344.37994496121291
 51
31.150387075638832
  0
ARC
  8
_0-0_
  6
CONTINUOUS
 62
    7
 10
11.163588388430554
 20
7.6508015143980401
 40
0.5177616586795578
 50
33.241086972745613
 51
99.147025990339628
  0
ARC
  8
_0-0_
  6
CONTINUOUS
 62
    7
 10
-8.397050488598822
 20
17.118079925526885
 40
0.842353329824797
 50
89.964415483040668
 51
166.1811482649405
  0
ARC
  8
_0-0_
  6
CONTINUOUS
 62
    7
 10
-8.5943303367654664
 20
17.066909169352755
 40
0.6700366305103473
 50
157.87366519062275
 51
231.61346048231778
  0
ARC
  8
_0-0_
  6
CONTINUOUS
 62
    7
 10
-8.6857794915072049
 20
17.449884082581036
 40
0.9644486987739311
 50
250.33103301757686
 51
284.08356225099533
  0
ARC
  8
_0-0_
  6
CONTINUOUS
 62
    7
 10
-9.0345210464449934
 20
17.662148156213547
 40
1.2874999580794952
 50
296.94580342504349
 51
336.83057258843826
  0
ARC
  8
_0-0_
  6
CONTINUOUS
 62
    7
 10
-8.5858043451285795
 20
17.36105588082377
 40
0.7631238812489542
 50
344.37994496121291
 51
31.150387075638832
  0
ARC
  8
_0-0_
  6
CONTINUOUS
 62
    7
 10
-8.3224503429878212
 20
17.500373227888105
 40
0.465985492811602
 50
33.241086972745613
 51
99.147025990339628
  0
ARC
  8
_0-0_
  6
CONTINUOUS
 62
    7
 10
12.821390920418509
 20
18.183594732213464
 40
0.842353329824797
 50
89.964415483040668
 51
166.1811482649405
  0
ARC
  8
_0-0_
  6
CONTINUOUS
 62
    7
 10
12.624111072251864
 20
18.132423976039334
 40
0.6700366305103473
 50
157.87366519062275
 51
231.61346048231778
  0
ARC
  8
_0-0_
  6
CONTINUOUS
 62
    7
 10
12.532661917510126
 20
18.515398889267615
 40
0.9644486987739311
 50
250.33103301757686
 51
284.08356225099533
  0
ARC
  8
_0-0_
  6
CONTINUOUS
 62
    7
 10
12.183920362572337
 20
18.727662962900126
 40
1.2874999580794952
 50
296.94580342504349
 51
336.83057258843826
  0
ARC
  8
_0-0_
  6
CONTINUOUS
 62
    7
 10
12.632637063888751
 20
18.426570687510349
 40
0.7631238812489542
 50
344.37994496121291
 51
31.150387075638832
  0
ARC
  8
_0-0_
  6
CONTINUOUS
 62
    7
 10
12.895991066029509
 20
18.565888034574684
 40
0.465985492811602
 50
33.241086972745613
 51
99.147025990339628
  0
ARC
  8
_0-0_
  6
CONTINUOUS
 62
    7
 10
-2.4816062169939954
 20
22.023122225273738
 40
0.842353329824797
 50
89.964415483040668
 51
166.1811482649405
  0
ARC
  8
_0-0_
  6
CONTINUOUS
 62
    7
 10
-2.6788860651606399
 20
21.971951469099608
 40
0.6700366305103473
 50
157.87366519062275
 51
231.61346048231778
  0
ARC
  8
_0-0_
  6
CONTINUOUS
 62
    7
 10
-2.7703352199023783
 20
22.354926382327889
 40
0.9644486987739311
 50
250.33103301757686
 51
284.08356225099533
  0
ARC
  8
_0-0_
  6
CONTINUOUS
 62
    7
 10
-3.1190767748401669
 20
22.5671904559604
 40
1.2874999580794952
 50
296.94580342504349
 51
336.83057258843826
  0
ARC
  8
_0-0_
  6
CONTINUOUS
 62
    7
 10
-2.6703600735237529
 20
22.266098180570623
 40
0.7631238812489542
 50
344.37994496121291
 51
31.150387075638832
  0
ARC
  8
_0-0_
  6
CONTINUOUS
 62
    7
 10
-2.4070060713829946
 20
22.405415527634958
 40
0.465985492811602
 50
33.241086972745613
 51
99.147025990339628
  0
ARC
  8
_0-0_
  6
CONTINUOUS
 62
    7
 10
7.824493895957275
 20
22.88655663758874
 40
0.842353329824797
 50
89.964415483040668
 51
166.1811482649405
  0
ARC
  8
_0-0_
  6
CONTINUOUS
 62
    7
 10
7.6272140477906305
 20
22.835385881414609
 40
0.6700366305103473
 50
157.87366519062275
 51
231.61346048231778
  0
ARC
  8
_0-0_
  6
CONTINUOUS
 62
    7
 10
7.5357648930488921
 20
23.218360794642891
 40
0.9644486987739311
 50
250.33103301757686
 51
284.08356225099533
  0
ARC
  8
_0-0_
  6
CONTINUOUS
 62
    7
 10
7.1870233381111035
 20
23.430624868275402
 40
1.2874999580794952
 50
296.94580342504349
 51
336.83057258843826
  0
ARC
  8
_0-0_
  6
CONTINUOUS
 62
    7
 10
7.6357400394275174
 20
23.129532592885624
 40
0.7631238812489542
 50
344.37994496121291
 51
31.150387075638832
  0
ARC
  8
_0-0_
  6
CONTINUOUS
 62
    7
 10
7.8990940415682758
 20
23.268849939949959
 40
0.465985492811602
 50
33.241086972745613
 51
99.147025990339628
  0
ARC
  8
_0-0_
  6
CONTINUOUS
 62
    7
 10
-1.0728855268254449
 20
18.209873054650586
 40
1.2700455391500391
 50
65.133717334028631
 51
151.73618031181539
  0
ARC
  8
_0-0_
  6
CONTINUOUS
 62
    7
 10
-0.9807806369940976
 20
18.048597032570285
 40
1.4326796391988355
 50
146.75772172587133
 51
223.71931014578217
  0
ARC
  8
_0-0_
  6
CONTINUOUS
 62
    7
 10
-1.3520326015016053
 20
18.207457702289616
 40
1.3271805181181773
 50
239.96986455901231
 51
307.78718444668328
  0
ARC
  8
_0-0_
  6
CONTINUOUS
 62
    7
 10
-4.0047816075689013
 20
19.564133033659303
 40
4.2189370415079788
 50
325.23751781041091
 51
339.11428942108165
  0
ARC
  8
_0-0_
  6
CONTINUOUS
 62
    7
 10
-4.2914521595071307
 20
16.885995945058227
 40
1.2700455391500391
 50
65.133717334028631
 51
151.73618031181539
  0
ARC
  8
_0-0_
  6
CONTINUOUS
 62
    7
 10
-4.1993472696757834
 20
16.724719922977926
 40
1.4326796391988355
 50
146.75772172587133
 51
223.71931014578217
  0
ARC
  8
_0-0_
  6
CONTINUOUS
 62
    7
 10
-4.5705992341832911
 20
16.883580592697257
 40
1.3271805181181773
 50
239.96986455901231
 51
307.78718444668328
  0
ARC
  8
_0-0_
  6
CONTINUOUS
 62
    7
 10
-7.2233482402505871
 20
18.240255924066943
 40
4.2189370415079788
 50
325.23751781041091
 51
339.11428942108165
  0
ARC
  8
_0-0_
  6
CONTINUOUS
 62
    7
 10
1.6682227948264057
 20
17.136402455744502
 40
1.2700455391500391
 50
65.133717334028631
 51
151.73618031181539
  0
ARC
  8
_0-0_
  6
CONTINUOUS
 62
    7
 10
1.7603276846577529
 20
16.975126433664201
 40
1.4326796391988355
 50
146.75772172587133
 51
223.71931014578217
  0
ARC
  8
_0-0_
  6
CONTINUOUS
 62
    7
 10
1.3890757201502453
 20
17.133987103383532
 40
1.3271805181181773
 50
239.96986455901231
 51
307.78718444668328
  0
ARC
  8
_0-0_
  6
CONTINUOUS
 62
    7
 10
-1.2636732859170507
 20
18.490662434753219
 40
4.2189370415079788
 50
325.23751781041091
 51
339.11428942108165
  0
ARC
  8
_0-0_
  6
CONTINUOUS
 62
    7
 10
4.8483854805421913
 20
18.764044775205349
 40
1.2700455391500391
 50
65.133717334028631
 51
151.73618031181539
  0
ARC
  8
_0-0_
  6
CONTINUOUS
 62
    7
 10
4.9404903703735386
 20
18.602768753125048
 40
1.4326796391988355
 50
146.75772172587133
 51
223.71931014578217
  0
ARC
  8
_0-0_
  6
CONTINUOUS
 62
    7
 10
4.5692384058660309
 20
18.761629422844379
 40
1.3271805181181773
 50
239.96986455901231
 51
307.78718444668328
  0
ARC
  8
_0-0_
  6
CONTINUOUS
 62
    7
 10
1.9164893997987349
 20
20.118304754214066
 40
4.2189370415079788
 50
325.23751781041091
 51
339.11428942108165
  0
ARC
  8
_0-0_
  6
CONTINUOUS
 62
    7
 10
7.7781416555717016
 20
17.637215477117067
 40
1.2700455391500391
 50
65.133717334028631
 51
151.73618031181539
  0
ARC
  8
_0-0_
  6
CONTINUOUS
 62
    7
 10
7.8702465454030488
 20
17.475939455036766
 40
1.4326796391988355
 50
146.75772172587133
 51
223.71931014578217
  0
ARC
  8
_0-0_
  6
CONTINUOUS
 62
    7
 10
7.4989945808955412
 20
17.634800124756097
 40
1.3271805181181773
 50
239.96986455901231
 51
307.78718444668328
  0
ARC
  8
_0-0_
  6
CONTINUOUS
 62
    7
 10
4.8462455748282451
 20
18.991475456125784
 40
4.2189370415079788
 50
325.23751781041091
 51
339.11428942108165
  0
ARC
  8
_0-0_
  6
CONTINUOUS
 62
    7
 10
7.527735144885412
 20
14.957865812773846
 40
1.2700455391500391
 50
65.133717334028631
 51
151.73618031181539
  0
ARC
  8
_0-0_
  6
CONTINUOUS
 62
    7
 10
7.6198400347167592
 20
14.796589790693545
 40
1.4326796391988355
 50
146.75772172587133
 51
223.71931014578217
  0
ARC
  8
_0-0_
  6
CONTINUOUS
 62
    7
 10
7.2485880702092516
 20
14.955450460412877
 40
1.3271805181181773
 50
239.96986455901231
 51
307.78718444668328
  0
ARC
  8
_0-0_
  6
CONTINUOUS
 62
    7
 10
4.5958390641419555
 20
16.312125791782563
 40
4.2189370415079788
 50
325.23751781041091
 51
339.11428942108165
  0
ARC
  8
_0-0_
  6
CONTINUOUS
 62
    7
 10
4.3726131102382624
 20
16.18485771513663
 40
1.2700455391500391
 50
65.133717334028631
 51
151.73618031181539
  0
ARC
  8
_0-0_
  6
CONTINUOUS
 62
    7
 10
4.4647180000696096
 20
16.023581693056329
 40
1.4326796391988355
 50
146.75772172587133
 51
223.71931014578217
  0
ARC
  8
_0-0_
  6
CONTINUOUS
 62
    7
 10
4.093466035562102
 20
16.18244236277566
 40
1.3271805181181773
 50
239.96986455901231
 51
307.78718444668328
  0
ARC
  8
_0-0_
  6
CONTINUOUS
 62
    7
 10
1.440717029494806
 20
17.539117694145347
 40
4.2189370415079788
 50
325.23751781041091
 51
339.11428942108165
  0
ARC
  8
_0-0_
  6
CONTINUOUS
 62
    7
 10
3.7437453300887285
 20
13.610394219113473
 40
1.1430409852350352
 50
65.133717334028631
 51
151.73618031181539
  0
ARC
  8
_0-0_
  6
CONTINUOUS
 62
    7
 10
3.8266397309369466
 20
13.465245799241202
 40
1.289411675278952
 50
146.75772172587133
 51
223.71931014578217
  0
ARC
  8
_0-0_
  6
CONTINUOUS
 62
    7
 10
3.4925129628801841
 20
13.608220401988603
 40
1.1944624663063597
 50
239.96986455901231
 51
307.78718444668328
  0
ARC
  8
_0-0_
  6
CONTINUOUS
 62
    7
 10
1.105038857419629
 20
14.829228200221323
 40
3.7970433373571808
 50
325.23751781041091
 51
339.11428942108165
  0
ARC
  8
_0-0_
  6
CONTINUOUS
 62
    7
 10
6.9489486668731359
 20
12.333321014613432
 40
1.1430409852350352
 50
65.133717334028631
 51
151.73618031181539
  0
ARC
  8
_0-0_
  6
CONTINUOUS
 62
    7
 10
7.0318430677213541
 20
12.188172594741161
 40
1.289411675278952
 50
146.75772172587133
 51
223.71931014578217
  0
ARC
  8
_0-0_
  6
CONTINUOUS
 62
    7
 10
6.6977162996645916
 20
12.331147197488562
 40
1.1944624663063597
 50
239.96986455901231
 51
307.78718444668328
  0
ARC
  8
_0-0_
  6
CONTINUOUS
 62
    7
 10
4.3102421942040365
 20
13.552154995721281
 40
3.7970433373571808
 50
325.23751781041091
 51
339.11428942108165
  0
ARC
  8
_0-0_
  6
CONTINUOUS
 62
    7
 10
0.9391924104023559
 20
14.762264168270377
 40
1.1430409852350352
 50
65.133717334028631
 51
151.73618031181539
  0
ARC
  8
_0-0_
  6
CONTINUOUS
 62
    7
 10
1.0220868112505741
 20
14.617115748398106
 40
1.289411675278952
 50
146.75772172587133
 51
223.71931014578217
  0
ARC
  8
_0-0_
  6
CONTINUOUS
 62
    7
 10
0.6879600431938115
 20
14.760090351145507
 40
1.1944624663063597
 50
239.96986455901231
 51
307.78718444668328
  0
ARC
  8
_0-0_
  6
CONTINUOUS
 62
    7
 10
-1.6995140622667435
 20
15.981098149378226
 40
3.7970433373571808
 50
325.23751781041091
 51
339.11428942108165
  0
ARC
  8
_0-0_
  6
CONTINUOUS
 62
    7
 10
-1.5899133475291052
 20
15.663727606740991
 40
1.1430409852350352
 50
65.133717334028631
 51
151.73618031181539
  0
ARC
  8
_0-0_
  6
CONTINUOUS
 62
    7
 10
-1.507018946680887
 20
15.51857918686872
 40
1.289411675278952
 50
146.75772172587133
 51
223.71931014578217
  0
ARC
  8
_0-0_
  6
CONTINUOUS
 62
    7
 10
-1.8411457147376495
 20
15.661553789616121
 40
1.1944624663063597
 50
239.96986455901231
 51
307.78718444668328
  0
ARC
  8
_0-0_
  6
CONTINUOUS
 62
    7
 10
-4.2286198201982046
 20
16.882561587848841
 40
3.7970433373571808
 50
325.23751781041091
 51
339.11428942108165
  0
ARC
  8
_0-0_
  6
CONTINUOUS
 62
    7
 10
-4.8451979864507848
 20
14.536898308652724
 40
1.1430409852350352
 50
65.133717334028631
 51
151.73618031181539
  0
ARC
  8
_0-0_
  6
CONTINUOUS
 62
    7
 10
-4.7623035856025666
 20
14.391749888780453
 40
1.289411675278952
 50
146.75772172587133
 51
223.71931014578217
  0
ARC
  8
_0-0_
  6
CONTINUOUS
 62
    7
 10
-5.0964303536593292
 20
14.534724491527854
 40
1.1944624663063597
 50
239.96986455901231
 51
307.78718444668328
  0
ARC
  8
_0-0_
  6
CONTINUOUS
 62
    7
 10
-7.4839044591198842
 20
15.755732289760573
 40
3.7970433373571808
 50
325.23751781041091
 51
339.11428942108165
  0
ARC
  8
_0-0_
  6
CONTINUOUS
 62
    7
 10
-5.3960923099605935
 20
12.032833201789884
 40
1.1430409852350352
 50
65.133717334028631
 51
151.73618031181539
  0
ARC
  8
_0-0_
  6
CONTINUOUS
 62
    7
 10
-5.3131979091123753
 20
11.887684781917613
 40
1.289411675278952
 50
146.75772172587133
 51
223.71931014578217
  0
ARC
  8
_0-0_
  6
CONTINUOUS
 62
    7
 10
-5.6473246771691379
 20
12.030659384665014
 40
1.1944624663063597
 50
239.96986455901231
 51
307.78718444668328
  0
ARC
  8
_0-0_
  6
CONTINUOUS
 62
    7
 10
-8.0347987826296929
 20
13.251667182897734
 40
3.7970433373571808
 50
325.23751781041091
 51
339.11428942108165
  0
ARC
  8
_0-0_
  6
CONTINUOUS
 62
    7
 10
-2.2910515774506877
 20
13.4601503127017
 40
1.1430409852350352
 50
65.133717334028631
 51
151.73618031181539
  0
ARC
  8
_0-0_
  6
CONTINUOUS
 62
    7
 10
-2.2081571766024695
 20
13.315001892829429
 40
1.289411675278952
 50
146.75772172587133
 51
223.71931014578217
  0
ARC
  8
_0-0_
  6
CONTINUOUS
 62
    7
 10
-2.542283944659232
 20
13.45797649557683
 40
1.1944624663063597
 50
239.96986455901231
 51
307.78718444668328
  0
ARC
  8
_0-0_
  6
CONTINUOUS
 62
    7
 10
-4.9297580501197871
 20
14.678984293809549
 40
3.7970433373571808
 50
325.23751781041091
 51
339.11428942108165
  0
ARC
  8
_0-0_
  6
CONTINUOUS
 62
    7
 10
-2.3883626782913865
 20
10.92632099072469
 40
1.2700455391500391
 50
65.133717334028631
 51
151.73618031181539
  0
ARC
  8
_0-0_
  6
CONTINUOUS
 62
    7
 10
-2.2962577884600393
 20
10.765044968644389
 40
1.4326796391988355
 50
146.75772172587133
 51
223.71931014578217
  0
ARC
  8
_0-0_
  6
CONTINUOUS
 62
    7
 10
-2.6675097529675469
 20
10.923905638363721
 40
1.3271805181181773
 50
239.96986455901231
 51
307.78718444668328
  0
ARC
  8
_0-0_
  6
CONTINUOUS
 62
    7
 10
-5.3202587590348429
 20
12.280580969733407
 40
4.2189370415079788
 50
325.23751781041091
 51
339.11428942108165
  0
ARC
  8
_0-0_
  6
CONTINUOUS
 62
    7
 10
-3.2147041635561067
 20
8.1468087221069538
 40
1.2700455391500391
 50
65.133717334028631
 51
151.73618031181539
  0
ARC
  8
_0-0_
  6
CONTINUOUS
 62
    7
 10
-3.1225992737247594
 20
7.9855327000266527
 40
1.4326796391988355
 50
146.75772172587133
 51
223.71931014578217
  0
ARC
  8
_0-0_
  6
CONTINUOUS
 62
    7
 10
-3.4938512382322671
 20
8.144393369745984
 40
1.3271805181181773
 50
239.96986455901231
 51
307.78718444668328
  0
ARC
  8
_0-0_
  6
CONTINUOUS
 62
    7
 10
-6.1466002442995631
 20
9.5010687011156705
 40
4.2189370415079788
 50
325.23751781041091
 51
339.11428942108165
  0
ARC
  8
_0-0_
  6
CONTINUOUS
 62
    7
 10
-5.7688505725562038
 20
9.3988412755383592
 40
1.2700455391500391
 50
65.133717334028631
 51
151.73618031181539
  0
ARC
  8
_0-0_
  6
CONTINUOUS
 62
    7
 10
-5.6767456827248566
 20
9.2375652534580581
 40
1.4326796391988355
 50
146.75772172587133
 51
223.71931014578217
  0
ARC
  8
_0-0_
  6
CONTINUOUS
 62
    7
 10
-6.0479976472323642
 20
9.3964259231773894
 40
1.3271805181181773
 50
239.96986455901231
 51
307.78718444668328
  0
ARC
  8
_0-0_
  6
CONTINUOUS
 62
    7
 10
-8.7007466532996602
 20
10.753101254547076
 40
4.2189370415079788
 50
325.23751781041091
 51
339.11428942108165
  0
ARC
  8
_0-0_
  6
CONTINUOUS
 62
    7
 10
-6.4199075003405284
 20
6.6694103090578807
 40
1.2700455391500391
 50
65.133717334028631
 51
151.73618031181539
  0
ARC
  8
_0-0_
  6
CONTINUOUS
 62
    7
 10
-6.3278026105091811
 20
6.5081342869775796
 40
1.4326796391988355
 50
146.75772172587133
 51
223.71931014578217
  0
ARC
  8
_0-0_
  6
CONTINUOUS
 62
    7
 10
-6.6990545750166888
 20
6.6669949566969109
 40
1.3271805181181773
 50
239.96986455901231
 51
307.78718444668328
  0
ARC
  8
_0-0_
  6
CONTINUOUS
 62
    7
 10
-9.3518035810839848
 20
8.0236702880665973
 40
4.2189370415079788
 50
325.23751781041091
 51
339.11428942108165
  0
ARC
  8
_0-0_
  6
CONTINUOUS
 62
    7
 10
0.5914747988753816
 20
12.17835354415611
 40
1.2700455391500391
 50
65.133717334028631
 51
151.73618031181539
  0
ARC
  8
_0-0_
  6
CONTINUOUS
 62
    7
 10
0.6835796887067289
 20
12.017077522075809
 40
1.4326796391988355
 50
146.75772172587133
 51
223.71931014578217
  0
ARC
  8
_0-0_
  6
CONTINUOUS
 62
    7
 10
0.3123277241992212
 20
12.17593819179514
 40
1.3271805181181773
 50
239.96986455901231
 51
307.78718444668328
  0
ARC
  8
_0-0_
  6
CONTINUOUS
 62
    7
 10
-2.3404212818680747
 20
13.532613523164827
 40
4.2189370415079788
 50
325.23751781041091
 51
339.11428942108165
  0
ARC
  8
_0-0_
  6
CONTINUOUS
 62
    7
 10
-0.0846227799775789
 20
9.2736380201952215
 40
1.2700455391500391
 50
65.133717334028631
 51
151.73618031181539
  0
ARC
  8
_0-0_
  6
CONTINUOUS
 62
    7
 10
0.0074821098537682
 20
9.1123619981149204
 40
1.4326796391988355
 50
146.75772172587133
 51
223.71931014578217
  0
ARC
  8
_0-0_
  6
CONTINUOUS
 62
    7
 10
-0.3637698546537393
 20
9.2712226678342518
 40
1.3271805181181773
 50
239.96986455901231
 51
307.78718444668328
  0
ARC
  8
_0-0_
  6
CONTINUOUS
 62
    7
 10
-3.0165188607210354
 20
10.627897999203938
 40
4.2189370415079788
 50
325.23751781041091
 51
339.11428942108165
  0
ARC
  8
_0-0_
  6
CONTINUOUS
 62
    7
 10
3.4961903228362701
 20
11.126646199273722
 40
1.2700455391500391
 50
65.133717334028631
 51
151.73618031181539
  0
ARC
  8
_0-0_
  6
CONTINUOUS
 62
    7
 10
3.5882952126676173
 20
10.965370177193421
 40
1.4326796391988355
 50
146.75772172587133
 51
223.71931014578217
  0
ARC
  8
_0-0_
  6
CONTINUOUS
 62
    7
 10
3.2170432481601097
 20
11.124230846912752
 40
1.3271805181181773
 50
239.96986455901231
 51
307.78718444668328
  0
ARC
  8
_0-0_
  6
CONTINUOUS
 62
    7
 10
0.5642942420928136
 20
12.480906178282439
 40
4.2189370415079788
 50
325.23751781041091
 51
339.11428942108165
  0
ARC
  8
_0-0_
  6
CONTINUOUS
 62
    7
 10
3.1706618589441007
 20
8.1968900242442118
 40
1.2700455391500391
 50
65.133717334028631
 51
151.73618031181539
  0
ARC
  8
_0-0_
  6
CONTINUOUS
 62
    7
 10
3.2627667487754479
 20
8.0356140021639106
 40
1.4326796391988355
 50
146.75772172587133
 51
223.71931014578217
  0
ARC
  8
_0-0_
  6
CONTINUOUS
 62
    7
 10
2.8915147842679403
 20
8.194474671883242
 40
1.3271805181181773
 50
239.96986455901231
 51
307.78718444668328
  0
ARC
  8
_0-0_
  6
CONTINUOUS
 62
    7
 10
0.2387657782006442
 20
9.5511500032529284
 40
4.2189370415079788
 50
325.23751781041091
 51
339.11428942108165
  0
ARC
  8
_0-0_
  6
CONTINUOUS
 62
    7
 10
6.8015562638951934
 20
9.5991664840873909
 40
1.2700455391500391
 50
65.133717334028631
 51
151.73618031181539
  0
ARC
  8
_0-0_
  6
CONTINUOUS
 62
    7
 10
6.8936611537265406
 20
9.4378904620070898
 40
1.4326796391988355
 50
146.75772172587133
 51
223.71931014578217
  0
ARC
  8
_0-0_
  6
CONTINUOUS
 62
    7
 10
6.522409189219033
 20
9.5967511317264211
 40
1.3271805181181773
 50
239.96986455901231
 51
307.78718444668328
  0
ARC
  8
_0-0_
  6
CONTINUOUS
 62
    7
 10
3.869660183151737
 20
10.953426463096108
 40
4.2189370415079788
 50
325.23751781041091
 51
339.11428942108165
  0
ARC
  8
_0-0_
  6
CONTINUOUS
 62
    7
 10
6.3257838935912645
 20
6.8196542154696544
 40
1.2700455391500391
 50
65.133717334028631
 51
151.73618031181539
  0
ARC
  8
_0-0_
  6
CONTINUOUS
 62
    7
 10
6.4178887834226117
 20
6.6583781933893533
 40
1.4326796391988355
 50
146.75772172587133
 51
223.71931014578217
  0
ARC
  8
_0-0_
  6
CONTINUOUS
 62
    7
 10
6.0466368189151041
 20
6.8172388631086847
 40
1.3271805181181773
 50
239.96986455901231
 51
307.78718444668328
  0
ARC
  8
_0-0_
  6
CONTINUOUS
 62
    7
 10
3.393887812847808
 20
8.1739141944783711
 40
4.2189370415079788
 50
325.23751781041091
 51
339.11428942108165
  0
LINE
  8
_0-0_
  6
CONTINUOUS
 62
    7
 10
-6.1738260107520375
 20
20.162943924724217
 11
-5.8176214201791936
 21
19.735498416036805
  0
ENDBLK
  0
ENDSEC
  0
SECTION
  2
ENTITIES
  0
LINE
  8
_0-0_
  6
CONTINUOUS
 62
    7
 10
-1244.420826261083
 20
-1127.4836411798831
 11
1755.579173738917
 21
-1127.4836411798831
  0
LINE
  8
_0-0_
  6
CONTINUOUS
 62
    7
 10
1755.579173738917
 20
-1127.4836411798831
 11
1755.579173738917
 21
1392.5163588201169
  0
LINE
  8
_0-0_
  6
CONTINUOUS
 62
    7
 10
1755.579173738917
 20
1392.5163588201169
 11
-1244.420826261083
 21
1392.5163588201169
  0
LINE
  8
_0-0_
  6
CONTINUOUS
 62
    7
 10
-1244.420826261083
 20
1392.5163588201169
 11
-1244.420826261083
 21
-1127.4836411798831
  0
INSERT
  2
-004-34
  8
_0-0_
 10
141.09183673469386
 20
108.03061224489795
 41
1
 42
1
 50
0
  0
ENDSEC
  0
EOF
