  0
SECTION
  2
HEADER
  9
$ACADVER
  1
AC1009
  9
$INSBASE
 10
0
 20
0
 30
0
  9
$EXTMIN
 10
0
 20
0
  9
$EXTMAX
 10
297
 20
210
  9
$LIMMIN
 10
0
 20
0
  9
$LIMMAX
 10
297
 20
210
  9
$LTSCALE
 40
1
  0
ENDSEC
  0
SECTION
  2
TABLES
  0
TABLE
  2
LTYPE
 70
     9
  0
LTYPE
  2
CONTINUOUS
 70
    64
  3
実線
 72
    65
 73
     0
 40
0.0
  0
LTYPE
  2
DASHED1
 70
    64
  3
--  --  --  --  --  --  --  --  
 72
    65
 73
     2
 40
2.5
 49
1.25
 49
-1.25
  0
LTYPE
  2
DASHED2
 70
    64
  3
----    ----    ----    ----    
 72
    65
 73
     2
 40
5.0
 49
2.5
 49
-2.5
  0
LTYPE
  2
DASHED3
 70
    64
  3
------  ------  ------  ------  
 72
    65
 73
     2
 40
5.0
 49
3.75
 49
-1.25
  0
LTYPE
  2
CENTER1
 70
    64
  3
----- - ----- - ----- - ----- - 
 72
    65
 73
     4
 40
10.0
 49
6.25
 49
-1.25
 49
1.25
 49
-1.25
  0
LTYPE
  2
CENTER2
 70
    64
  3
----------  --  ----------  --  
 72
    65
 73
     4
 40
20.0
 49
12.5
 49
-2.5
 49
2.5
 49
-2.5
  0
LTYPE
  2
PHANTOM1
 70
    64
  3
--- - - --- - - --- - - --- - - 
 72
    65
 73
     6
 40
10.0
 49
3.25
 49
-1.25
 49
1.25
 49
-1.25
 49
1.25
 49
-1.25
  0
LTYPE
  2
PHANTOM2
 70
    64
  3
--------  -  -  --------  -  -  
 72
    65
 73
     6
 40
20.0
 49
10.0
 49
-2.5
 49
1.25
 49
-2.5
 49
1.25
 49
-2.5
  0
LTYPE
  2
DOT
 70
    64
  3
-   -   -   -   -   -   -   -   
 72
    65
 73
     2
 40
2.5
 49
0.625
 49
-1.875
  0
LTYPE
  2
DUMMY
 70
    64
  3
ダミー
 72
    65
 73
     0
 40
0.0
  0
LTYPE
  2
RAND1
 70
    64
  3
ランダム線1
 72
    65
 73
     4
 40
10.0
 49
1.0
 49
-2.0
 49
3.0
 49
-4.0
  0
LTYPE
  2
RAND2
 70
    64
  3
ランダム線2
 72
    65
 73
     4
 40
14.0
 49
2.0
 49
-3.0
 49
4.0
 49
-5.0
  0
LTYPE
  2
RAND3
 70
    64
  3
ランダム線3
 72
    65
 73
     4
 40
18.0
 49
3.0
 49
-4.0
 49
5.0
 49
-6.0
  0
LTYPE
  2
RAND4
 70
    64
  3
ランダム線4
 72
    65
 73
     4
 40
22.0
 49
4.0
 49
-5.0
 49
6.0
 49
-7.0
  0
LTYPE
  2
RAND5
 70
    64
  3
ランダム線5
 72
    65
 73
     4
 40
26.0
 49
5.0
 49
-6.0
 49
7.0
 49
-8.0
  0
LTYPE
  2
LONG1
 70
    64
  3
----------  --  ----------  --  
 72
    65
 73
     4
 40
40.0
 49
32.5
 49
-2.5
 49
2.5
 49
-2.5
  0
LTYPE
  2
LONG2
 70
    64
  3
--------  -  -  --------  -  -  
 72
    65
 73
     6
 40
40.0
 49
30.0
 49
-2.5
 49
1.25
 49
-2.5
 49
1.25
 49
-2.5
  0
LTYPE
  2
LONG3
 70
    64
  3
+++++++++++++++..+++++++++++++++
 72
    65
 73
     2
 40
40.0
 49
37.5
 49
-2.5
  0
LTYPE
  2
LONG4
 70
    64
  3
+++++++++++++++..+++++++++++++++
 72
    65
 73
     2
 40
80.0
 49
75.0
 49
-5.0
  0
LTYPE
  2
LONG5
 70
    64
  3
----------  --  ----------  --  
 72
    65
 73
     4
 40
60.0
 49
37.5
 49
-7.5
 49
7.5
 49
-7.5
  0
LTYPE
  2
dashed
 70
   64
  3
-------   -------------   ------
 72
   65
 73
    2
 40
7.5
 49
6
 49
-1.5
  0
LTYPE
  2
dashed_spaced
 70
   64
  3
----        --------        ----
 72
   65
 73
    2
 40
12
 49
6
 49
-6
  0
LTYPE
  2
long_dashed_dotted
 70
   64
  3
------------- --- --------------
 72
   65
 73
    4
 40
15.25
 49
12
 49
-1.5
 49
0.25
 49
-1.5
  0
LTYPE
  2
long_dashed_double-dotted
 70
   64
  3
----------- --- --- ------------
 72
   65
 73
    6
 40
17
 49
12
 49
-1.5
 49
0.25
 49
-1.5
 49
0.25
 49
-1.5
  0
LTYPE
  2
long_dashed_triplicate-dotted
 70
   64
  3
--------- --- --- --- ----------
 72
   65
 73
    8
 40
18.75
 49
12
 49
-1.5
 49
0.25
 49
-1.5
 49
0.25
 49
-1.5
 49
0.25
 49
-1.5
  0
LTYPE
  2
dotted
 70
   64
  3
   -       -       -       -    
 72
   65
 73
    2
 40
1.75
 49
0.25
 49
-1.5
  0
LTYPE
  2
chain
 70
   64
  3
-------------- -- --------------
 72
   65
 73
    4
 40
18.5
 49
12
 49
-1.5
 49
3.5
 49
-1.5
  0
LTYPE
  2
chain_double_dash
 70
   64
  3
------------ -- -- -------------
 72
   65
 73
    6
 40
23.5
 49
12
 49
-1.5
 49
3.5
 49
-1.5
 49
3.5
 49
-1.5
  0
LTYPE
  2
dashed_dotted
 70
   64
  3
-----------     -     ----------
 72
   65
 73
    4
 40
9.25
 49
6
 49
-1.5
 49
0.25
 49
-1.5
  0
LTYPE
  2
double-dashed_dotted
 70
   64
  3
------   -----------   -   -----
 72
   65
 73
    6
 40
16.75
 49
6
 49
-1.5
 49
6
 49
-1.5
 49
0.25
 49
-1.5
  0
LTYPE
  2
dashed_double-dotted
 70
   64
  3
---------    -    -    ---------
 72
   65
 73
    6
 40
11
 49
6
 49
-1.5
 49
0.25
 49
-1.5
 49
0.25
 49
-1.5
  0
LTYPE
  2
double-dashed_double-dotted
 70
   64
  3
-----   ---------   -   -   ----
 72
   65
 73
    8
 40
18.5
 49
6
 49
-1.5
 49
6
 49
-1.5
 49
0.25
 49
-1.5
 49
0.25
 49
-1.5
  0
LTYPE
  2
dashed_triplicate-dotted
 70
   64
  3
-------    -    -    -    ------
 72
   65
 73
    8
 40
12.75
 49
6
 49
-1.5
 49
0.25
 49
-1.5
 49
0.25
 49
-1.5
 49
0.25
 49
-1.5
  0
LTYPE
  2
double-dashed_triplicate-dotted
 70
   64
  3
-----  ---------  -  -  -  -----
 72
   65
 73
   10
 40
20.25
 49
6
 49
-1.5
 49
6
 49
-1.5
 49
0.25
 49
-1.5
 49
0.25
 49
-1.5
 49
0.25
 49
-1.5
  0
LTYPE
  2
undefined
 70
   64
  3
--------------------------------
 72
   65
 73
    0
 40
0
  0
LTYPE
  2
_
 70
   64
  3
                                
 72
   65
 73
    0
 40
0
  0
LTYPE
  2
__18
 70
   64
  3
                                
 72
   65
 73
    0
 40
0
  0
LTYPE
  2
__19
 70
   64
  3
                                
 72
   65
 73
    0
 40
0
  0
LTYPE
  2
__20
 70
   64
  3
                                
 72
   65
 73
    0
 40
0
  0
LTYPE
  2
__21
 70
   64
  3
                                
 72
   65
 73
    0
 40
0
  0
LTYPE
  2
__22
 70
   64
  3
                                
 72
   65
 73
    0
 40
0
  0
LTYPE
  2
__23
 70
   64
  3
                                
 72
   65
 73
    0
 40
0
  0
LTYPE
  2
__24
 70
   64
  3
                                
 72
   65
 73
    0
 40
0
  0
LTYPE
  2
__25
 70
   64
  3
                                
 72
   65
 73
    0
 40
0
  0
LTYPE
  2
__26
 70
   64
  3
                                
 72
   65
 73
    0
 40
0
  0
LTYPE
  2
__27
 70
   64
  3
                                
 72
   65
 73
    0
 40
0
  0
LTYPE
  2
__28
 70
   64
  3
                                
 72
   65
 73
    0
 40
0
  0
LTYPE
  2
__29
 70
   64
  3
                                
 72
   65
 73
    0
 40
0
  0
LTYPE
  2
__30
 70
   64
  3
                                
 72
   65
 73
    0
 40
0
  0
LTYPE
  2
__31
 70
   64
  3
                                
 72
   65
 73
    0
 40
0
  0
LTYPE
  2
__32
 70
   64
  3
                                
 72
   65
 73
    0
 40
0
  0
ENDTAB
  0
TABLE
  2
STYLE
  5
3
100
AcDbSymbolTable
 70
     1
  0
STYLE
  5
10
100
AcDbSymbolTableRecord
100
AcDbTextStyleTableRecord
  2
STANDARD
 70
     0
 40
0.0
 41
1.0
 50
0.0
 71
     0
 42
0.2
  3
txt
  4
bigfont.shx
  0
STYLE
  5
26
100
AcDbSymbolTableRecord
100
AcDbTextStyleTableRecord
  2
TATEGAKI
 70
    68
 40
0.0
 41
1.0
 50
0.0
 71
     0
 42
1.0
  3
txt
  4
bigfont.shx
  0
ENDTAB
  0
TABLE
  2
LAYER
 70
    2
  0
LAYER
  2
_0-0_
 70
   64
 62
    7
  6
CONTINUOUS
  0
LAYER
  2
ADD_LINE
 70
   64
 62
    7
  6
CONTINUOUS
  0
ENDTAB
  0
ENDSEC
  0
SECTION
  2
BLOCKS
  0
BLOCK
  2
-003-1
 70
   64
 10
0
 20
0
 30
0
  0
LINE
  8
_0-0_
  6
CONTINUOUS
 62
    7
 10
-4.3212022413633804
 20
23.496909251032349
 11
24.320913540403097
 21
22.97004758949484
  0
LINE
  8
_0-0_
  6
CONTINUOUS
 62
    7
 10
25.853602010330391
 20
18.707257782509515
 11
12.298888354410806
 21
-6.1031368244387068
  0
LINE
  8
_0-0_
  6
CONTINUOUS
 62
    7
 10
13.113129104059695
 20
-6.6299984859762162
 11
26.66784275997928
 21
17.557741430064041
  0
LINE
  8
_0-0_
  6
CONTINUOUS
 62
    7
 10
24.464603084458773
 20
11.139608462243459
 11
16.130609529229062
 21
-4.8099309279375433
  0
LINE
  8
_0-0_
  6
CONTINUOUS
 62
    7
 10
-5.231236020382724
 20
21.197876546141387
 11
22.788225070475789
 21
20.527325340548202
  0
LINE
  8
_0-0_
  6
CONTINUOUS
 62
    7
 10
-5.3749255644383993
 20
20.479428825862968
 11
22.11767386488259
 21
19.713084590899314
  0
LINE
  8
_0-0_
  6
CONTINUOUS
 62
    7
 10
23.698258849495133
 20
17.605637944749276
 11
13.20892213343015
 21
-1.0740027824897425
  0
LINE
  8
_0-0_
  6
CONTINUOUS
 62
    7
 10
9.5208905026675694
 20
-2.9419668552136358
 11
-18.929639220357998
 21
-0.1639690034703988
  0
LINE
  8
_0-0_
  6
CONTINUOUS
 62
    7
 10
-18.785949676302309
 20
2.4703393042171484
 11
-8.7276815924043802
 21
18.659361267824295
  0
LINE
  8
_0-0_
  6
CONTINUOUS
 62
    7
 10
-9.2545432539418897
 20
19.090429899991349
 11
-19.695983455321638
 21
2.6619253629580726
  0
LINE
  8
_0-0_
  6
CONTINUOUS
 62
    7
 10
-11.026714297295328
 20
18.803050811879984
 11
-24.916703556011512
 21
-3.2293459433250007
  0
LINE
  8
_0-0_
  6
CONTINUOUS
 62
    7
 10
-24.246152350418328
 20
-2.2714156496204367
 11
12.107302295669896
 21
-6.2468263684943821
  0
LINE
  8
_0-0_
  6
CONTINUOUS
 62
    7
 10
12.107302295669896
 20
-6.2468263684943821
 11
12.921543045318785
 21
-6.6778950006614366
  0
LINE
  8
_0-0_
  6
CONTINUOUS
 62
    7
 10
13.113129104059695
 20
-6.6299984859762162
 11
13.639990765597204
 21
-7.5879287796807802
  0
LINE
  8
_0-0_
  6
CONTINUOUS
 62
    7
 10
-7.0034070637361623
 20
18.515671723768605
 11
-10.787231723869198
 21
12.624400417485532
  0
LINE
  8
_0-0_
  6
CONTINUOUS
 62
    7
 10
-10.499852635757819
 20
12.384917844059402
 11
-6.7639244903100177
 21
18.22829263565724
  0
LINE
  8
_0-0_
  6
CONTINUOUS
 62
    7
 10
-6.7639244903100177
 20
18.22829263565724
 11
-6.8597175196804727
 21
18.515671723768605
  0
LINE
  8
_0-0_
  6
CONTINUOUS
 62
    7
 10
-6.7639244903100177
 20
18.22829263565724
 11
20.153916762788242
 21
17.222465827267442
  0
LINE
  8
_0-0_
  6
CONTINUOUS
 62
    7
 10
20.393399336214387
 20
17.509844915378821
 11
-6.5723384315691078
 21
18.515671723768605
  0
LINE
  8
_0-0_
  6
CONTINUOUS
 62
    7
 10
21.159743571178026
 20
17.078776283211766
 11
17.423815425730226
 21
10.325367712594584
  0
LINE
  8
_0-0_
  6
CONTINUOUS
 62
    7
 10
16.609574676081351
 20
10.037988624483205
 11
-10.547749150443053
 21
11.570677094410513
  0
LINE
  8
_0-0_
  6
CONTINUOUS
 62
    7
 10
-12.511506252537416
 20
9.1758513601491103
 11
14.645817573986989
 21
7.2599907727399682
  0
LINE
  8
_0-0_
  6
CONTINUOUS
 62
    7
 10
14.597921059301768
 20
7.0205081993138378
 11
-12.367816708481726
 21
8.8405757573525108
  0
LINE
  8
_0-0_
  6
CONTINUOUS
 62
    7
 10
-12.703092311278326
 20
8.6968862132968212
 11
-16.343227427355671
 21
2.9493044510694375
  0
LINE
  8
_0-0_
  6
CONTINUOUS
 62
    7
 10
-12.703092311278326
 20
8.6968862132968212
 11
-12.655195796593091
 21
9.0321618160934207
  0
LINE
  8
_0-0_
  6
CONTINUOUS
 62
    7
 10
-12.942574884704456
 20
9.0321618160934207
 11
-16.534813486096581
 21
3.2366835391808024
  0
LINE
  8
_0-0_
  6
CONTINUOUS
 62
    7
 10
-16.151641368614762
 20
1.9913741573648736
 11
10.526717311057368
 21
-0.4992446062669984
  0
LINE
  8
_0-0_
  6
CONTINUOUS
 62
    7
 10
11.340958060706242
 20
-0.2118655181556334
 11
15.268472264894953
 21
6.7810256258876933
  0
ARC
  8
_0-0_
  6
CONTINUOUS
 62
    7
 10
-1.54051198198988
 20
12.977672639705276
 40
11.13207371587864
 50
124.02646818570206
 51
148.44634702001036
  0
ARC
  8
_0-0_
  6
CONTINUOUS
 62
    7
 10
-3.5161723599230896
 20
16.105494542492394
 40
7.4351250496297983
 50
96.215822203509774
 51
124.89626823565709
  0
ARC
  8
_0-0_
  6
CONTINUOUS
 62
    7
 10
-6.6349554347126514
 20
17.565870655033564
 40
3.0309274544337805
 50
113.95447658154924
 51
149.80126249421926
  0
ARC
  8
_0-0_
  6
CONTINUOUS
 62
    7
 10
-5.5728137961641835
 20
17.785880092117281
 40
3.4290516442860461
 50
84.283120064730383
 51
131.96060043107255
  0
ARC
  8
_0-0_
  6
CONTINUOUS
 62
    7
 10
-5.2229629860279658
 20
16.201399218750467
 40
4.2807277353936284
 50
92.034384029634793
 51
144.956893206855
  0
ARC
  8
_0-0_
  6
CONTINUOUS
 62
    7
 10
22.232402725640256
 20
17.963190996236705
 40
1.7536505650020431
 50
13.480162621923581
 51
93.751133746404506
  0
ARC
  8
_0-0_
  6
CONTINUOUS
 62
    7
 10
22.323628878029069
 20
18.92279209859305
 40
1.6704420213150488
 50
354.24036626433644
 51
73.851508448866724
  0
ARC
  8
_0-0_
  6
CONTINUOUS
 62
    7
 10
22.481687376490441
 20
18.520461375237105
 40
1.5221524423980419
 50
323.05798687365484
 51
8.8695261904923477
  0
ARC
  8
_0-0_
  6
CONTINUOUS
 62
    7
 10
23.59802293075343
 20
20.202127511203471
 40
2.7059697873388733
 50
326.4658433012865
 51
99.071154856252875
  0
ARC
  8
_0-0_
  6
CONTINUOUS
 62
    7
 10
24.068126379564319
 20
19.382243850573431
 40
3.5966980715238539
 50
45.879252319500864
 51
85.969751170341155
  0
ARC
  8
_0-0_
  6
CONTINUOUS
 62
    7
 10
23.570306731693293
 20
19.929439990091765
 40
3.6264023355131165
 50
350.48400444683818
 51
34.13202718801756
  0
ARC
  8
_0-0_
  6
CONTINUOUS
 62
    7
 10
14.122377092070934
 20
21.899218368317591
 40
13.275433357523758
 50
340.91133796883321
 51
348.8406474145462
  0
ARC
  8
_0-0_
  6
CONTINUOUS
 62
    7
 10
7.4351328442995737
 20
5.7507987062431027
 40
8.9394942874800805
 50
283.49257925653359
 51
310.23125643227149
  0
ARC
  8
_0-0_
  6
CONTINUOUS
 62
    7
 10
20.113388942669872
 20
16.115319468581845
 40
1.4223596740126139
 50
42.638084851296938
 51
78.646408063119111
  0
ARC
  8
_0-0_
  6
CONTINUOUS
 62
    7
 10
20.112007312438635
 20
15.806525111885293
 40
1.4165608040269637
 50
52.815293546768316
 51
88.304636796879535
  0
ARC
  8
_0-0_
  6
CONTINUOUS
 62
    7
 10
-8.7356643448523954
 20
12.53659014056251
 40
2.0534457274004461
 50
177.54914736222551
 51
208.05938476834814
  0
ARC
  8
_0-0_
  6
CONTINUOUS
 62
    7
 10
-6.1652180567451325
 20
11.738314895808813
 40
4.3825965256065755
 50
171.51567786502858
 51
180.31308857502066
  0
ARC
  8
_0-0_
  6
CONTINUOUS
 62
    7
 10
-15.688804639972787
 20
2.8153897059291069
 40
0.9451028841642703
 50
153.52770324156862
 51
240.67775469653569
  0
ARC
  8
_0-0_
  6
CONTINUOUS
 62
    7
 10
-15.798664879956235
 20
2.5734209336484071
 40
0.6616923656042638
 50
145.38467732009073
 51
227.29570617173002
  0
ARC
  8
_0-0_
  6
CONTINUOUS
 62
    7
 10
14.579014540347075
 20
6.5289387064917577
 40
0.7340979286643369
 50
20.083964471730621
 51
84.778851470615209
  0
ARC
  8
_0-0_
  6
CONTINUOUS
 62
    7
 10
14.526076287274066
 20
6.2781122216930925
 40
0.7458642362086894
 50
42.397437797491051
 51
84.472459848352344
  0
ARC
  8
_0-0_
  6
CONTINUOUS
 62
    7
 10
10.576931399033782
 20
0.6556794171914361
 40
1.156015118669607
 50
267.51044707800281
 51
311.36962257834892
  0
ARC
  8
_0-0_
  6
CONTINUOUS
 62
    7
 10
-16.889247694767292
 20
1.3687194664568949
 40
2.1934093721204397
 50
149.85163396799868
 51
220.92698955194803
  0
ARC
  8
_0-0_
  6
CONTINUOUS
 62
    7
 10
-18.031301101901306
 20
1.596506379320374
 40
1.9764323789304425
 50
147.38021297981209
 51
242.96561771123783
  0
LINE
  8
_0-0_
  6
CONTINUOUS
 62
    7
 10
-26.54518505530929
 20
-9.9348579992569555
 11
-25.826737335030856
 21
-20.232608656581021
  0
LINE
  8
_0-0_
  6
CONTINUOUS
 62
    7
 10
-21.611844042730766
 20
-26.363362536290232
 11
5.5454797837936241
 21
-31.727772181035789
  0
LINE
  8
_0-0_
  6
CONTINUOUS
 62
    7
 10
4.6833425194595151
 20
-31.200910519498279
 11
-21.276568439934181
 21
-26.267569506919777
  0
LINE
  8
_0-0_
  6
CONTINUOUS
 62
    7
 10
9.5687870173527898
 20
-14.82030249715023
 11
9.3772009586118799
 21
-25.932293904123178
  0
LINE
  8
_0-0_
  6
CONTINUOUS
 62
    7
 10
10.574613825742588
 20
-14.149751291557038
 11
10.430924281686899
 21
-25.932293904123178
  0
LINE
  8
_0-0_
  6
CONTINUOUS
 62
    7
 10
11.484647604761932
 20
-13.814475688760439
 11
11.532544119447152
 21
-25.453328757270896
  0
LINE
  8
_0-0_
  6
CONTINUOUS
 62
    7
 10
5.5454797837936241
 20
-31.727772181035789
 11
12.490474413151716
 21
-31.631979151665334
  0
LINE
  8
_0-0_
  6
CONTINUOUS
 62
    7
 10
16.130609529229062
 20
-4.8099309279375433
 11
15.028989691468809
 21
-8.4500660440148749
  0
ARC
  8
_0-0_
  6
CONTINUOUS
 62
    7
 10
-17.484471958323255
 20
-8.5848166842157383
 40
9.1607386917329219
 50
144.22446985397136
 51
188.47469187651436
  0
ARC
  8
_0-0_
  6
CONTINUOUS
 62
    7
 10
22.63003705715272
 20
-14.156406916406937
 40
13.078111864650189
 50
143.57227695699689
 51
182.90980620864119
  0
ARC
  8
_0-0_
  6
CONTINUOUS
 62
    7
 10
29.192963250291385
 20
-15.893306196899488
 40
18.699810667558651
 50
150.47470699674579
 51
174.65001793331317
  0
ARC
  8
_0-0_
  6
CONTINUOUS
 62
    7
 10
26.154415486706611
 20
-15.406158646287679
 40
14.755864744142183
 50
148.00543525429907
 51
173.80758074472959
  0
ARC
  8
_0-0_
  6
CONTINUOUS
 62
    7
 10
4.3091024547162959
 20
-26.14228775850799
 40
5.0724471277745256
 50
274.23106964447169
 51
2.3726617043983365
  0
ARC
  8
_0-0_
  6
CONTINUOUS
 62
    7
 10
5.3254651243497051
 20
-26.585411847076706
 40
5.1470648193553963
 50
272.44989210765135
 51
7.2899913249109316
  0
ARC
  8
_0-0_
  6
CONTINUOUS
 62
    7
 10
5.3982016629496172
 20
-25.953019765982397
 40
6.1546607118325589
 50
294.88632779771996
 51
4.6569151866151124
  0
ARC
  8
_0-0_
  6
CONTINUOUS
 62
    7
 10
-19.113130093518336
 20
-20.131250187123918
 40
6.7143723260346544
 50
180.86495547543143
 51
248.15209049990548
  0
LINE
  8
_0-0_
  6
CONTINUOUS
 62
    7
 10
-26.114116423142235
 20
-16.544577025818448
 11
-25.204082644122892
 21
-43.127142676120108
  0
LINE
  8
_0-0_
  6
CONTINUOUS
 62
    7
 10
-25.730944305660401
 20
-21.334228494341268
 11
-24.820910526641072
 21
-42.743970558638281
  0
LINE
  8
_0-0_
  6
CONTINUOUS
 62
    7
 10
-24.533531438529707
 20
-43.175039190805336
 11
-21.707637072101235
 21
-42.169212382415544
  0
LINE
  8
_0-0_
  6
CONTINUOUS
 62
    7
 10
-21.563947528045546
 20
-42.648177529267826
 11
-24.246152350418328
 21
-43.558211308287163
  0
LINE
  8
_0-0_
  6
CONTINUOUS
 62
    7
 10
-24.246152350418328
 20
-43.74979736702808
 11
11.772026692873297
 21
-53.233307274703265
  0
LINE
  8
_0-0_
  6
CONTINUOUS
 62
    7
 10
-24.437738409159252
 20
-44.085072969824672
 11
12.203095325040351
 21
-53.712272421555546
  0
LINE
  8
_0-0_
  6
CONTINUOUS
 62
    7
 10
12.203095325040351
 20
-53.712272421555546
 11
12.777853501263081
 21
-53.664375906870319
  0
LINE
  8
_0-0_
  6
CONTINUOUS
 62
    7
 10
12.777853501263081
 20
-53.664375906870319
 11
16.226402558599517
 21
-52.275376980998701
  0
LINE
  8
_0-0_
  6
CONTINUOUS
 62
    7
 10
12.634163957207406
 20
-52.993824701277127
 11
12.442577898466482
 21
-12.856545395055875
  0
LINE
  8
_0-0_
  6
CONTINUOUS
 62
    7
 10
12.825750015948316
 20
-12.808648880370647
 11
13.113129104059681
 21
-52.850135157221445
  0
LINE
  8
_0-0_
  6
CONTINUOUS
 62
    7
 10
16.561678161396117
 20
-51.413239716664599
 11
16.465885132025647
 21
-16.496680511133221
  0
LINE
  8
_0-0_
  6
CONTINUOUS
 62
    7
 10
13.908150233166069
 20
-11.273214750365852
 11
13.14668717167352
 21
-12.600893934506701
  0
LINE
  8
_0-0_
  6
CONTINUOUS
 62
    7
 10
13.14668717167352
 20
-12.600893934506701
 11
13.341934110517769
 21
-12.971863118310765
  0
LINE
  8
_0-0_
  6
CONTINUOUS
 62
    7
 10
13.341934110517769
 20
-12.971863118310765
 11
13.283360028864493
 21
-13.499029853190216
  0
LINE
  8
_0-0_
  6
CONTINUOUS
 62
    7
 10
13.283360028864493
 20
-13.499029853190216
 11
12.990489620598126
 21
-13.674752098150037
  0
LINE
  8
_0-0_
  6
CONTINUOUS
 62
    7
 10
12.990489620598126
 20
-13.674752098150037
 11
13.302884722748914
 21
-15.549122711054764
  0
LINE
  8
_0-0_
  6
CONTINUOUS
 62
    7
 10
13.302884722748914
 20
-15.549122711054764
 11
13.927674927050489
 21
-15.471023935517067
  0
LINE
  8
_0-0_
  6
CONTINUOUS
 62
    7
 10
13.927674927050489
 20
-15.471023935517067
 11
13.908150233166069
 21
-16.017715364280946
  0
LINE
  8
_0-0_
  6
CONTINUOUS
 62
    7
 10
13.908150233166069
 20
-16.017715364280946
 11
14.5719898252365
 21
-16.505832711391548
  0
LINE
  8
_0-0_
  6
CONTINUOUS
 62
    7
 10
14.5719898252365
 20
-16.505832711391548
 11
17.793564316166496
 21
-16.68155495635137
  0
LINE
  8
_0-0_
  6
CONTINUOUS
 62
    7
 10
17.793564316166496
 20
-16.68155495635137
 11
18.613601459312321
 21
-16.759653731889067
  0
LINE
  8
_0-0_
  6
CONTINUOUS
 62
    7
 10
17.793564316166496
 20
-16.68155495635137
 11
17.38354574459359
 21
-16.310585772547306
  0
LINE
  8
_0-0_
  6
CONTINUOUS
 62
    7
 10
17.38354574459359
 20
-16.310585772547306
 11
17.481169214015708
 21
-15.920091894858821
  0
LINE
  8
_0-0_
  6
CONTINUOUS
 62
    7
 10
17.481169214015708
 20
-15.920091894858821
 11
16.934477785251829
 21
-15.841993119321124
  0
LINE
  8
_0-0_
  6
CONTINUOUS
 62
    7
 10
16.934477785251829
 20
-15.841993119321124
 11
16.739230846407594
 21
-14.240968220798337
  0
LINE
  8
_0-0_
  6
CONTINUOUS
 62
    7
 10
16.739230846407594
 20
-14.240968220798337
 11
16.973527173020685
 21
-14.10429536360737
  0
LINE
  8
_0-0_
  6
CONTINUOUS
 62
    7
 10
16.973527173020685
 20
-14.10429536360737
 11
17.071150642442802
 21
-13.772375567572155
  0
LINE
  8
_0-0_
  6
CONTINUOUS
 62
    7
 10
17.071150642442802
 20
-13.772375567572155
 11
16.797804928060856
 21
-13.186634751039428
  0
LINE
  8
_0-0_
  6
CONTINUOUS
 62
    7
 10
16.797804928060856
 20
-13.186634751039428
 11
17.520218601784563
 21
-11.683233321938758
  0
LINE
  8
_0-0_
  6
CONTINUOUS
 62
    7
 10
17.520218601784563
 20
-11.683233321938758
 11
17.96928656112631
 21
-11.741807403592034
  0
LINE
  8
_0-0_
  6
CONTINUOUS
 62
    7
 10
17.96928656112631
 20
-11.741807403592034
 11
18.16453349997056
 21
-11.722282709707606
  0
LINE
  8
_0-0_
  6
CONTINUOUS
 62
    7
 10
18.16453349997056
 20
-11.722282709707606
 11
18.37930513269923
 21
-11.195115974828155
  0
LINE
  8
_0-0_
  6
CONTINUOUS
 62
    7
 10
18.37930513269923
 20
-11.195115974828155
 11
19.140768194191764
 21
-11.214640668712576
  0
LINE
  8
_0-0_
  6
CONTINUOUS
 62
    7
 10
19.140768194191764
 20
-11.214640668712576
 11
19.375064520804855
 21
-11.390362913672398
  0
LINE
  8
_0-0_
  6
CONTINUOUS
 62
    7
 10
19.375064520804855
 20
-11.390362913672398
 11
19.375064520804855
 21
-11.976103730205125
  0
LINE
  8
_0-0_
  6
CONTINUOUS
 62
    7
 10
19.375064520804855
 20
-11.976103730205125
 11
19.550786765764684
 21
-12.09325189351167
  0
LINE
  8
_0-0_
  6
CONTINUOUS
 62
    7
 10
19.550786765764684
 20
-12.09325189351167
 11
20.058428806759707
 21
-12.09325189351167
  0
LINE
  8
_0-0_
  6
CONTINUOUS
 62
    7
 10
20.058428806759707
 20
-12.09325189351167
 11
20.312249827257219
 21
-13.616178016496761
  0
LINE
  8
_0-0_
  6
CONTINUOUS
 62
    7
 10
20.312249827257219
 20
-13.616178016496761
 11
19.999854725106431
 21
-13.967622506416397
  0
LINE
  8
_0-0_
  6
CONTINUOUS
 62
    7
 10
19.999854725106431
 20
-13.967622506416397
 11
19.921755949568734
 21
-14.201918833029488
  0
LINE
  8
_0-0_
  6
CONTINUOUS
 62
    7
 10
19.921755949568734
 20
-14.201918833029488
 11
20.077953500644128
 21
-14.963381894522037
  0
LINE
  8
_0-0_
  6
CONTINUOUS
 62
    7
 10
20.077953500644128
 20
-14.963381894522037
 11
19.472687990226987
 21
-16.154388221471912
  0
LINE
  8
_0-0_
  6
CONTINUOUS
 62
    7
 10
19.472687990226987
 20
-16.154388221471912
 11
18.886947173694253
 21
-16.115338833703063
  0
LINE
  8
_0-0_
  6
CONTINUOUS
 62
    7
 10
18.886947173694253
 20
-16.115338833703063
 11
18.613601459312321
 21
-16.759653731889067
  0
LINE
  8
_0-0_
  6
CONTINUOUS
 62
    7
 10
13.908150233166069
 20
-11.273214750365852
 11
14.454841661929947
 21
-11.273214750365852
  0
LINE
  8
_0-0_
  6
CONTINUOUS
 62
    7
 10
14.454841661929947
 20
-11.273214750365852
 11
14.669613294658618
 21
-10.785097403255243
  0
LINE
  8
_0-0_
  6
CONTINUOUS
 62
    7
 10
14.669613294658618
 20
-10.785097403255243
 11
15.001533090693826
 21
-10.765572709370822
  0
LINE
  8
_0-0_
  6
CONTINUOUS
 62
    7
 10
15.001533090693826
 20
-10.765572709370822
 11
19.140768194191764
 21
-11.214640668712576
  0
LINE
  8
_0-0_
  6
CONTINUOUS
 62
    7
 10
14.786761457965156
 20
-11.292739444250273
 11
17.930237173357469
 21
-11.58560985251664
  0
LINE
  8
_0-0_
  6
CONTINUOUS
 62
    7
 10
13.908150233166069
 20
-11.273214750365852
 11
17.520218601784563
 21
-11.683233321938758
  0
LINE
  8
_0-0_
  6
CONTINUOUS
 62
    7
 10
13.14668717167352
 20
-12.600893934506701
 11
16.797804928060856
 21
-13.186634751039428
  0
LINE
  8
_0-0_
  6
CONTINUOUS
 62
    7
 10
13.55670574324644
 20
-13.049961893848462
 11
15.684897376648678
 21
-13.245208832692704
  0
LINE
  8
_0-0_
  6
CONTINUOUS
 62
    7
 10
14.318168804738974
 20
-13.635702710381189
 11
16.485409825910068
 21
-13.928573118647549
  0
LINE
  8
_0-0_
  6
CONTINUOUS
 62
    7
 10
12.990489620598126
 20
-13.674752098150037
 11
16.739230846407594
 21
-14.240968220798337
  0
LINE
  8
_0-0_
  6
CONTINUOUS
 62
    7
 10
13.927674927050489
 20
-15.471023935517067
 11
16.934477785251829
 21
-15.841993119321124
  0
LINE
  8
_0-0_
  6
CONTINUOUS
 62
    7
 10
14.14244655977916
 20
-15.705320262130158
 11
15.37250227449789
 21
-15.841993119321124
  0
LINE
  8
_0-0_
  6
CONTINUOUS
 62
    7
 10
14.083872478125883
 20
-16.095814139818643
 11
17.344496356824735
 21
-16.330110466431734
  0
ARC
  8
_0-0_
  6
CONTINUOUS
 62
    7
 10
15.77447575114131
 20
-12.748801068936316
 40
3.3336394736788888
 50
137.85159789752115
 51
181.85214102541909
  0
ARC
  8
_0-0_
  6
CONTINUOUS
 62
    7
 10
14.697661608682921
 20
-11.643210648825239
 40
1.7959960856280499
 50
88.403085875082155
 51
140.95064046559187
  0
ARC
  8
_0-0_
  6
CONTINUOUS
 62
    7
 10
15.810211778543177
 20
-12.769340843464036
 40
2.9847206124118677
 50
118.2765291954648
 51
180.75459314867527
  0
ARC
  8
_0-0_
  6
CONTINUOUS
 62
    7
 10
14.922640003462675
 20
-11.288409164373007
 40
1.2625826218649656
 50
51.742787718205747
 51
114.63911192256796
  0
ARC
  8
_0-0_
  6
CONTINUOUS
 62
    7
 10
15.164410142308483
 20
-11.166856549469223
 40
1.0238642469895849
 50
14.977720529555244
 51
58.168341427483369
  0
ARC
  8
_0-0_
  6
CONTINUOUS
 62
    7
 10
14.699324785352303
 20
-10.90818786470053
 40
1.0613793069989279
 50
47.852696271249052
 51
87.387033624831901
  0
ARC
  8
_0-0_
  6
CONTINUOUS
 62
    7
 10
16.577106076714969
 20
-9.0322985518537422
 40
1.65398277967214
 50
159.38917569354282
 51
209.54591922109941
  0
ARC
  8
_0-0_
  6
CONTINUOUS
 62
    7
 10
15.245591764249127
 20
-9.8894020713072877
 40
0.1151222460717708
 50
158.87528085392347
 51
274.86451443775991
  0
ARC
  8
_0-0_
  6
CONTINUOUS
 62
    7
 10
15.749119923197753
 20
-51.593505956742732
 40
0.8323141280646047
 50
304.9904929272659
 51
12.508496058467017
  0
ARC
  8
_0-0_
  6
CONTINUOUS
 62
    7
 10
11.893933785746114
 20
-52.824261260374882
 40
1.2194698367469912
 50
316.45548472239579
 51
358.78424517368467
  0
ARC
  8
_0-0_
  6
CONTINUOUS
 62
    7
 10
12.047395354847154
 20
-52.553046095294661
 40
0.7338822604530345
 50
247.9619746052249
 51
323.08624738828263
  0
ARC
  8
_0-0_
  6
CONTINUOUS
 62
    7
 10
-24.058952566070587
 20
-42.996541454516006
 40
1.1525535019011346
 50
186.5064274223227
 51
250.81318908585683
  0
ARC
  8
_0-0_
  6
CONTINUOUS
 62
    7
 10
-23.928073195166291
 20
-42.900907823768371
 40
0.9065251268781938
 50
170.0307511577455
 51
249.45901143613958
  0
LINE
  8
_0-0_
  6
CONTINUOUS
 62
    7
 10
-27.084558118271389
 20
-5.2511262757080317
 11
-27.348045760211576
 21
-5.2815286959318968
  0
LINE
  8
_0-0_
  6
CONTINUOUS
 62
    7
 10
-27.348045760211576
 20
-5.2815286959318968
 11
-27.358179900286203
 21
-5.504479777573593
  0
LINE
  8
_0-0_
  6
CONTINUOUS
 62
    7
 10
-27.358179900286203
 20
-5.504479777573593
 11
-28.219581806629108
 21
-5.504479777573593
  0
LINE
  8
_0-0_
  6
CONTINUOUS
 62
    7
 10
-28.219581806629108
 20
-5.504479777573593
 11
-28.959374032076553
 21
-6.3760158239911391
  0
LINE
  8
_0-0_
  6
CONTINUOUS
 62
    7
 10
-28.959374032076553
 20
-6.3760158239911391
 11
-28.888435051554197
 21
-6.8320521273491437
  0
LINE
  8
_0-0_
  6
CONTINUOUS
 62
    7
 10
-28.888435051554197
 20
-6.8320521273491437
 11
-28.959374032076553
 21
-7.0651373490654663
  0
LINE
  8
_0-0_
  6
CONTINUOUS
 62
    7
 10
-28.959374032076553
 20
-7.0651373490654663
 11
-29.334337214837589
 21
-7.3590274112295191
  0
LINE
  8
_0-0_
  6
CONTINUOUS
 62
    7
 10
-29.334337214837589
 20
-7.3590274112295191
 11
-29.303934794613724
 21
-8.7068680411543227
  0
LINE
  8
_0-0_
  6
CONTINUOUS
 62
    7
 10
-29.303934794613724
 20
-8.7068680411543227
 11
-29.111386133195893
 21
-8.9298191227960189
  0
LINE
  8
_0-0_
  6
CONTINUOUS
 62
    7
 10
-29.111386133195893
 20
-8.9298191227960189
 11
-28.685752250061753
 21
-9.1426360643630886
  0
LINE
  8
_0-0_
  6
CONTINUOUS
 62
    7
 10
-28.685752250061753
 20
-9.1426360643630886
 11
-28.716154670285619
 21
-9.7912210291389385
  0
LINE
  8
_0-0_
  6
CONTINUOUS
 62
    7
 10
-28.716154670285619
 20
-9.7912210291389385
 11
-26.486643853868657
 21
-10.358732873317798
  0
LINE
  8
_0-0_
  6
CONTINUOUS
 62
    7
 10
-28.472935308494684
 20
-9.3554530059301655
 11
-27.033887417898271
 21
-9.6392089280195989
  0
LINE
  8
_0-0_
  6
CONTINUOUS
 62
    7
 10
-28.645215689763262
 20
-9.1020995040646042
 11
-26.638655954987996
 21
-9.4466602666017678
  0
LINE
  8
_0-0_
  6
CONTINUOUS
 62
    7
 10
-29.283666514464485
 20
-7.49077123219962
 11
-26.679192515286488
 21
-7.8758685550352681
  0
LINE
  8
_0-0_
  6
CONTINUOUS
 62
    7
 10
-28.837764351181093
 20
-6.5280279251104787
 11
-26.608253534764131
 21
-6.8219179872745315
  0
LINE
  8
_0-0_
  6
CONTINUOUS
 62
    7
 10
-28.655349829837888
 20
-7.0752714891400927
 11
-27.196033659092237
 21
-7.2678201505579239
  0
LINE
  8
_0-0_
  6
CONTINUOUS
 62
    7
 10
-28.168911106256004
 20
-5.5551504779467109
 11
-26.243424492077722
 21
-5.747699139364542
  0
LINE
  8
_0-0_
  6
CONTINUOUS
 62
    7
 10
-27.084558118271389
 20
-5.2511262757080317
 11
-26.111680671107621
 21
-5.4335407970512364
  0
LINE
  8
_0-0_
  6
CONTINUOUS
 62
    7
 10
-27.266972639614593
 20
-5.534882197797458
 11
-26.456241433644792
 21
-5.6159553183944411
  0
LINE
  8
_0-0_
  6
CONTINUOUS
 62
    7
 10
-22.009892854959404
 20
-26.209388598866084
 11
-21.546003130949074
 21
-41.915369254644169
  0
LINE
  8
_0-0_
  6
CONTINUOUS
 62
    7
 10
-20.817033564647133
 20
-42.77687874209191
 11
12.549891583809668
 21
-51.193163734850629
  0
ARC
  8
_0-0_
  6
CONTINUOUS
 62
    7
 10
-20.632457723755721
 20
-41.881534239562939
 40
0.9141717668193557
 50
182.12109639666093
 51
258.35162022188729
  0
ARC
  8
_0-0_
  6
CONTINUOUS
 62
    7
 10
-12.454851986193262
 20
-46.381133911504691
 40
0.4616331226934598
 50
79.715342318104732
 51
164.8359463110497
  0
ARC
  8
_0-0_
  6
CONTINUOUS
 62
    7
 10
-11.8305595799103
 20
-49.664452223970201
 40
3.7766108026291261
 50
81.750655821093559
 51
98.249344178906881
  0
ARC
  8
_0-0_
  6
CONTINUOUS
 62
    7
 10
-11.30258075390222
 20
-46.177013136390514
 40
0.2504808854646817
 50
326.30993247402427
 51
86.82016988013298
  0
ARC
  8
_0-0_
  6
CONTINUOUS
 62
    7
 10
-11.789648939883349
 20
-45.584966704302502
 40
1.0089784165930973
 50
270.83285626271271
 51
313.57410080140153
  0
ARC
  8
_0-0_
  6
CONTINUOUS
 62
    7
 10
-12.068971071319496
 20
-43.918577392604917
 40
2.6913660464395157
 50
259.63803214126131
 51
276.27115088096423
  0
ARC
  8
_0-0_
  6
CONTINUOUS
 62
    7
 10
-12.475570149740093
 20
-46.127800535107312
 40
0.4450471196760405
 50
197.33126526812998
 51
259.97318029248106
  0
ARC
  8
_0-0_
  6
CONTINUOUS
 62
    7
 10
-12.490533112420451
 20
-46.434055459578666
 40
0.1098431346399587
 50
108.43494882291967
 51
235.30484646876204
  0
ARC
  8
_0-0_
  6
CONTINUOUS
 62
    7
 10
-12.09203193138687
 20
-47.884486994184371
 40
1.6138751256948562
 50
78.670439442640628
 51
105.57175335068261
  0
ARC
  8
_0-0_
  6
CONTINUOUS
 62
    7
 10
-11.766491973830384
 20
-46.847793253058711
 40
0.5457985495657854
 50
55.253598021330326
 51
90.891375850376292
  0
ARC
  8
_0-0_
  6
CONTINUOUS
 62
    7
 10
-6.047423084986562
 20
-48.072937102510551
 40
0.6188597109039308
 50
86.430960268736456
 51
146.69914208541903
  0
ARC
  8
_0-0_
  6
CONTINUOUS
 62
    7
 10
-6.2268902256794263
 20
-47.774325998532397
 40
0.3402744064367181
 50
173.05161609013112
 51
281.03920088764227
  0
ARC
  8
_0-0_
  6
CONTINUOUS
 62
    7
 10
-5.2447184344407418
 20
-42.140753953354704
 40
6.0375966157491874
 50
261.26386236852335
 51
270.79114574997556
  0
ARC
  8
_0-0_
  6
CONTINUOUS
 62
    7
 10
-5.2539222222223003
 20
-47.505102013679092
 40
0.6790124784797142
 50
277.83545723649598
 51
339.12493926018999
  0
ARC
  8
_0-0_
  6
CONTINUOUS
 62
    7
 10
-5.0648659980958683
 20
-47.863354864293591
 40
0.4603193803594392
 50
14.634347422718369
 51
77.703931233096426
  0
ARC
  8
_0-0_
  6
CONTINUOUS
 62
    7
 10
-5.421901687782622
 20
-49.083558648429999
 40
1.7308564378664848
 50
74.75694523286316
 51
109.82427485241368
  0
ARC
  8
_0-0_
  6
CONTINUOUS
 62
    7
 10
-6.0317244664415313
 20
-48.021961703212085
 40
0.1488331252840393
 50
114.00128096561701
 51
209.12882138853703
  0
ARC
  8
_0-0_
  6
CONTINUOUS
 62
    7
 10
-5.5651018706561644
 20
-48.856546543615963
 40
1.1044750959563825
 50
78.344991537301581
 51
118.50894650566012
  0
ARC
  8
_0-0_
  6
CONTINUOUS
 62
    7
 10
-5.3599243405543007
 20
-48.561022791545362
 40
0.7863838110664295
 50
61.17072672871361
 51
88.692296952301817
  0
ARC
  8
_0-0_
  6
CONTINUOUS
 62
    7
 10
-5.0002256928554942
 20
-47.973172003306885
 40
0.1029322749286561
 50
329.80641666748846
 51
79.08149289334726
  0
ARC
  8
_0-0_
  6
CONTINUOUS
 62
    7
 10
0.667254998886932
 20
-50.185483960162649
 40
1.2018666162766405
 50
90.33118578841669
 51
126.53871185742801
  0
ARC
  8
_0-0_
  6
CONTINUOUS
 62
    7
 10
0.0420169154562586
 20
-49.366935551420049
 40
0.1726089142761766
 50
121.54838705278044
 51
272.30663907551514
  0
ARC
  8
_0-0_
  6
CONTINUOUS
 62
    7
 10
1.4114619954147116
 20
-46.349821995561221
 40
3.4684056870770519
 50
246.86921956917786
 51
264.69907348347522
  0
ARC
  8
_0-0_
  6
CONTINUOUS
 62
    7
 10
1.0293209739977129
 20
-47.293042682696935
 40
2.5111096214105411
 50
271.40809390270607
 51
291.9104914043395
  0
ARC
  8
_0-0_
  6
CONTINUOUS
 62
    7
 10
1.8055852872915779
 20
-49.368704686093665
 40
0.3006622480666601
 50
302.3261399943832
 51
18.076107296571237
  0
ARC
  8
_0-0_
  6
CONTINUOUS
 62
    7
 10
1.4487254132884146
 20
-50.015666209107295
 40
0.9803127055624996
 50
49.035614128944026
 51
84.913401854000057
  0
ARC
  8
_0-0_
  6
CONTINUOUS
 62
    7
 10
1.0090715960206467
 20
-50.411647581642413
 40
1.4699826955922899
 50
69.009395782688017
 51
103.72470273833584
  0
ARC
  8
_0-0_
  6
CONTINUOUS
 62
    7
 10
0.4841787496209519
 20
-49.594027803679829
 40
0.0844383378448879
 50
102.5789352375001
 51
266.94834814395114
  0
ARC
  8
_0-0_
  6
CONTINUOUS
 62
    7
 10
1.0804558192410667
 20
-50.953892503277345
 40
1.5677932295166159
 50
88.597974255455469
 51
113.0826366532048
  0
ARC
  8
_0-0_
  6
CONTINUOUS
 62
    7
 10
1.2823882244035616
 20
-50.33579372163365
 40
0.9632155511620268
 50
65.972666618531832
 51
99.777300683665331
  0
ARC
  8
_0-0_
  6
CONTINUOUS
 62
    7
 10
1.6884772018236447
 20
-49.567192966547843
 40
0.1120184573926733
 50
352.87498365109911
 51
97.125016348900687
  0
ARC
  8
_0-0_
  6
CONTINUOUS
 62
    7
 10
-49.817279297736057
 20
-24.436883888051717
 40
54.904068713167625
 50
345.23771374101165
 51
352.55851083676328
  0
ARC
  8
_0-0_
  6
CONTINUOUS
 62
    7
 10
-4.2864944143539816
 20
-36.52152477270532
 40
7.7973691525859872
 50
319.16629116609494
 51
345.85551577420387
  0
ARC
  8
_0-0_
  6
CONTINUOUS
 62
    7
 10
-8.4204002818623422
 20
-33.522984909525377
 40
12.893085039111973
 50
303.55252833380996
 51
321.09661835413175
  0
ARC
  8
_0-0_
  6
CONTINUOUS
 62
    7
 10
-2.978254754918197
 20
-41.321108517150236
 40
3.393897377265839
 50
277.85422612028515
 51
299.74554419702054
  0
ARC
  8
_0-0_
  6
CONTINUOUS
 62
    7
 10
-2.4033489865485649
 20
-43.484444733094158
 40
1.203862067052472
 50
214.36496471246474
 51
264.70394544861614
  0
ARC
  8
_0-0_
  6
CONTINUOUS
 62
    7
 10
-7.0809625948232338
 20
-48.339903265059249
 40
5.5685971571590365
 50
48.582224980666936
 51
68.703604571313321
  0
ARC
  8
_0-0_
  6
CONTINUOUS
 62
    7
 10
-44.092899469378374
 20
-153.73416282721459
 40
117.26975991411932
 50
70.557542979669918
 51
72.310336584991674
  0
ARC
  8
_0-0_
  6
CONTINUOUS
 62
    7
 10
-2.8611575750990426
 20
-26.691985605256058
 40
16.308261120143015
 50
243.46598261756432
 51
249.92423630402976
  0
ARC
  8
_0-0_
  6
CONTINUOUS
 62
    7
 10
-9.397427295619039
 20
-40.082943463109089
 40
1.4142347768666288
 50
149.32705893396925
 51
238.0155553304229
  0
ARC
  8
_0-0_
  6
CONTINUOUS
 62
    7
 10
-3.2654362864746815
 20
-41.881406469032854
 40
7.7684260645878442
 50
130.93505269225767
 51
161.07202901124128
  0
ARC
  8
_0-0_
  6
CONTINUOUS
 62
    7
 10
-1.7137497661512953
 20
-44.507627699701004
 40
10.783040388731678
 50
101.36368808398596
 51
128.01942824297024
  0
ARC
  8
_0-0_
  6
CONTINUOUS
 62
    7
 10
-1.205011239334226
 20
-63.073150714336208
 40
29.25593458646302
 50
83.808001281245325
 51
95.164299286046443
  0
ARC
  8
_0-0_
  6
CONTINUOUS
 62
    7
 10
-1.8441609084396475
 20
-84.278534801484454
 40
51.537369240842004
 50
85.922154445910081
 51
91.842196389317792
  0
ARC
  8
_0-0_
  6
CONTINUOUS
 62
    7
 10
-2.5277730382545798
 20
-42.262281100329631
 40
9.5442208840636198
 50
95.852188063341146
 51
125.11548964947258
  0
ARC
  8
_0-0_
  6
CONTINUOUS
 62
    7
 10
-0.4290626391871228
 20
-45.170987999709908
 40
13.130832302564166
 50
125.30559683567627
 51
141.2229939864668
  0
ARC
  8
_0-0_
  6
CONTINUOUS
 62
    7
 10
-4.7637234627336937
 20
-41.122520747258136
 40
7.2295445910031102
 50
144.72323103640258
 51
170.10906392228492
  0
ARC
  8
_0-0_
  6
CONTINUOUS
 62
    7
 10
-9.1645956745750539
 20
-40.236088772290934
 40
2.7443275726926357
 50
172.55887794293017
 51
220.96623098073488
  0
ARC
  8
_0-0_
  6
CONTINUOUS
 62
    7
 10
-6.2853799867692857
 20
-34.690034190496846
 40
8.8583227480144995
 50
236.01610485340018
 51
257.34847837308973
  0
ARC
  8
_0-0_
  6
CONTINUOUS
 62
    7
 10
-70.426116285291101
 20
-210.70651945998807
 40
178.55731259975894
 50
68.426968509738387
 51
69.613525084791561
  0
ARC
  8
_0-0_
  6
CONTINUOUS
 62
    7
 10
-8.0767688645631779
 20
-50.479103170740409
 40
6.6940103168544844
 50
43.428659246515956
 51
60.425777005502134
  0
ARC
  8
_0-0_
  6
CONTINUOUS
 62
    7
 10
-2.4235167712953682
 20
-43.378183344294712
 40
2.6215679591401551
 50
252.41899007647868
 51
301.32099453995011
  0
ARC
  8
_0-0_
  6
CONTINUOUS
 62
    7
 10
-5.3358082104613658
 20
-36.881250916403069
 40
9.7263479358936635
 50
296.07419287889718
 51
323.37099495528832
  0
ARC
  8
_0-0_
  6
CONTINUOUS
 62
    7
 10
-4.9348698679953173
 20
-36.434096148248877
 40
9.6898490554733243
 50
319.8324296991824
 51
344.81574938075948
  0
ARC
  8
_0-0_
  6
CONTINUOUS
 62
    7
 10
-39.614779105616158
 20
-25.877504159899345
 40
45.937336608822321
 50
343.43795795838781
 51
352.6812479707736
  0
ARC
  8
_0-0_
  6
CONTINUOUS
 62
    7
 10
1.037608301867067
 20
-33.528376634915034
 40
1.0220652581506369
 50
333.28216408760619
 51
39.982865142670605
  0
ARC
  8
_0-0_
  6
CONTINUOUS
 62
    7
 10
-15.992415569792698
 20
-25.830209217331451
 40
0.2549924862182569
 50
118.62645067295037
 51
185.57900726515521
  0
ARC
  8
_0-0_
  6
CONTINUOUS
 62
    7
 10
-16.069977710643499
 20
-25.84695579131602
 40
0.2446693458208612
 50
36.493182467867555
 51
100.50394888403434
  0
ARC
  8
_0-0_
  6
CONTINUOUS
 62
    7
 10
-15.985954625138959
 20
-25.858655208285008
 40
0.1934180925555484
 50
356.74917142885079
 51
54.370758914796561
  0
ARC
  8
_0-0_
  6
CONTINUOUS
 62
    7
 10
-16.000512422390145
 20
-26.824588321786919
 40
0.2311051327894671
 50
178.91223615961553
 51
263.45961417180479
  0
ARC
  8
_0-0_
  6
CONTINUOUS
 62
    7
 10
-15.995121848001816
 20
-26.830659094836228
 40
0.2257688701918655
 50
261.9248254108262
 51
343.88566043514982
  0
LINE
  8
_0-0_
  6
CONTINUOUS
 62
    7
 10
-16.246200178738846
 20
-25.854999140482199
 11
-16.231575907527613
 21
-26.820201040423548
  0
LINE
  8
_0-0_
  6
CONTINUOUS
 62
    7
 10
-15.778223499979404
 20
-26.893322396479711
 11
-15.792847771190637
 21
-25.869623411693432
  0
ARC
  8
_0-0_
  6
CONTINUOUS
 62
    7
 10
-1.5314509162877812
 20
-28.571173706854871
 40
0.2549924862182569
 50
118.62645067295037
 51
185.57900726515521
  0
ARC
  8
_0-0_
  6
CONTINUOUS
 62
    7
 10
-1.6090130571385828
 20
-28.587920280839441
 40
0.2446693458208612
 50
36.493182467867555
 51
100.50394888403434
  0
ARC
  8
_0-0_
  6
CONTINUOUS
 62
    7
 10
-1.5249899716340423
 20
-28.599619697808428
 40
0.1934180925555484
 50
356.74917142885079
 51
54.370758914796561
  0
ARC
  8
_0-0_
  6
CONTINUOUS
 62
    7
 10
-1.5395477688852282
 20
-29.56555281131034
 40
0.2311051327894671
 50
178.91223615961553
 51
263.45961417180479
  0
ARC
  8
_0-0_
  6
CONTINUOUS
 62
    7
 10
-1.534157194496899
 20
-29.571623584359649
 40
0.2257688701918655
 50
261.9248254108262
 51
343.88566043514982
  0
LINE
  8
_0-0_
  6
CONTINUOUS
 62
    7
 10
-1.7852355252339294
 20
-28.59596363000562
 11
-1.7706112540226968
 21
-29.561165529946969
  0
LINE
  8
_0-0_
  6
CONTINUOUS
 62
    7
 10
-1.3172588464744877
 20
-29.634286886003132
 11
-1.3318831176857202
 21
-28.610587901216853
  0
ARC
  8
_0-0_
  6
CONTINUOUS
 62
    7
 10
9.3963631294071916
 20
-11.733752351821558
 40
0.2549924862182569
 50
108.62645067295037
 51
175.57900726515521
  0
ARC
  8
_0-0_
  6
CONTINUOUS
 62
    7
 10
9.3170713197025066
 20
-11.736775983303268
 40
0.2446693458208612
 50
26.493182467867552
 51
90.503948884034344
  0
ARC
  8
_0-0_
  6
CONTINUOUS
 62
    7
 10
9.3977863233029666
 20
-11.762888115519864
 40
0.1934180925555484
 50
346.74917142885079
 51
44.370758914796561
  0
ARC
  8
_0-0_
  6
CONTINUOUS
 62
    7
 10
9.2157171667954572
 20
-12.711618599624259
 40
0.2311051327894671
 50
168.91223615961553
 51
253.45961417180476
  0
ARC
  8
_0-0_
  6
CONTINUOUS
 62
    7
 10
9.21997166756924
 20
-12.718533207409109
 40
0.2257688701918655
 50
251.92482541082623
 51
333.88566043514982
  0
LINE
  8
_0-0_
  6
CONTINUOUS
 62
    7
 10
9.1421293539422237
 20
-11.714096425473578
 11
8.9889258986077181
 21
-12.667174217803471
  0
LINE
  8
_0-0_
  6
CONTINUOUS
 62
    7
 10
9.4226934741802637
 20
-12.817908515570011
 11
9.5860548416969067
 21
-11.807222340556216
  0
ARC
  8
_0-0_
  6
CONTINUOUS
 62
    7
 10
-9.3227040209704768
 20
-9.3353718731794189
 40
0.2549924862182569
 50
108.62645067295037
 51
175.57900726515521
  0
ARC
  8
_0-0_
  6
CONTINUOUS
 62
    7
 10
-9.4019958306751619
 20
-9.3383955046611291
 40
0.2446693458208612
 50
26.493182467867552
 51
90.503948884034344
  0
ARC
  8
_0-0_
  6
CONTINUOUS
 62
    7
 10
-9.3212808270747018
 20
-9.3645076368777254
 40
0.1934180925555484
 50
346.74917142885079
 51
44.370758914796561
  0
ARC
  8
_0-0_
  6
CONTINUOUS
 62
    7
 10
-9.5033499835822113
 20
-10.31323812098212
 40
0.2311051327894671
 50
168.91223615961553
 51
253.45961417180476
  0
ARC
  8
_0-0_
  6
CONTINUOUS
 62
    7
 10
-9.4990954828084284
 20
-10.320152728766971
 40
0.2257688701918655
 50
251.92482541082623
 51
333.88566043514982
  0
LINE
  8
_0-0_
  6
CONTINUOUS
 62
    7
 10
-9.5769377964354447
 20
-9.315715946831439
 11
-9.7301412517699504
 21
-10.268793739161332
  0
LINE
  8
_0-0_
  6
CONTINUOUS
 62
    7
 10
-9.2963736761974047
 20
-10.419528036927872
 11
-9.1330123086807617
 21
-9.4088418619140768
  0
ARC
  8
_0-0_
  6
CONTINUOUS
 62
    7
 10
-25.935876116930658
 20
-7.1709797339169938
 40
0.2549924862182569
 50
108.62645067295037
 51
175.57900726515521
  0
ARC
  8
_0-0_
  6
CONTINUOUS
 62
    7
 10
-26.015167926635343
 20
-7.1740033653987041
 40
0.2446693458208612
 50
26.493182467867552
 51
90.503948884034344
  0
ARC
  8
_0-0_
  6
CONTINUOUS
 62
    7
 10
-25.934452923034883
 20
-7.2001154976153003
 40
0.1934180925555484
 50
346.74917142885079
 51
44.370758914796561
  0
ARC
  8
_0-0_
  6
CONTINUOUS
 62
    7
 10
-26.116522079542392
 20
-8.1488459817196954
 40
0.2311051327894671
 50
168.91223615961553
 51
253.45961417180476
  0
ARC
  8
_0-0_
  6
CONTINUOUS
 62
    7
 10
-26.112267578768609
 20
-8.1557605895045455
 40
0.2257688701918655
 50
251.92482541082623
 51
333.88566043514982
  0
LINE
  8
_0-0_
  6
CONTINUOUS
 62
    7
 10
-26.190109892395625
 20
-7.151323807569014
 11
-26.343313347730131
 21
-8.1044015998989067
  0
LINE
  8
_0-0_
  6
CONTINUOUS
 62
    7
 10
-25.909545772157585
 20
-8.255135897665447
 11
-25.746184404640942
 21
-7.2444497226516518
  0
ARC
  8
_0-0_
  6
CONTINUOUS
 62
    7
 10
12.639112470628845
 20
-4.5091108245034661
 40
0.2549924862182569
 50
88.626450672950398
 51
155.57900726515521
  0
ARC
  8
_0-0_
  6
CONTINUOUS
 62
    7
 10
12.56356839928786
 20
-4.4848327125750558
 40
0.2446693458208612
 50
6.4931824678675474
 51
70.503948884034344
  0
ARC
  8
_0-0_
  6
CONTINUOUS
 62
    7
 10
12.630484817354642
 20
-4.5369762476319409
 40
0.1934180925555484
 50
326.74917142885079
 51
24.370758914796564
  0
ARC
  8
_0-0_
  6
CONTINUOUS
 62
    7
 10
12.134910838361023
 20
-5.3662199636555954
 40
0.2311051327894671
 50
148.91223615961553
 51
233.45961417180473
  0
ARC
  8
_0-0_
  6
CONTINUOUS
 62
    7
 10
12.136543826197652
 20
-5.3741726945310688
 40
0.2257688701918655
 50
231.92482541082623
 51
313.88566043514982
  0
LINE
  8
_0-0_
  6
CONTINUOUS
 62
    7
 10
12.406933590616603
 20
-4.4036872232368012
 11
11.936997631026685
 21
-5.2468887239726314
  0
LINE
  8
_0-0_
  6
CONTINUOUS
 62
    7
 10
12.293051654802198
 20
-5.5368898796505448
 11
12.792236156814567
 21
-4.6430284173916618
  0
ARC
  8
_0-0_
  6
CONTINUOUS
 62
    7
 10
10.737957213168613
 20
-4.2458739427012802
 40
0.2549924862182569
 50
88.626450672950398
 51
155.57900726515521
  0
ARC
  8
_0-0_
  6
CONTINUOUS
 62
    7
 10
10.662413141827628
 20
-4.2215958307728698
 40
0.2446693458208612
 50
6.4931824678675474
 51
70.503948884034344
  0
ARC
  8
_0-0_
  6
CONTINUOUS
 62
    7
 10
10.72932955989441
 20
-4.2737393658297549
 40
0.1934180925555484
 50
326.74917142885079
 51
24.370758914796564
  0
ARC
  8
_0-0_
  6
CONTINUOUS
 62
    7
 10
10.233755580900791
 20
-5.1029830818534094
 40
0.2311051327894671
 50
148.91223615961553
 51
233.45961417180473
  0
ARC
  8
_0-0_
  6
CONTINUOUS
 62
    7
 10
10.23538856873742
 20
-5.1109358127288829
 40
0.2257688701918655
 50
231.92482541082623
 51
313.88566043514982
  0
LINE
  8
_0-0_
  6
CONTINUOUS
 62
    7
 10
10.505778333156371
 20
-4.1404503414346152
 11
10.035842373566453
 21
-4.9836518421704454
  0
LINE
  8
_0-0_
  6
CONTINUOUS
 62
    7
 10
10.391896397341966
 20
-5.2736529978483588
 11
10.891080899354336
 21
-4.3797915355894759
  0
ARC
  8
_0-0_
  6
CONTINUOUS
 62
    7
 10
8.9245475829757765
 20
-4.0411341457440244
 40
0.2549924862182569
 50
88.626450672950398
 51
155.57900726515521
  0
ARC
  8
_0-0_
  6
CONTINUOUS
 62
    7
 10
8.8490035116347912
 20
-4.0168560338156141
 40
0.2446693458208612
 50
6.4931824678675474
 51
70.503948884034344
  0
ARC
  8
_0-0_
  6
CONTINUOUS
 62
    7
 10
8.9159199297015732
 20
-4.0689995688724991
 40
0.1934180925555484
 50
326.74917142885079
 51
24.370758914796564
  0
ARC
  8
_0-0_
  6
CONTINUOUS
 62
    7
 10
8.4203459507079543
 20
-4.8982432848961537
 40
0.2311051327894671
 50
148.91223615961553
 51
233.45961417180473
  0
ARC
  8
_0-0_
  6
CONTINUOUS
 62
    7
 10
8.4219789385445836
 20
-4.9061960157716271
 40
0.2257688701918655
 50
231.92482541082623
 51
313.88566043514982
  0
LINE
  8
_0-0_
  6
CONTINUOUS
 62
    7
 10
8.6923687029635346
 20
-3.9357105444773595
 11
8.2224327433736164
 21
-4.7789120452131897
  0
LINE
  8
_0-0_
  6
CONTINUOUS
 62
    7
 10
8.5784867671491298
 20
-5.0689132008911031
 11
9.0776712691614989
 21
-4.1750517386322201
  0
ARC
  8
_0-0_
  6
CONTINUOUS
 62
    7
 10
7.0526408679380097
 20
-3.8363943487867687
 40
0.2549924862182569
 50
88.626450672950398
 51
155.57900726515521
  0
ARC
  8
_0-0_
  6
CONTINUOUS
 62
    7
 10
6.9770967965970243
 20
-3.8121162368583583
 40
0.2446693458208612
 50
6.4931824678675474
 51
70.503948884034344
  0
ARC
  8
_0-0_
  6
CONTINUOUS
 62
    7
 10
7.0440132146638064
 20
-3.8642597719152434
 40
0.1934180925555484
 50
326.74917142885079
 51
24.370758914796564
  0
ARC
  8
_0-0_
  6
CONTINUOUS
 62
    7
 10
6.5484392356701875
 20
-4.6935034879388979
 40
0.2311051327894671
 50
148.91223615961553
 51
233.45961417180473
  0
ARC
  8
_0-0_
  6
CONTINUOUS
 62
    7
 10
6.5500722235068167
 20
-4.7014562188143714
 40
0.2257688701918655
 50
231.92482541082623
 51
313.88566043514982
  0
LINE
  8
_0-0_
  6
CONTINUOUS
 62
    7
 10
6.8204619879257677
 20
-3.7309707475201037
 11
6.3505260283358496
 21
-4.5741722482559339
  0
LINE
  8
_0-0_
  6
CONTINUOUS
 62
    7
 10
6.706580052111363
 20
-4.8641734039338473
 11
7.2057645541237321
 21
-3.9703119416749644
  0
ARC
  8
_0-0_
  6
CONTINUOUS
 62
    7
 10
5.3562254074350335
 20
-3.6316545518295129
 40
0.2549924862182569
 50
88.626450672950398
 51
155.57900726515521
  0
ARC
  8
_0-0_
  6
CONTINUOUS
 62
    7
 10
5.2806813360940481
 20
-3.6073764399011026
 40
0.2446693458208612
 50
6.4931824678675474
 51
70.503948884034344
  0
ARC
  8
_0-0_
  6
CONTINUOUS
 62
    7
 10
5.3475977541608302
 20
-3.6595199749579876
 40
0.1934180925555484
 50
326.74917142885079
 51
24.370758914796564
  0
ARC
  8
_0-0_
  6
CONTINUOUS
 62
    7
 10
4.8520237751672113
 20
-4.4887636909816422
 40
0.2311051327894671
 50
148.91223615961553
 51
233.45961417180473
  0
ARC
  8
_0-0_
  6
CONTINUOUS
 62
    7
 10
4.8536567630038405
 20
-4.4967164218571156
 40
0.2257688701918655
 50
231.92482541082623
 51
313.88566043514982
  0
LINE
  8
_0-0_
  6
CONTINUOUS
 62
    7
 10
5.1240465274227915
 20
-3.526230950562848
 11
4.6541105678328734
 21
-4.3694324512986782
  0
LINE
  8
_0-0_
  6
CONTINUOUS
 62
    7
 10
5.0101645916083868
 20
-4.6594336069765916
 11
5.5093490936207559
 21
-3.7655721447177086
  0
ARC
  8
_0-0_
  6
CONTINUOUS
 62
    7
 10
3.572064319664662
 20
-3.4854118397171874
 40
0.2549924862182569
 50
88.626450672950398
 51
155.57900726515521
  0
ARC
  8
_0-0_
  6
CONTINUOUS
 62
    7
 10
3.4965202483236766
 20
-3.461133727788777
 40
0.2446693458208612
 50
6.4931824678675474
 51
70.503948884034344
  0
ARC
  8
_0-0_
  6
CONTINUOUS
 62
    7
 10
3.5634366663904586
 20
-3.5132772628456621
 40
0.1934180925555484
 50
326.74917142885079
 51
24.370758914796564
  0
ARC
  8
_0-0_
  6
CONTINUOUS
 62
    7
 10
3.0678626873968398
 20
-4.3425209788693167
 40
0.2311051327894671
 50
148.91223615961553
 51
233.45961417180473
  0
ARC
  8
_0-0_
  6
CONTINUOUS
 62
    7
 10
3.069495675233469
 20
-4.3504737097447901
 40
0.2257688701918655
 50
231.92482541082623
 51
313.88566043514982
  0
LINE
  8
_0-0_
  6
CONTINUOUS
 62
    7
 10
3.33988543965242
 20
-3.3799882384505224
 11
2.8699494800625018
 21
-4.2231897391863527
  0
LINE
  8
_0-0_
  6
CONTINUOUS
 62
    7
 10
3.2260035038380153
 20
-4.5131908948642661
 11
3.7251880058503843
 21
-3.6193294326053831
  0
ARC
  8
_0-0_
  6
CONTINUOUS
 62
    7
 10
1.7586546894718253
 20
-3.2514235003374665
 40
0.2549924862182569
 50
88.626450672950398
 51
155.57900726515521
  0
ARC
  8
_0-0_
  6
CONTINUOUS
 62
    7
 10
1.68311061813084
 20
-3.2271453884090562
 40
0.2446693458208612
 50
6.4931824678675474
 51
70.503948884034344
  0
ARC
  8
_0-0_
  6
CONTINUOUS
 62
    7
 10
1.750027036197622
 20
-3.2792889234659413
 40
0.1934180925555484
 50
326.74917142885079
 51
24.370758914796564
  0
ARC
  8
_0-0_
  6
CONTINUOUS
 62
    7
 10
1.2544530572040031
 20
-4.1085326394895958
 40
0.2311051327894671
 50
148.91223615961553
 51
233.45961417180473
  0
ARC
  8
_0-0_
  6
CONTINUOUS
 62
    7
 10
1.2560860450406324
 20
-4.1164853703650692
 40
0.2257688701918655
 50
231.92482541082623
 51
313.88566043514982
  0
LINE
  8
_0-0_
  6
CONTINUOUS
 62
    7
 10
1.5264758094595834
 20
-3.1459998990708016
 11
1.0565398498696652
 21
-3.9892013998066318
  0
LINE
  8
_0-0_
  6
CONTINUOUS
 62
    7
 10
1.4125938736451786
 20
-4.2792025554845452
 11
1.9117783756575477
 21
-3.3853410932256622
  0
ARC
  8
_0-0_
  6
CONTINUOUS
 62
    7
 10
-0.0491429329548651
 20
-3.1134005857097975
 40
0.2294932375964312
 50
88.626450672950398
 51
155.57900726515521
  0
ARC
  8
_0-0_
  6
CONTINUOUS
 62
    7
 10
-0.1171325971617562
 20
-3.0915502849742325
 40
0.2202024112387751
 50
6.4931824678675474
 51
70.503948884034344
  0
ARC
  8
_0-0_
  6
CONTINUOUS
 62
    7
 10
-0.0569078209016282
 20
-3.1384794665254248
 40
0.1740762832999935
 50
326.74917142885079
 51
24.370758914796564
  0
ARC
  8
_0-0_
  6
CONTINUOUS
 62
    7
 10
-0.5029244019959122
 20
-3.8847988109467053
 40
0.2079946195105204
 50
148.91223615961553
 51
233.45961417180473
  0
ARC
  8
_0-0_
  6
CONTINUOUS
 62
    7
 10
-0.5014547129429445
 20
-3.8919562687346456
 40
0.2031919831726789
 50
231.92482541082623
 51
313.88566043514982
  0
LINE
  8
_0-0_
  6
CONTINUOUS
 62
    7
 10
-0.25810392496588
 20
-3.0185193445697962
 11
-0.6810462885968036
 21
-3.7774006952320462
  0
LINE
  8
_0-0_
  6
CONTINUOUS
 62
    7
 10
-0.3605976671988315
 20
-4.0384017353421768
 11
0.0886683846122906
 21
-3.2339264193091708
  0
ARC
  8
_0-0_
  6
CONTINUOUS
 62
    7
 10
-1.6870613086129111
 20
-2.9379093311750069
 40
0.2294932375964312
 50
88.626450672950398
 51
155.57900726515521
  0
ARC
  8
_0-0_
  6
CONTINUOUS
 62
    7
 10
-1.7550509728198023
 20
-2.9160590304394418
 40
0.2202024112387751
 50
6.4931824678675474
 51
70.503948884034344
  0
ARC
  8
_0-0_
  6
CONTINUOUS
 62
    7
 10
-1.6948261965596743
 20
-2.9629882119906341
 40
0.1740762832999935
 50
326.74917142885079
 51
24.370758914796564
  0
ARC
  8
_0-0_
  6
CONTINUOUS
 62
    7
 10
-2.1408427776539583
 20
-3.7093075564119147
 40
0.2079946195105204
 50
148.91223615961553
 51
233.45961417180473
  0
ARC
  8
_0-0_
  6
CONTINUOUS
 62
    7
 10
-2.1393730886009905
 20
-3.716465014199855
 40
0.2031919831726789
 50
231.92482541082623
 51
313.88566043514982
  0
LINE
  8
_0-0_
  6
CONTINUOUS
 62
    7
 10
-1.8960223006239261
 20
-2.8430280900350056
 11
-2.3189646642548496
 21
-3.6019094406972556
  0
LINE
  8
_0-0_
  6
CONTINUOUS
 62
    7
 10
-1.9985160428568776
 20
-3.8629104808073862
 11
-1.5492499910457553
 21
-3.0584351647743802
  0
ARC
  8
_0-0_
  6
CONTINUOUS
 62
    7
 10
-3.4127253115383525
 20
-2.7624180766402162
 40
0.2294932375964312
 50
88.626450672950398
 51
155.57900726515521
  0
ARC
  8
_0-0_
  6
CONTINUOUS
 62
    7
 10
-3.4807149757452436
 20
-2.7405677759046512
 40
0.2202024112387751
 50
6.4931824678675474
 51
70.503948884034344
  0
ARC
  8
_0-0_
  6
CONTINUOUS
 62
    7
 10
-3.4204901994851156
 20
-2.7874969574558435
 40
0.1740762832999935
 50
326.74917142885079
 51
24.370758914796564
  0
ARC
  8
_0-0_
  6
CONTINUOUS
 62
    7
 10
-3.8665067805793996
 20
-3.533816301877124
 40
0.2079946195105204
 50
148.91223615961553
 51
233.45961417180473
  0
ARC
  8
_0-0_
  6
CONTINUOUS
 62
    7
 10
-3.8650370915264318
 20
-3.5409737596650643
 40
0.2031919831726789
 50
231.92482541082623
 51
313.88566043514982
  0
LINE
  8
_0-0_
  6
CONTINUOUS
 62
    7
 10
-3.6216863035493674
 20
-2.6675368355002149
 11
-4.0446286671802909
 21
-3.426418186162465
  0
LINE
  8
_0-0_
  6
CONTINUOUS
 62
    7
 10
-3.7241800457823189
 20
-3.6874192262725956
 11
-3.2749139939711966
 21
-2.8829439102395895
  0
ARC
  8
_0-0_
  6
CONTINUOUS
 62
    7
 10
-8.5841053125485161
 20
-2.2734126529429659
 40
0.2039939889746055
 50
88.626450672950398
 51
155.57900726515521
  0
ARC
  8
_0-0_
  6
CONTINUOUS
 62
    7
 10
-8.6445405696212987
 20
-2.2539901634002462
 40
0.195735476656689
 50
6.4931824678675474
 51
70.503948884034344
  0
ARC
  8
_0-0_
  6
CONTINUOUS
 62
    7
 10
-8.5910074351678816
 20
-2.2957049914457457
 40
0.1547344740444387
 50
326.74917142885079
 51
24.370758914796564
  0
ARC
  8
_0-0_
  6
CONTINUOUS
 62
    7
 10
-8.9874666183627738
 20
-2.9590999642646807
 40
0.1848841062315737
 50
148.91223615961553
 51
233.45961417180473
  0
ARC
  8
_0-0_
  6
CONTINUOUS
 62
    7
 10
-8.9861602280934818
 20
-2.9654621489650594
 40
0.1806150961534924
 50
231.92482541082623
 51
313.88566043514982
  0
LINE
  8
_0-0_
  6
CONTINUOUS
 62
    7
 10
-8.7698484165583039
 20
-2.1890737719296283
 11
-9.1457971842302328
 21
-2.8636349725182981
  0
LINE
  8
_0-0_
  6
CONTINUOUS
 62
    7
 10
-8.8609539652098306
 20
-3.0956358970606317
 11
-8.4616063635999268
 21
-2.3805467272535452
  0
ARC
  8
_0-0_
  6
CONTINUOUS
 62
    7
 10
-10.222023688206562
 20
-2.0979213984081753
 40
0.2039939889746055
 50
88.626450672950398
 51
155.57900726515521
  0
ARC
  8
_0-0_
  6
CONTINUOUS
 62
    7
 10
-10.282458945279345
 20
-2.0784989088654555
 40
0.195735476656689
 50
6.4931824678675474
 51
70.503948884034344
  0
ARC
  8
_0-0_
  6
CONTINUOUS
 62
    7
 10
-10.228925810825928
 20
-2.120213736910955
 40
0.1547344740444387
 50
326.74917142885079
 51
24.370758914796564
  0
ARC
  8
_0-0_
  6
CONTINUOUS
 62
    7
 10
-10.62538499402082
 20
-2.7836087097298901
 40
0.1848841062315737
 50
148.91223615961553
 51
233.45961417180473
  0
ARC
  8
_0-0_
  6
CONTINUOUS
 62
    7
 10
-10.624078603751528
 20
-2.7899708944302688
 40
0.1806150961534924
 50
231.92482541082623
 51
313.88566043514982
  0
LINE
  8
_0-0_
  6
CONTINUOUS
 62
    7
 10
-10.40776679221635
 20
-2.0135825173948376
 11
-10.783715559888279
 21
-2.6881437179835075
  0
LINE
  8
_0-0_
  6
CONTINUOUS
 62
    7
 10
-10.498872340867877
 20
-2.920144642525841
 11
-10.099524739257973
 21
-2.2050554727187546
  0
ARC
  8
_0-0_
  6
CONTINUOUS
 62
    7
 10
-11.830693521442143
 20
-1.9224301438733846
 40
0.2039939889746055
 50
88.626450672950398
 51
155.57900726515521
  0
ARC
  8
_0-0_
  6
CONTINUOUS
 62
    7
 10
-11.891128778514926
 20
-1.9030076543306649
 40
0.195735476656689
 50
6.4931824678675474
 51
70.503948884034344
  0
ARC
  8
_0-0_
  6
CONTINUOUS
 62
    7
 10
-11.837595644061508
 20
-1.9447224823761644
 40
0.1547344740444387
 50
326.74917142885079
 51
24.370758914796564
  0
ARC
  8
_0-0_
  6
CONTINUOUS
 62
    7
 10
-12.234054827256401
 20
-2.6081174551950994
 40
0.1848841062315737
 50
148.91223615961553
 51
233.45961417180473
  0
ARC
  8
_0-0_
  6
CONTINUOUS
 62
    7
 10
-12.232748436987109
 20
-2.6144796398954782
 40
0.1806150961534924
 50
231.92482541082623
 51
313.88566043514982
  0
LINE
  8
_0-0_
  6
CONTINUOUS
 62
    7
 10
-12.016436625451931
 20
-1.838091262860047
 11
-12.39238539312386
 21
-2.5126524634487168
  0
LINE
  8
_0-0_
  6
CONTINUOUS
 62
    7
 10
-12.107542174103457
 20
-2.7446533879910504
 11
-11.708194572493554
 21
-2.0295642181839639
  0
ARC
  8
_0-0_
  6
CONTINUOUS
 62
    7
 10
-13.439363354677724
 20
-1.746938889338594
 40
0.2039939889746055
 50
88.626450672950398
 51
155.57900726515521
  0
ARC
  8
_0-0_
  6
CONTINUOUS
 62
    7
 10
-13.499798611750506
 20
-1.7275163997958742
 40
0.195735476656689
 50
6.4931824678675474
 51
70.503948884034344
  0
ARC
  8
_0-0_
  6
CONTINUOUS
 62
    7
 10
-13.446265477297089
 20
-1.7692312278413738
 40
0.1547344740444387
 50
326.74917142885079
 51
24.370758914796564
  0
ARC
  8
_0-0_
  6
CONTINUOUS
 62
    7
 10
-13.842724660491982
 20
-2.4326262006603088
 40
0.1848841062315737
 50
148.91223615961553
 51
233.45961417180473
  0
ARC
  8
_0-0_
  6
CONTINUOUS
 62
    7
 10
-13.84141827022269
 20
-2.4389883853606875
 40
0.1806150961534924
 50
231.92482541082623
 51
313.88566043514982
  0
LINE
  8
_0-0_
  6
CONTINUOUS
 62
    7
 10
-13.625106458687512
 20
-1.6626000083252563
 11
-14.001055226359441
 21
-2.3371612089139262
  0
LINE
  8
_0-0_
  6
CONTINUOUS
 62
    7
 10
-13.716212007339038
 20
-2.5691621334562598
 11
-13.316864405729135
 21
-1.8540729636491733
  0
ARC
  8
_0-0_
  6
CONTINUOUS
 62
    7
 10
-15.01878464549084
 20
-1.5714476348038033
 40
0.2039939889746055
 50
88.626450672950398
 51
155.57900726515521
  0
ARC
  8
_0-0_
  6
CONTINUOUS
 62
    7
 10
-15.079219902563622
 20
-1.5520251452610836
 40
0.195735476656689
 50
6.4931824678675474
 51
70.503948884034344
  0
ARC
  8
_0-0_
  6
CONTINUOUS
 62
    7
 10
-15.025686768110205
 20
-1.5937399733065831
 40
0.1547344740444387
 50
326.74917142885079
 51
24.370758914796564
  0
ARC
  8
_0-0_
  6
CONTINUOUS
 62
    7
 10
-15.422145951305097
 20
-2.2571349461255181
 40
0.1848841062315737
 50
148.91223615961553
 51
233.45961417180473
  0
ARC
  8
_0-0_
  6
CONTINUOUS
 62
    7
 10
-15.420839561035805
 20
-2.2634971308258969
 40
0.1806150961534924
 50
231.92482541082623
 51
313.88566043514982
  0
LINE
  8
_0-0_
  6
CONTINUOUS
 62
    7
 10
-15.204527749500627
 20
-1.4871087537904657
 11
-15.580476517172556
 21
-2.1616699543791356
  0
LINE
  8
_0-0_
  6
CONTINUOUS
 62
    7
 10
-15.295633298152154
 20
-2.3936708789214691
 11
-14.89628569654225
 21
-1.6785817091143826
  0
ARC
  8
_0-0_
  6
CONTINUOUS
 62
    7
 10
-16.481211766614095
 20
-1.3959563802690127
 40
0.2039939889746055
 50
88.626450672950398
 51
155.57900726515521
  0
ARC
  8
_0-0_
  6
CONTINUOUS
 62
    7
 10
-16.541647023686878
 20
-1.376533890726293
 40
0.195735476656689
 50
6.4931824678675474
 51
70.503948884034344
  0
ARC
  8
_0-0_
  6
CONTINUOUS
 62
    7
 10
-16.48811388923346
 20
-1.4182487187717925
 40
0.1547344740444387
 50
326.74917142885079
 51
24.370758914796564
  0
ARC
  8
_0-0_
  6
CONTINUOUS
 62
    7
 10
-16.884573072428353
 20
-2.0816436915907275
 40
0.1848841062315737
 50
148.91223615961553
 51
233.45961417180473
  0
ARC
  8
_0-0_
  6
CONTINUOUS
 62
    7
 10
-16.883266682159061
 20
-2.0880058762911062
 40
0.1806150961534924
 50
231.92482541082623
 51
313.88566043514982
  0
LINE
  8
_0-0_
  6
CONTINUOUS
 62
    7
 10
-16.666954870623883
 20
-1.3116174992556751
 11
-17.042903638295812
 21
-1.9861786998443449
  0
LINE
  8
_0-0_
  6
CONTINUOUS
 62
    7
 10
-16.758060419275409
 20
-2.2181796243866785
 11
-16.358712817665506
 21
-1.503090454579592
  0
ARC
  8
_0-0_
  6
CONTINUOUS
 62
    7
 10
-18.14276667692846
 20
-1.2286849232188786
 40
0.1784947403527798
 50
88.626450672950398
 51
155.57900726515521
  0
ARC
  8
_0-0_
  6
CONTINUOUS
 62
    7
 10
-18.195647526867148
 20
-1.2116902448690041
 40
0.1712685420746029
 50
6.4931824678675474
 51
70.503948884034344
  0
ARC
  8
_0-0_
  6
CONTINUOUS
 62
    7
 10
-18.148806034220385
 20
-1.2481907194088251
 40
0.1353926647888839
 50
326.74917142885079
 51
24.370758914796564
  0
ARC
  8
_0-0_
  6
CONTINUOUS
 62
    7
 10
-18.495707819515928
 20
-1.8286613206253719
 40
0.161773592952627
 50
148.91223615961553
 51
233.45961417180473
  0
ARC
  8
_0-0_
  6
CONTINUOUS
 62
    7
 10
-18.494564728030284
 20
-1.8342282322382175
 40
0.1580382091343058
 50
231.92482541082623
 51
313.88566043514982
  0
LINE
  8
_0-0_
  6
CONTINUOUS
 62
    7
 10
-18.305291892937021
 20
-1.1548884023322188
 11
-18.634247064649955
 21
-1.7451294528472943
  0
LINE
  8
_0-0_
  6
CONTINUOUS
 62
    7
 10
-18.385009248007108
 20
-1.948130261821845
 11
-18.035580096598437
 21
-1.3224272382406355
  0
ARC
  8
_0-0_
  6
CONTINUOUS
 62
    7
 10
-19.663690882896645
 20
-1.0531936686840879
 40
0.1784947403527798
 50
88.626450672950398
 51
155.57900726515521
  0
ARC
  8
_0-0_
  6
CONTINUOUS
 62
    7
 10
-19.716571732835334
 20
-1.0361989903342135
 40
0.1712685420746029
 50
6.4931824678675474
 51
70.503948884034344
  0
ARC
  8
_0-0_
  6
CONTINUOUS
 62
    7
 10
-19.669730240188571
 20
-1.0726994648740344
 40
0.1353926647888839
 50
326.74917142885079
 51
24.370758914796564
  0
ARC
  8
_0-0_
  6
CONTINUOUS
 62
    7
 10
-20.016632025484114
 20
-1.6531700660905813
 40
0.161773592952627
 50
148.91223615961553
 51
233.45961417180473
  0
ARC
  8
_0-0_
  6
CONTINUOUS
 62
    7
 10
-20.015488933998469
 20
-1.6587369777034269
 40
0.1580382091343058
 50
231.92482541082623
 51
313.88566043514982
  0
LINE
  8
_0-0_
  6
CONTINUOUS
 62
    7
 10
-19.826216098905206
 20
-0.9793971477974281
 11
-20.155171270618141
 21
-1.5696381983125036
  0
LINE
  8
_0-0_
  6
CONTINUOUS
 62
    7
 10
-19.905933453975294
 20
-1.7726390072870544
 11
-19.556504302566623
 21
-1.1469359837058448
  0
ARC
  8
_0-0_
  6
CONTINUOUS
 62
    7
 10
-21.155366546442366
 20
-0.9361994989942275
 40
0.1784947403527798
 50
88.626450672950398
 51
155.57900726515521
  0
ARC
  8
_0-0_
  6
CONTINUOUS
 62
    7
 10
-21.208247396381054
 20
-0.919204820644353
 40
0.1712685420746029
 50
6.4931824678675474
 51
70.503948884034344
  0
ARC
  8
_0-0_
  6
CONTINUOUS
 62
    7
 10
-21.161405903734291
 20
-0.955705295184174
 40
0.1353926647888839
 50
326.74917142885079
 51
24.370758914796564
  0
ARC
  8
_0-0_
  6
CONTINUOUS
 62
    7
 10
-21.508307689029834
 20
-1.5361758964007208
 40
0.161773592952627
 50
148.91223615961553
 51
233.45961417180473
  0
ARC
  8
_0-0_
  6
CONTINUOUS
 62
    7
 10
-21.50716459754419
 20
-1.5417428080135664
 40
0.1580382091343058
 50
231.92482541082623
 51
313.88566043514982
  0
LINE
  8
_0-0_
  6
CONTINUOUS
 62
    7
 10
-21.317891762450927
 20
-0.8624029781075677
 11
-21.646846934163861
 21
-1.4526440286226432
  0
LINE
  8
_0-0_
  6
CONTINUOUS
 62
    7
 10
-21.397609117521014
 20
-1.6556448375971939
 11
-21.048179966112343
 21
-1.0299418140159844
  0
ARC
  8
_0-0_
  6
CONTINUOUS
 62
    7
 10
-22.617793667565621
 20
-0.7899567868819019
 40
0.1784947403527798
 50
88.626450672950398
 51
155.57900726515521
  0
ARC
  8
_0-0_
  6
CONTINUOUS
 62
    7
 10
-22.67067451750431
 20
-0.7729621085320275
 40
0.1712685420746029
 50
6.4931824678675474
 51
70.503948884034344
  0
ARC
  8
_0-0_
  6
CONTINUOUS
 62
    7
 10
-22.623833024857547
 20
-0.8094625830718484
 40
0.1353926647888839
 50
326.74917142885079
 51
24.370758914796564
  0
ARC
  8
_0-0_
  6
CONTINUOUS
 62
    7
 10
-22.97073481015309
 20
-1.3899331842883953
 40
0.161773592952627
 50
148.91223615961553
 51
233.45961417180473
  0
ARC
  8
_0-0_
  6
CONTINUOUS
 62
    7
 10
-22.969591718667445
 20
-1.3955000959012409
 40
0.1580382091343058
 50
231.92482541082623
 51
313.88566043514982
  0
LINE
  8
_0-0_
  6
CONTINUOUS
 62
    7
 10
-22.780318883574182
 20
-0.7161602659952421
 11
-23.109274055287116
 21
-1.3064013165103177
  0
LINE
  8
_0-0_
  6
CONTINUOUS
 62
    7
 10
-22.86003623864427
 20
-1.5094021254848684
 11
-22.510607087235599
 21
-0.8836991019036588
  0
ARC
  8
_0-0_
  6
CONTINUOUS
 62
    7
 10
-3.503654056976643
 20
19.133602552697269
 40
0.9163725004268125
 50
107.4306867292286
 51
176.51485184282384
  0
ARC
  8
_0-0_
  6
CONTINUOUS
 62
    7
 10
-4.1442119808353794
 20
19.25648341340856
 40
0.2822306279129449
 50
193.76933627781625
 51
303.59483917126062
  0
ARC
  8
_0-0_
  6
CONTINUOUS
 62
    7
 10
-4.4583853215384295
 20
20.564529609917983
 40
1.6132220315832053
 50
286.9508243426119
 51
321.80986510507699
  0
ARC
  8
_0-0_
  6
CONTINUOUS
 62
    7
 10
-3.8529298494776612
 20
19.801936769225719
 40
0.7028633816217972
 50
340.48285111406295
 51
13.491573877571261
  0
ARC
  8
_0-0_
  6
CONTINUOUS
 62
    7
 10
-3.5009201224903279
 20
19.593791887181055
 40
0.4983380772777339
 50
48.30800838368917
 51
123.80161915823756
  0
ARC
  8
_0-0_
  6
CONTINUOUS
 62
    7
 10
3.8725434518835158
 20
18.988672764650602
 40
0.9163725004268125
 50
107.4306867292286
 51
176.51485184282384
  0
ARC
  8
_0-0_
  6
CONTINUOUS
 62
    7
 10
3.2319855280247793
 20
19.111553625361893
 40
0.2822306279129449
 50
193.76933627781625
 51
303.59483917126062
  0
ARC
  8
_0-0_
  6
CONTINUOUS
 62
    7
 10
2.9178121873217293
 20
20.419599821871316
 40
1.6132220315832053
 50
286.9508243426119
 51
321.80986510507699
  0
ARC
  8
_0-0_
  6
CONTINUOUS
 62
    7
 10
3.5232676593824976
 20
19.657006981179052
 40
0.7028633816217972
 50
340.48285111406295
 51
13.491573877571261
  0
ARC
  8
_0-0_
  6
CONTINUOUS
 62
    7
 10
3.8752773863698309
 20
19.448862099134388
 40
0.4983380772777339
 50
48.30800838368917
 51
123.80161915823756
  0
ARC
  8
_0-0_
  6
CONTINUOUS
 62
    7
 10
-8.3118031726800865
 20
17.152100276021287
 40
0.9163725004268125
 50
107.4306867292286
 51
176.51485184282384
  0
ARC
  8
_0-0_
  6
CONTINUOUS
 62
    7
 10
-8.9523610965388229
 20
17.274981136732578
 40
0.2822306279129449
 50
193.76933627781625
 51
303.59483917126062
  0
ARC
  8
_0-0_
  6
CONTINUOUS
 62
    7
 10
-9.266534437241873
 20
18.583027333242001
 40
1.6132220315832053
 50
286.9508243426119
 51
321.80986510507699
  0
ARC
  8
_0-0_
  6
CONTINUOUS
 62
    7
 10
-8.6610789651811046
 20
17.820434492549737
 40
0.7028633816217972
 50
340.48285111406295
 51
13.491573877571261
  0
ARC
  8
_0-0_
  6
CONTINUOUS
 62
    7
 10
-8.3090692381937714
 20
17.612289610505073
 40
0.4983380772777339
 50
48.30800838368917
 51
123.80161915823756
  0
ARC
  8
_0-0_
  6
CONTINUOUS
 62
    7
 10
11.628126703866712
 20
18.694821166469922
 40
0.9163725004268125
 50
107.4306867292286
 51
176.51485184282384
  0
ARC
  8
_0-0_
  6
CONTINUOUS
 62
    7
 10
10.987568780007976
 20
18.817702027181213
 40
0.2822306279129449
 50
193.76933627781625
 51
303.59483917126062
  0
ARC
  8
_0-0_
  6
CONTINUOUS
 62
    7
 10
10.673395439304926
 20
20.125748223690636
 40
1.6132220315832053
 50
286.9508243426119
 51
321.80986510507699
  0
ARC
  8
_0-0_
  6
CONTINUOUS
 62
    7
 10
11.278850911365694
 20
19.363155382998372
 40
0.7028633816217972
 50
340.48285111406295
 51
13.491573877571261
  0
ARC
  8
_0-0_
  6
CONTINUOUS
 62
    7
 10
11.630860638353028
 20
19.155010500953708
 40
0.4983380772777339
 50
48.30800838368917
 51
123.80161915823756
  0
ARC
  8
_0-0_
  6
CONTINUOUS
 62
    7
 10
5.7720841401229706
 20
8.8927714271569158
 40
0.9163725004268125
 50
107.4306867292286
 51
176.51485184282384
  0
ARC
  8
_0-0_
  6
CONTINUOUS
 62
    7
 10
5.1315262162642341
 20
9.0156522878682068
 40
0.2822306279129449
 50
193.76933627781625
 51
303.59483917126062
  0
ARC
  8
_0-0_
  6
CONTINUOUS
 62
    7
 10
4.8173528755611841
 20
10.32369848437763
 40
1.6132220315832053
 50
286.9508243426119
 51
321.80986510507699
  0
ARC
  8
_0-0_
  6
CONTINUOUS
 62
    7
 10
5.4228083476219524
 20
9.5611056436853659
 40
0.7028633816217972
 50
340.48285111406295
 51
13.491573877571261
  0
ARC
  8
_0-0_
  6
CONTINUOUS
 62
    7
 10
5.7748180746092856
 20
9.352960761640702
 40
0.4983380772777339
 50
48.30800838368917
 51
123.80161915823756
  0
ARC
  8
_0-0_
  6
CONTINUOUS
 62
    7
 10
-1.9730044119252028
 20
9.3755276241680434
 40
0.9163725004268125
 50
107.4306867292286
 51
176.51485184282384
  0
ARC
  8
_0-0_
  6
CONTINUOUS
 62
    7
 10
-2.6135623357839393
 20
9.4984084848793344
 40
0.2822306279129449
 50
193.76933627781625
 51
303.59483917126062
  0
ARC
  8
_0-0_
  6
CONTINUOUS
 62
    7
 10
-2.9277356764869893
 20
10.806454681388757
 40
1.6132220315832053
 50
286.9508243426119
 51
321.80986510507699
  0
ARC
  8
_0-0_
  6
CONTINUOUS
 62
    7
 10
-2.322280204426221
 20
10.043861840696493
 40
0.7028633816217972
 50
340.48285111406295
 51
13.491573877571261
  0
ARC
  8
_0-0_
  6
CONTINUOUS
 62
    7
 10
-1.9702704774388877
 20
9.8357169586518296
 40
0.4983380772777339
 50
48.30800838368917
 51
123.80161915823756
  0
ARC
  8
_0-0_
  6
CONTINUOUS
 62
    7
 10
-9.2563261668323094
 20
9.8372944213091245
 40
0.9163725004268125
 50
107.4306867292286
 51
176.51485184282384
  0
ARC
  8
_0-0_
  6
CONTINUOUS
 62
    7
 10
-9.8968840906910458
 20
9.9601752820204155
 40
0.2822306279129449
 50
193.76933627781625
 51
303.59483917126062
  0
ARC
  8
_0-0_
  6
CONTINUOUS
 62
    7
 10
-10.211057431394096
 20
11.268221478529838
 40
1.6132220315832053
 50
286.9508243426119
 51
321.80986510507699
  0
ARC
  8
_0-0_
  6
CONTINUOUS
 62
    7
 10
-9.6056019593333275
 20
10.505628637837575
 40
0.7028633816217972
 50
340.48285111406295
 51
13.491573877571261
  0
ARC
  8
_0-0_
  6
CONTINUOUS
 62
    7
 10
-9.2535922323459943
 20
10.297483755792911
 40
0.4983380772777339
 50
48.30800838368917
 51
123.80161915823756
  0
ARC
  8
_0-0_
  6
CONTINUOUS
 62
    7
 10
-12.740566545260478
 20
10.047188420009618
 40
0.9163725004268125
 50
107.4306867292286
 51
176.51485184282384
  0
ARC
  8
_0-0_
  6
CONTINUOUS
 62
    7
 10
-13.381124469119214
 20
10.170069280720909
 40
0.2822306279129449
 50
193.76933627781625
 51
303.59483917126062
  0
ARC
  8
_0-0_
  6
CONTINUOUS
 62
    7
 10
-13.695297809822264
 20
11.478115477230332
 40
1.6132220315832053
 50
286.9508243426119
 51
321.80986510507699
  0
ARC
  8
_0-0_
  6
CONTINUOUS
 62
    7
 10
-13.089842337761496
 20
10.715522636538068
 40
0.7028633816217972
 50
340.48285111406295
 51
13.491573877571261
  0
ARC
  8
_0-0_
  6
CONTINUOUS
 62
    7
 10
-12.737832610774163
 20
10.507377754493405
 40
0.4983380772777339
 50
48.30800838368917
 51
123.80161915823756
  0
ARC
  8
_0-0_
  6
CONTINUOUS
 62
    7
 10
13.873992489961992
 20
8.3470470305356343
 40
0.9163725004268125
 50
107.4306867292286
 51
176.51485184282384
  0
ARC
  8
_0-0_
  6
CONTINUOUS
 62
    7
 10
13.233434566103256
 20
8.4699278912469254
 40
0.2822306279129449
 50
193.76933627781625
 51
303.59483917126062
  0
ARC
  8
_0-0_
  6
CONTINUOUS
 62
    7
 10
12.919261225400206
 20
9.7779740877563484
 40
1.6132220315832053
 50
286.9508243426119
 51
321.80986510507699
  0
ARC
  8
_0-0_
  6
CONTINUOUS
 62
    7
 10
13.524716697460974
 20
9.0153812470640844
 40
0.7028633816217972
 50
340.48285111406295
 51
13.491573877571261
  0
ARC
  8
_0-0_
  6
CONTINUOUS
 62
    7
 10
13.876726424448307
 20
8.8072363650194205
 40
0.4983380772777339
 50
48.30800838368917
 51
123.80161915823756
  0
ARC
  8
_0-0_
  6
CONTINUOUS
 62
    7
 10
19.772370361299252
 20
18.424811030986632
 40
0.9163725004268125
 50
107.4306867292286
 51
176.51485184282384
  0
ARC
  8
_0-0_
  6
CONTINUOUS
 62
    7
 10
19.131812437440516
 20
18.547691891697923
 40
0.2822306279129449
 50
193.76933627781625
 51
303.59483917126062
  0
ARC
  8
_0-0_
  6
CONTINUOUS
 62
    7
 10
18.817639096737466
 20
19.855738088207346
 40
1.6132220315832053
 50
286.9508243426119
 51
321.80986510507699
  0
ARC
  8
_0-0_
  6
CONTINUOUS
 62
    7
 10
19.423094568798234
 20
19.093145247515082
 40
0.7028633816217972
 50
340.48285111406295
 51
13.491573877571261
  0
ARC
  8
_0-0_
  6
CONTINUOUS
 62
    7
 10
19.775104295785567
 20
18.885000365470418
 40
0.4983380772777339
 50
48.30800838368917
 51
123.80161915823756
  0
ARC
  8
_0-0_
  6
CONTINUOUS
 62
    7
 10
22.581696809723397
 20
15.986965765825175
 40
0.9163725004268125
 50
107.4306867292286
 51
176.51485184282384
  0
ARC
  8
_0-0_
  6
CONTINUOUS
 62
    7
 10
21.94113888586466
 20
16.109846626536466
 40
0.2822306279129449
 50
193.76933627781625
 51
303.59483917126062
  0
ARC
  8
_0-0_
  6
CONTINUOUS
 62
    7
 10
21.62696554516161
 20
17.417892823045889
 40
1.6132220315832053
 50
286.9508243426119
 51
321.80986510507699
  0
ARC
  8
_0-0_
  6
CONTINUOUS
 62
    7
 10
22.232421017222379
 20
16.655299982353625
 40
0.7028633816217972
 50
340.48285111406295
 51
13.491573877571261
  0
ARC
  8
_0-0_
  6
CONTINUOUS
 62
    7
 10
22.584430744209712
 20
16.447155100308962
 40
0.4983380772777339
 50
48.30800838368917
 51
123.80161915823756
  0
ARC
  8
_0-0_
  6
CONTINUOUS
 62
    7
 10
18.054269888709271
 20
8.0233378996310876
 40
0.9163725004268125
 50
107.4306867292286
 51
176.51485184282384
  0
ARC
  8
_0-0_
  6
CONTINUOUS
 62
    7
 10
17.413711964850535
 20
8.1462187603423786
 40
0.2822306279129449
 50
193.76933627781625
 51
303.59483917126062
  0
ARC
  8
_0-0_
  6
CONTINUOUS
 62
    7
 10
17.099538624147485
 20
9.4542649568518016
 40
1.6132220315832053
 50
286.9508243426119
 51
321.80986510507699
  0
ARC
  8
_0-0_
  6
CONTINUOUS
 62
    7
 10
17.704994096208253
 20
8.6916721161595376
 40
0.7028633816217972
 50
340.48285111406295
 51
13.491573877571261
  0
ARC
  8
_0-0_
  6
CONTINUOUS
 62
    7
 10
18.057003823195586
 20
8.4835272341148737
 40
0.4983380772777339
 50
48.30800838368917
 51
123.80161915823756
  0
ARC
  8
_0-0_
  6
CONTINUOUS
 62
    7
 10
13.55006054164906
 20
-0.1028129842404297
 40
0.9163725004268125
 50
107.4306867292286
 51
176.51485184282384
  0
ARC
  8
_0-0_
  6
CONTINUOUS
 62
    7
 10
12.909502617790324
 20
0.0200678764708612
 40
0.2822306279129449
 50
193.76933627781625
 51
303.59483917126062
  0
ARC
  8
_0-0_
  6
CONTINUOUS
 62
    7
 10
12.595329277087274
 20
1.3281140729802843
 40
1.6132220315832053
 50
286.9508243426119
 51
321.80986510507699
  0
ARC
  8
_0-0_
  6
CONTINUOUS
 62
    7
 10
13.200784749148042
 20
0.5655212322880203
 40
0.7028633816217972
 50
340.48285111406295
 51
13.491573877571261
  0
ARC
  8
_0-0_
  6
CONTINUOUS
 62
    7
 10
13.552794476135375
 20
0.3573763502433564
 40
0.4983380772777339
 50
48.30800838368917
 51
123.80161915823756
  0
ARC
  8
_0-0_
  6
CONTINUOUS
 62
    7
 10
7.884972496892928
 20
-2.1459594921852698
 40
0.9163725004268125
 50
107.4306867292286
 51
176.51485184282384
  0
ARC
  8
_0-0_
  6
CONTINUOUS
 62
    7
 10
7.2444145730341916
 20
-2.0230786314739788
 40
0.2822306279129449
 50
193.76933627781625
 51
303.59483917126062
  0
ARC
  8
_0-0_
  6
CONTINUOUS
 62
    7
 10
6.9302412323311415
 20
-0.7150324349645558
 40
1.6132220315832053
 50
286.9508243426119
 51
321.80986510507699
  0
ARC
  8
_0-0_
  6
CONTINUOUS
 62
    7
 10
7.5356967043919099
 20
-1.4776252756568198
 40
0.7028633816217972
 50
340.48285111406295
 51
13.491573877571261
  0
ARC
  8
_0-0_
  6
CONTINUOUS
 62
    7
 10
7.8877064313792431
 20
-1.6857701577014836
 40
0.4983380772777339
 50
48.30800838368917
 51
123.80161915823756
  0
ARC
  8
_0-0_
  6
CONTINUOUS
 62
    7
 10
-0.1715256651168317
 20
-1.3333444037981081
 40
0.9163725004268125
 50
107.4306867292286
 51
176.51485184282384
  0
ARC
  8
_0-0_
  6
CONTINUOUS
 62
    7
 10
-0.8120835889755682
 20
-1.2104635430868171
 40
0.2822306279129449
 50
193.76933627781625
 51
303.59483917126062
  0
ARC
  8
_0-0_
  6
CONTINUOUS
 62
    7
 10
-1.1262569296786182
 20
0.0975826534226058
 40
1.6132220315832053
 50
286.9508243426119
 51
321.80986510507699
  0
ARC
  8
_0-0_
  6
CONTINUOUS
 62
    7
 10
-0.5208014576178499
 20
-0.6650101872696581
 40
0.7028633816217972
 50
340.48285111406295
 51
13.491573877571261
  0
ARC
  8
_0-0_
  6
CONTINUOUS
 62
    7
 10
-0.1687917306305166
 20
-0.8731550693143219
 40
0.4983380772777339
 50
48.30800838368917
 51
123.80161915823756
  0
ARC
  8
_0-0_
  6
CONTINUOUS
 62
    7
 10
-7.8565426438639037
 20
-0.5439468893648751
 40
0.9163725004268125
 50
107.4306867292286
 51
176.51485184282384
  0
ARC
  8
_0-0_
  6
CONTINUOUS
 62
    7
 10
-8.4971005677226401
 20
-0.4210660286535841
 40
0.2822306279129449
 50
193.76933627781625
 51
303.59483917126062
  0
ARC
  8
_0-0_
  6
CONTINUOUS
 62
    7
 10
-8.8112739084256901
 20
0.8869801678558388
 40
1.6132220315832053
 50
286.9508243426119
 51
321.80986510507699
  0
ARC
  8
_0-0_
  6
CONTINUOUS
 62
    7
 10
-8.2058184363649218
 20
0.1243873271635749
 40
0.7028633816217972
 50
340.48285111406295
 51
13.491573877571261
  0
ARC
  8
_0-0_
  6
CONTINUOUS
 62
    7
 10
-7.8538087093775886
 20
-0.0837575548810889
 40
0.4983380772777339
 50
48.30800838368917
 51
123.80161915823756
  0
ARC
  8
_0-0_
  6
CONTINUOUS
 62
    7
 10
-15.12364329144043
 20
0.1293627552987715
 40
0.9163725004268125
 50
107.4306867292286
 51
176.51485184282384
  0
ARC
  8
_0-0_
  6
CONTINUOUS
 62
    7
 10
-15.764201215299167
 20
0.2522436160100625
 40
0.2822306279129449
 50
193.76933627781625
 51
303.59483917126062
  0
ARC
  8
_0-0_
  6
CONTINUOUS
 62
    7
 10
-16.078374556002217
 20
1.5602898125194855
 40
1.6132220315832053
 50
286.9508243426119
 51
321.80986510507699
  0
ARC
  8
_0-0_
  6
CONTINUOUS
 62
    7
 10
-15.472919083941449
 20
0.7976969718272215
 40
0.7028633816217972
 50
340.48285111406295
 51
13.491573877571261
  0
ARC
  8
_0-0_
  6
CONTINUOUS
 62
    7
 10
-15.120909356954115
 20
0.5895520897825576
 40
0.4983380772777339
 50
48.30800838368917
 51
123.80161915823756
  0
ARC
  8
_0-0_
  6
CONTINUOUS
 62
    7
 10
-17.306095243108786
 20
2.613643168368057
 40
0.9163725004268125
 50
107.4306867292286
 51
176.51485184282384
  0
ARC
  8
_0-0_
  6
CONTINUOUS
 62
    7
 10
-17.946653166967522
 20
2.736524029079348
 40
0.2822306279129449
 50
193.76933627781625
 51
303.59483917126062
  0
ARC
  8
_0-0_
  6
CONTINUOUS
 62
    7
 10
-18.260826507670572
 20
4.044570225588771
 40
1.6132220315832053
 50
286.9508243426119
 51
321.80986510507699
  0
ARC
  8
_0-0_
  6
CONTINUOUS
 62
    7
 10
-17.655371035609804
 20
3.281977384896507
 40
0.7028633816217972
 50
340.48285111406295
 51
13.491573877571261
  0
ARC
  8
_0-0_
  6
CONTINUOUS
 62
    7
 10
-17.30336130862247
 20
3.0738325028518432
 40
0.4983380772777339
 50
48.30800838368917
 51
123.80161915823756
  0
ARC
  8
_0-0_
  6
CONTINUOUS
 62
    7
 10
-0.332221177732066
 20
16.497561336719897
 40
1.3005404850498101
 50
58.183145346476472
 51
108.39718103800973
  0
ARC
  8
_0-0_
  6
CONTINUOUS
 62
    7
 10
-0.336383318387007
 20
16.219197543893472
 40
1.5660569580451891
 50
105.03659682177867
 51
153.84350865160198
  0
ARC
  8
_0-0_
  6
CONTINUOUS
 62
    7
 10
0.1795409910635612
 20
16.453345264977088
 40
1.9750185400218552
 50
166.64467081122464
 51
199.89630503514235
  0
ARC
  8
_0-0_
  6
CONTINUOUS
 62
    7
 10
-1.1304313022983905
 20
17.23641532940988
 40
1.5546724816915076
 50
249.39373938616365
 51
297.84923002207063
  0
ARC
  8
_0-0_
  6
CONTINUOUS
 62
    7
 10
-1.1778934129607421
 20
17.425368260537297
 40
1.7445272383439292
 50
296.32829310517076
 51
328.21908490701639
  0
ARC
  8
_0-0_
  6
CONTINUOUS
 62
    7
 10
-0.2739043819553899
 20
16.127652663722913
 40
0.8637790385010856
 50
86.87794143179508
 51
156.33706306070243
  0
ARC
  8
_0-0_
  6
CONTINUOUS
 62
    7
 10
-0.5378109332735903
 20
16.527753327822126
 40
0.5299471653914859
 50
185.78519960041461
 51
239.45328654197237
  0
ARC
  8
_0-0_
  6
CONTINUOUS
 62
    7
 10
-0.9611324924679536
 20
17.463121141014241
 40
1.4002583834460358
 50
276.31335711274312
 51
302.40463123864498
  0
ARC
  8
_0-0_
  6
CONTINUOUS
 62
    7
 10
-2.9537360115362077
 20
16.631074687323263
 40
1.3005404850498101
 50
58.183145346476472
 51
108.39718103800973
  0
ARC
  8
_0-0_
  6
CONTINUOUS
 62
    7
 10
-2.9578981521911487
 20
16.352710894496838
 40
1.5660569580451891
 50
105.03659682177867
 51
153.84350865160198
  0
ARC
  8
_0-0_
  6
CONTINUOUS
 62
    7
 10
-2.4419738427405804
 20
16.586858615580454
 40
1.9750185400218552
 50
166.64467081122464
 51
199.89630503514235
  0
ARC
  8
_0-0_
  6
CONTINUOUS
 62
    7
 10
-3.7519461361025321
 20
17.369928680013246
 40
1.5546724816915076
 50
249.39373938616365
 51
297.84923002207063
  0
ARC
  8
_0-0_
  6
CONTINUOUS
 62
    7
 10
-3.7994082467648838
 20
17.558881611140663
 40
1.7445272383439292
 50
296.32829310517076
 51
328.21908490701639
  0
ARC
  8
_0-0_
  6
CONTINUOUS
 62
    7
 10
-2.8954192157595315
 20
16.261166014326278
 40
0.8637790385010856
 50
86.87794143179508
 51
156.33706306070243
  0
ARC
  8
_0-0_
  6
CONTINUOUS
 62
    7
 10
-3.1593257670777319
 20
16.661266678425491
 40
0.5299471653914859
 50
185.78519960041461
 51
239.45328654197237
  0
ARC
  8
_0-0_
  6
CONTINUOUS
 62
    7
 10
-3.5826473262720953
 20
17.596634491617607
 40
1.4002583834460358
 50
276.31335711274312
 51
302.40463123864498
  0
ARC
  8
_0-0_
  6
CONTINUOUS
 62
    7
 10
-5.1620674246181579
 20
16.614955479928511
 40
1.3005404850498101
 50
58.183145346476472
 51
108.39718103800973
  0
ARC
  8
_0-0_
  6
CONTINUOUS
 62
    7
 10
-5.166229565273099
 20
16.336591687102086
 40
1.5660569580451891
 50
105.03659682177867
 51
153.84350865160198
  0
ARC
  8
_0-0_
  6
CONTINUOUS
 62
    7
 10
-4.6503052558225306
 20
16.570739408185702
 40
1.9750185400218552
 50
166.64467081122464
 51
199.89630503514235
  0
ARC
  8
_0-0_
  6
CONTINUOUS
 62
    7
 10
-5.9602775491844824
 20
17.353809472618494
 40
1.5546724816915076
 50
249.39373938616365
 51
297.84923002207063
  0
ARC
  8
_0-0_
  6
CONTINUOUS
 62
    7
 10
-6.007739659846834
 20
17.542762403745911
 40
1.7445272383439292
 50
296.32829310517076
 51
328.21908490701639
  0
ARC
  8
_0-0_
  6
CONTINUOUS
 62
    7
 10
-5.1037506288414818
 20
16.245046806931526
 40
0.8637790385010856
 50
86.87794143179508
 51
156.33706306070243
  0
ARC
  8
_0-0_
  6
CONTINUOUS
 62
    7
 10
-5.3676571801596822
 20
16.645147471030739
 40
0.5299471653914859
 50
185.78519960041461
 51
239.45328654197237
  0
ARC
  8
_0-0_
  6
CONTINUOUS
 62
    7
 10
-5.7909787393540455
 20
17.580515284222855
 40
1.4002583834460358
 50
276.31335711274312
 51
302.40463123864498
  0
ARC
  8
_0-0_
  6
CONTINUOUS
 62
    7
 10
1.9787414512599781
 20
16.421524991191404
 40
1.3005404850498101
 50
58.183145346476472
 51
108.39718103800973
  0
ARC
  8
_0-0_
  6
CONTINUOUS
 62
    7
 10
1.9745793106050371
 20
16.143161198364979
 40
1.5660569580451891
 50
105.03659682177867
 51
153.84350865160198
  0
ARC
  8
_0-0_
  6
CONTINUOUS
 62
    7
 10
2.4905036200556054
 20
16.377308919448595
 40
1.9750185400218552
 50
166.64467081122464
 51
199.89630503514235
  0
ARC
  8
_0-0_
  6
CONTINUOUS
 62
    7
 10
1.1805313266936537
 20
17.160378983881387
 40
1.5546724816915076
 50
249.39373938616365
 51
297.84923002207063
  0
ARC
  8
_0-0_
  6
CONTINUOUS
 62
    7
 10
1.1330692160313021
 20
17.349331915008804
 40
1.7445272383439292
 50
296.32829310517076
 51
328.21908490701639
  0
ARC
  8
_0-0_
  6
CONTINUOUS
 62
    7
 10
2.0370582470366543
 20
16.051616318194419
 40
0.8637790385010856
 50
86.87794143179508
 51
156.33706306070243
  0
ARC
  8
_0-0_
  6
CONTINUOUS
 62
    7
 10
1.7731516957184539
 20
16.451716982293632
 40
0.5299471653914859
 50
185.78519960041461
 51
239.45328654197237
  0
ARC
  8
_0-0_
  6
CONTINUOUS
 62
    7
 10
1.3498301365240906
 20
17.387084795485748
 40
1.4002583834460358
 50
276.31335711274312
 51
302.40463123864498
  0
ARC
  8
_0-0_
  6
CONTINUOUS
 62
    7
 10
4.638410671395178
 20
16.276452124638567
 40
1.3005404850498101
 50
58.183145346476472
 51
108.39718103800973
  0
ARC
  8
_0-0_
  6
CONTINUOUS
 62
    7
 10
4.634248530740237
 20
15.998088331812141
 40
1.5660569580451891
 50
105.03659682177867
 51
153.84350865160198
  0
ARC
  8
_0-0_
  6
CONTINUOUS
 62
    7
 10
5.1501728401908053
 20
16.232236052895757
 40
1.9750185400218552
 50
166.64467081122464
 51
199.89630503514235
  0
ARC
  8
_0-0_
  6
CONTINUOUS
 62
    7
 10
3.8402005468288536
 20
17.015306117328549
 40
1.5546724816915076
 50
249.39373938616365
 51
297.84923002207063
  0
ARC
  8
_0-0_
  6
CONTINUOUS
 62
    7
 10
3.792738436166502
 20
17.204259048455967
 40
1.7445272383439292
 50
296.32829310517076
 51
328.21908490701639
  0
ARC
  8
_0-0_
  6
CONTINUOUS
 62
    7
 10
4.6967274671718542
 20
15.906543451641582
 40
0.8637790385010856
 50
86.87794143179508
 51
156.33706306070243
  0
ARC
  8
_0-0_
  6
CONTINUOUS
 62
    7
 10
4.4328209158536538
 20
16.306644115740795
 40
0.5299471653914859
 50
185.78519960041461
 51
239.45328654197237
  0
ARC
  8
_0-0_
  6
CONTINUOUS
 62
    7
 10
4.0094993566592905
 20
17.242011928932911
 40
1.4002583834460358
 50
276.31335711274312
 51
302.40463123864498
  0
ARC
  8
_0-0_
  6
CONTINUOUS
 62
    7
 10
7.136887817582803
 20
16.163617672875262
 40
1.3005404850498101
 50
58.183145346476472
 51
108.39718103800973
  0
ARC
  8
_0-0_
  6
CONTINUOUS
 62
    7
 10
7.132725676927862
 20
15.885253880048836
 40
1.5660569580451891
 50
105.03659682177867
 51
153.84350865160198
  0
ARC
  8
_0-0_
  6
CONTINUOUS
 62
    7
 10
7.6486499863784303
 20
16.119401601132452
 40
1.9750185400218552
 50
166.64467081122464
 51
199.89630503514235
  0
ARC
  8
_0-0_
  6
CONTINUOUS
 62
    7
 10
6.3386776930164785
 20
16.902471665565244
 40
1.5546724816915076
 50
249.39373938616365
 51
297.84923002207063
  0
ARC
  8
_0-0_
  6
CONTINUOUS
 62
    7
 10
6.2912155823541269
 20
17.091424596692661
 40
1.7445272383439292
 50
296.32829310517076
 51
328.21908490701639
  0
ARC
  8
_0-0_
  6
CONTINUOUS
 62
    7
 10
7.1952046133594791
 20
15.793708999878277
 40
0.8637790385010856
 50
86.87794143179508
 51
156.33706306070243
  0
ARC
  8
_0-0_
  6
CONTINUOUS
 62
    7
 10
6.9312980620412787
 20
16.19380966397749
 40
0.5299471653914859
 50
185.78519960041461
 51
239.45328654197237
  0
ARC
  8
_0-0_
  6
CONTINUOUS
 62
    7
 10
6.5079765028469154
 20
17.129177477169605
 40
1.4002583834460358
 50
276.31335711274312
 51
302.40463123864498
  0
ARC
  8
_0-0_
  6
CONTINUOUS
 62
    7
 10
10.03834514863938
 20
16.066902428506708
 40
1.3005404850498101
 50
58.183145346476472
 51
108.39718103800973
  0
ARC
  8
_0-0_
  6
CONTINUOUS
 62
    7
 10
10.034183007984439
 20
15.788538635680283
 40
1.5660569580451891
 50
105.03659682177867
 51
153.84350865160198
  0
ARC
  8
_0-0_
  6
CONTINUOUS
 62
    7
 10
10.550107317435007
 20
16.022686356763899
 40
1.9750185400218552
 50
166.64467081122464
 51
199.89630503514235
  0
ARC
  8
_0-0_
  6
CONTINUOUS
 62
    7
 10
9.2401350240730551
 20
16.805756421196691
 40
1.5546724816915076
 50
249.39373938616365
 51
297.84923002207063
  0
ARC
  8
_0-0_
  6
CONTINUOUS
 62
    7
 10
9.1926729134107035
 20
16.994709352324108
 40
1.7445272383439292
 50
296.32829310517076
 51
328.21908490701639
  0
ARC
  8
_0-0_
  6
CONTINUOUS
 62
    7
 10
10.096661944416056
 20
15.696993755509723
 40
0.8637790385010856
 50
86.87794143179508
 51
156.33706306070243
  0
ARC
  8
_0-0_
  6
CONTINUOUS
 62
    7
 10
9.8327553930978553
 20
16.097094419608936
 40
0.5299471653914859
 50
185.78519960041461
 51
239.45328654197237
  0
ARC
  8
_0-0_
  6
CONTINUOUS
 62
    7
 10
9.409433833903492
 20
17.032462232801052
 40
1.4002583834460358
 50
276.31335711274312
 51
302.40463123864498
  0
ARC
  8
_0-0_
  6
CONTINUOUS
 62
    7
 10
12.504583880037472
 20
16.018544806322424
 40
1.3005404850498101
 50
58.183145346476472
 51
108.39718103800973
  0
ARC
  8
_0-0_
  6
CONTINUOUS
 62
    7
 10
12.500421739382531
 20
15.740181013495999
 40
1.5660569580451891
 50
105.03659682177867
 51
153.84350865160198
  0
ARC
  8
_0-0_
  6
CONTINUOUS
 62
    7
 10
13.0163460488331
 20
15.974328734579615
 40
1.9750185400218552
 50
166.64467081122464
 51
199.89630503514235
  0
ARC
  8
_0-0_
  6
CONTINUOUS
 62
    7
 10
11.706373755471148
 20
16.757398799012407
 40
1.5546724816915076
 50
249.39373938616365
 51
297.84923002207063
  0
ARC
  8
_0-0_
  6
CONTINUOUS
 62
    7
 10
11.658911644808796
 20
16.946351730139824
 40
1.7445272383439292
 50
296.32829310517076
 51
328.21908490701639
  0
ARC
  8
_0-0_
  6
CONTINUOUS
 62
    7
 10
12.562900675814149
 20
15.648636133325439
 40
0.8637790385010856
 50
86.87794143179508
 51
156.33706306070243
  0
ARC
  8
_0-0_
  6
CONTINUOUS
 62
    7
 10
12.298994124495948
 20
16.048736797424652
 40
0.5299471653914859
 50
185.78519960041461
 51
239.45328654197237
  0
ARC
  8
_0-0_
  6
CONTINUOUS
 62
    7
 10
11.875672565301585
 20
16.984104610616768
 40
1.4002583834460358
 50
276.31335711274312
 51
302.40463123864498
  0
ARC
  8
_0-0_
  6
CONTINUOUS
 62
    7
 10
15.228729929751708
 20
15.889591147164367
 40
1.3005404850498101
 50
58.183145346476472
 51
108.39718103800973
  0
ARC
  8
_0-0_
  6
CONTINUOUS
 62
    7
 10
15.224567789096767
 20
15.611227354337942
 40
1.5660569580451891
 50
105.03659682177867
 51
153.84350865160198
  0
ARC
  8
_0-0_
  6
CONTINUOUS
 62
    7
 10
15.740492098547335
 20
15.845375075421558
 40
1.9750185400218552
 50
166.64467081122464
 51
199.89630503514235
  0
ARC
  8
_0-0_
  6
CONTINUOUS
 62
    7
 10
14.430519805185384
 20
16.62844513985435
 40
1.5546724816915076
 50
249.39373938616365
 51
297.84923002207063
  0
ARC
  8
_0-0_
  6
CONTINUOUS
 62
    7
 10
14.383057694523032
 20
16.817398070981767
 40
1.7445272383439292
 50
296.32829310517076
 51
328.21908490701639
  0
ARC
  8
_0-0_
  6
CONTINUOUS
 62
    7
 10
15.287046725528384
 20
15.519682474167382
 40
0.8637790385010856
 50
86.87794143179508
 51
156.33706306070243
  0
ARC
  8
_0-0_
  6
CONTINUOUS
 62
    7
 10
15.023140174210184
 20
15.919783138266595
 40
0.5299471653914859
 50
185.78519960041461
 51
239.45328654197237
  0
ARC
  8
_0-0_
  6
CONTINUOUS
 62
    7
 10
14.59981861501582
 20
16.855150951458711
 40
1.4002583834460358
 50
276.31335711274312
 51
302.40463123864498
  0
ARC
  8
_0-0_
  6
CONTINUOUS
 62
    7
 10
18.049591223834497
 20
15.776756695401048
 40
1.3005404850498101
 50
58.183145346476472
 51
108.39718103800973
  0
ARC
  8
_0-0_
  6
CONTINUOUS
 62
    7
 10
18.045429083179556
 20
15.498392902574622
 40
1.5660569580451891
 50
105.03659682177867
 51
153.84350865160198
  0
ARC
  8
_0-0_
  6
CONTINUOUS
 62
    7
 10
18.561353392630124
 20
15.732540623658238
 40
1.9750185400218552
 50
166.64467081122464
 51
199.89630503514235
  0
ARC
  8
_0-0_
  6
CONTINUOUS
 62
    7
 10
17.251381099268173
 20
16.51561068809103
 40
1.5546724816915076
 50
249.39373938616365
 51
297.84923002207063
  0
ARC
  8
_0-0_
  6
CONTINUOUS
 62
    7
 10
17.203918988605821
 20
16.704563619218447
 40
1.7445272383439292
 50
296.32829310517076
 51
328.21908490701639
  0
ARC
  8
_0-0_
  6
CONTINUOUS
 62
    7
 10
18.107908019611173
 20
15.406848022404063
 40
0.8637790385010856
 50
86.87794143179508
 51
156.33706306070243
  0
ARC
  8
_0-0_
  6
CONTINUOUS
 62
    7
 10
17.844001468292973
 20
15.806948686503276
 40
0.5299471653914859
 50
185.78519960041461
 51
239.45328654197237
  0
ARC
  8
_0-0_
  6
CONTINUOUS
 62
    7
 10
17.42067990909861
 20
16.742316499695391
 40
1.4002583834460358
 50
276.31335711274312
 51
302.40463123864498
  0
ARC
  8
_0-0_
  6
CONTINUOUS
 62
    7
 10
17.888399149886908
 20
13.616782904503367
 40
1.3005404850498101
 50
58.183145346476472
 51
108.39718103800973
  0
ARC
  8
_0-0_
  6
CONTINUOUS
 62
    7
 10
17.884237009231967
 20
13.338419111676941
 40
1.5660569580451891
 50
105.03659682177867
 51
153.84350865160198
  0
ARC
  8
_0-0_
  6
CONTINUOUS
 62
    7
 10
18.400161318682535
 20
13.572566832760558
 40
1.9750185400218552
 50
166.64467081122464
 51
199.89630503514235
  0
ARC
  8
_0-0_
  6
CONTINUOUS
 62
    7
 10
17.090189025320583
 20
14.355636897193349
 40
1.5546724816915076
 50
249.39373938616365
 51
297.84923002207063
  0
ARC
  8
_0-0_
  6
CONTINUOUS
 62
    7
 10
17.042726914658232
 20
14.544589828320767
 40
1.7445272383439292
 50
296.32829310517076
 51
328.21908490701639
  0
ARC
  8
_0-0_
  6
CONTINUOUS
 62
    7
 10
17.946715945663584
 20
13.246874231506382
 40
0.8637790385010856
 50
86.87794143179508
 51
156.33706306070243
  0
ARC
  8
_0-0_
  6
CONTINUOUS
 62
    7
 10
17.682809394345384
 20
13.646974895605595
 40
0.5299471653914859
 50
185.78519960041461
 51
239.45328654197237
  0
ARC
  8
_0-0_
  6
CONTINUOUS
 62
    7
 10
17.25948783515102
 20
14.582342708797711
 40
1.4002583834460358
 50
276.31335711274312
 51
302.40463123864498
  0
ARC
  8
_0-0_
  6
CONTINUOUS
 62
    7
 10
15.115895477988403
 20
13.761855771056204
 40
1.3005404850498101
 50
58.183145346476472
 51
108.39718103800973
  0
ARC
  8
_0-0_
  6
CONTINUOUS
 62
    7
 10
15.111733337333462
 20
13.483491978229779
 40
1.5660569580451891
 50
105.03659682177867
 51
153.84350865160198
  0
ARC
  8
_0-0_
  6
CONTINUOUS
 62
    7
 10
15.62765764678403
 20
13.717639699313395
 40
1.9750185400218552
 50
166.64467081122464
 51
199.89630503514235
  0
ARC
  8
_0-0_
  6
CONTINUOUS
 62
    7
 10
14.317685353422078
 20
14.500709763746187
 40
1.5546724816915076
 50
249.39373938616365
 51
297.84923002207063
  0
ARC
  8
_0-0_
  6
CONTINUOUS
 62
    7
 10
14.270223242759727
 20
14.689662694873604
 40
1.7445272383439292
 50
296.32829310517076
 51
328.21908490701639
  0
ARC
  8
_0-0_
  6
CONTINUOUS
 62
    7
 10
15.174212273765079
 20
13.391947098059219
 40
0.8637790385010856
 50
86.87794143179508
 51
156.33706306070243
  0
ARC
  8
_0-0_
  6
CONTINUOUS
 62
    7
 10
14.910305722446878
 20
13.792047762158433
 40
0.5299471653914859
 50
185.78519960041461
 51
239.45328654197237
  0
ARC
  8
_0-0_
  6
CONTINUOUS
 62
    7
 10
14.486984163252515
 20
14.727415575350548
 40
1.4002583834460358
 50
276.31335711274312
 51
302.40463123864498
  0
ARC
  8
_0-0_
  6
CONTINUOUS
 62
    7
 10
12.778610405748367
 20
11.795312468895631
 40
1.3005404850498101
 50
58.183145346476472
 51
108.39718103800973
  0
ARC
  8
_0-0_
  6
CONTINUOUS
 62
    7
 10
12.774448265093426
 20
11.516948676069205
 40
1.5660569580451891
 50
105.03659682177867
 51
153.84350865160198
  0
ARC
  8
_0-0_
  6
CONTINUOUS
 62
    7
 10
13.290372574543994
 20
11.751096397152821
 40
1.9750185400218552
 50
166.64467081122464
 51
199.89630503514235
  0
ARC
  8
_0-0_
  6
CONTINUOUS
 62
    7
 10
11.980400281182042
 20
12.534166461585613
 40
1.5546724816915076
 50
249.39373938616365
 51
297.84923002207063
  0
ARC
  8
_0-0_
  6
CONTINUOUS
 62
    7
 10
11.932938170519691
 20
12.723119392713031
 40
1.7445272383439292
 50
296.32829310517076
 51
328.21908490701639
  0
ARC
  8
_0-0_
  6
CONTINUOUS
 62
    7
 10
12.836927201525043
 20
11.425403795898646
 40
0.8637790385010856
 50
86.87794143179508
 51
156.33706306070243
  0
ARC
  8
_0-0_
  6
CONTINUOUS
 62
    7
 10
12.573020650206843
 20
11.825504459997859
 40
0.5299471653914859
 50
185.78519960041461
 51
239.45328654197237
  0
ARC
  8
_0-0_
  6
CONTINUOUS
 62
    7
 10
12.149699091012479
 20
12.760872273189975
 40
1.4002583834460358
 50
276.31335711274312
 51
302.40463123864498
  0
ARC
  8
_0-0_
  6
CONTINUOUS
 62
    7
 10
15.599471699831156
 20
11.521285943184736
 40
1.3005404850498101
 50
58.183145346476472
 51
108.39718103800973
  0
ARC
  8
_0-0_
  6
CONTINUOUS
 62
    7
 10
15.595309559176215
 20
11.242922150358311
 40
1.5660569580451891
 50
105.03659682177867
 51
153.84350865160198
  0
ARC
  8
_0-0_
  6
CONTINUOUS
 62
    7
 10
16.111233868626783
 20
11.477069871441927
 40
1.9750185400218552
 50
166.64467081122464
 51
199.89630503514235
  0
ARC
  8
_0-0_
  6
CONTINUOUS
 62
    7
 10
14.801261575264832
 20
12.260139935874719
 40
1.5546724816915076
 50
249.39373938616365
 51
297.84923002207063
  0
ARC
  8
_0-0_
  6
CONTINUOUS
 62
    7
 10
14.75379946460248
 20
12.449092867002136
 40
1.7445272383439292
 50
296.32829310517076
 51
328.21908490701639
  0
ARC
  8
_0-0_
  6
CONTINUOUS
 62
    7
 10
15.657788495607832
 20
11.151377270187751
 40
0.8637790385010856
 50
86.87794143179508
 51
156.33706306070243
  0
ARC
  8
_0-0_
  6
CONTINUOUS
 62
    7
 10
15.393881944289632
 20
11.551477934286964
 40
0.5299471653914859
 50
185.78519960041461
 51
239.45328654197237
  0
ARC
  8
_0-0_
  6
CONTINUOUS
 62
    7
 10
14.970560385095268
 20
12.48684574747908
 40
1.4002583834460358
 50
276.31335711274312
 51
302.40463123864498
  0
ARC
  8
_0-0_
  6
CONTINUOUS
 62
    7
 10
10.006106733849862
 20
11.730835639316595
 40
1.3005404850498101
 50
58.183145346476472
 51
108.39718103800973
  0
ARC
  8
_0-0_
  6
CONTINUOUS
 62
    7
 10
10.001944593194921
 20
11.45247184649017
 40
1.5660569580451891
 50
105.03659682177867
 51
153.84350865160198
  0
ARC
  8
_0-0_
  6
CONTINUOUS
 62
    7
 10
10.517868902645489
 20
11.686619567573786
 40
1.9750185400218552
 50
166.64467081122464
 51
199.89630503514235
  0
ARC
  8
_0-0_
  6
CONTINUOUS
 62
    7
 10
9.2078966092835373
 20
12.469689632006578
 40
1.5546724816915076
 50
249.39373938616365
 51
297.84923002207063
  0
ARC
  8
_0-0_
  6
CONTINUOUS
 62
    7
 10
9.1604344986211856
 20
12.658642563133995
 40
1.7445272383439292
 50
296.32829310517076
 51
328.21908490701639
  0
ARC
  8
_0-0_
  6
CONTINUOUS
 62
    7
 10
10.064423529626538
 20
11.36092696631961
 40
0.8637790385010856
 50
86.87794143179508
 51
156.33706306070243
  0
ARC
  8
_0-0_
  6
CONTINUOUS
 62
    7
 10
9.8005169783083375
 20
11.761027630418823
 40
0.5299471653914859
 50
185.78519960041461
 51
239.45328654197237
  0
ARC
  8
_0-0_
  6
CONTINUOUS
 62
    7
 10
9.3771954191139741
 20
12.696395443610939
 40
1.4002583834460358
 50
276.31335711274312
 51
302.40463123864498
  0
ARC
  8
_0-0_
  6
CONTINUOUS
 62
    7
 10
11.069974421903936
 20
13.955286259793311
 40
1.3005404850498101
 50
58.183145346476472
 51
108.39718103800973
  0
ARC
  8
_0-0_
  6
CONTINUOUS
 62
    7
 10
11.065812281248995
 20
13.676922466966886
 40
1.5660569580451891
 50
105.03659682177867
 51
153.84350865160198
  0
ARC
  8
_0-0_
  6
CONTINUOUS
 62
    7
 10
11.581736590699563
 20
13.911070188050502
 40
1.9750185400218552
 50
166.64467081122464
 51
199.89630503514235
  0
ARC
  8
_0-0_
  6
CONTINUOUS
 62
    7
 10
10.271764297337612
 20
14.694140252483294
 40
1.5546724816915076
 50
249.39373938616365
 51
297.84923002207063
  0
ARC
  8
_0-0_
  6
CONTINUOUS
 62
    7
 10
10.22430218667526
 20
14.883093183610711
 40
1.7445272383439292
 50
296.32829310517076
 51
328.21908490701639
  0
ARC
  8
_0-0_
  6
CONTINUOUS
 62
    7
 10
11.128291217680612
 20
13.585377586796326
 40
0.8637790385010856
 50
86.87794143179508
 51
156.33706306070243
  0
ARC
  8
_0-0_
  6
CONTINUOUS
 62
    7
 10
10.864384666362412
 20
13.98547825089554
 40
0.5299471653914859
 50
185.78519960041461
 51
239.45328654197237
  0
ARC
  8
_0-0_
  6
CONTINUOUS
 62
    7
 10
10.441063107168048
 20
14.920846064087655
 40
1.4002583834460358
 50
276.31335711274312
 51
302.40463123864498
  0
ARC
  8
_0-0_
  6
CONTINUOUS
 62
    7
 10
8.7488085570586804
 20
14.052001504161865
 40
1.3005404850498101
 50
58.183145346476472
 51
108.39718103800973
  0
ARC
  8
_0-0_
  6
CONTINUOUS
 62
    7
 10
8.7446464164037394
 20
13.773637711335439
 40
1.5660569580451891
 50
105.03659682177867
 51
153.84350865160198
  0
ARC
  8
_0-0_
  6
CONTINUOUS
 62
    7
 10
9.2605707258543077
 20
14.007785432419055
 40
1.9750185400218552
 50
166.64467081122464
 51
199.89630503514235
  0
ARC
  8
_0-0_
  6
CONTINUOUS
 62
    7
 10
7.950598432492356
 20
14.790855496851847
 40
1.5546724816915076
 50
249.39373938616365
 51
297.84923002207063
  0
ARC
  8
_0-0_
  6
CONTINUOUS
 62
    7
 10
7.9031363218300044
 20
14.979808427979265
 40
1.7445272383439292
 50
296.32829310517076
 51
328.21908490701639
  0
ARC
  8
_0-0_
  6
CONTINUOUS
 62
    7
 10
8.8071253528353566
 20
13.68209283116488
 40
0.8637790385010856
 50
86.87794143179508
 51
156.33706306070243
  0
ARC
  8
_0-0_
  6
CONTINUOUS
 62
    7
 10
8.5432188015171562
 20
14.082193495264093
 40
0.5299471653914859
 50
185.78519960041461
 51
239.45328654197237
  0
ARC
  8
_0-0_
  6
CONTINUOUS
 62
    7
 10
8.1198972423227929
 20
15.017561308456209
 40
1.4002583834460358
 50
276.31335711274312
 51
302.40463123864498
  0
ARC
  8
_0-0_
  6
CONTINUOUS
 62
    7
 10
7.3625567211094136
 20
11.908146920658936
 40
1.3005404850498101
 50
58.183145346476472
 51
108.39718103800973
  0
ARC
  8
_0-0_
  6
CONTINUOUS
 62
    7
 10
7.3583945804544726
 20
11.629783127832511
 40
1.5660569580451891
 50
105.03659682177867
 51
153.84350865160198
  0
ARC
  8
_0-0_
  6
CONTINUOUS
 62
    7
 10
7.8743188899050409
 20
11.863930848916127
 40
1.9750185400218552
 50
166.64467081122464
 51
199.89630503514235
  0
ARC
  8
_0-0_
  6
CONTINUOUS
 62
    7
 10
6.5643465965430892
 20
12.647000913348919
 40
1.5546724816915076
 50
249.39373938616365
 51
297.84923002207063
  0
ARC
  8
_0-0_
  6
CONTINUOUS
 62
    7
 10
6.5168844858807375
 20
12.835953844476336
 40
1.7445272383439292
 50
296.32829310517076
 51
328.21908490701639
  0
ARC
  8
_0-0_
  6
CONTINUOUS
 62
    7
 10
7.4208735168860898
 20
11.538238247661951
 40
0.8637790385010856
 50
86.87794143179508
 51
156.33706306070243
  0
ARC
  8
_0-0_
  6
CONTINUOUS
 62
    7
 10
7.1569669655678894
 20
11.938338911761164
 40
0.5299471653914859
 50
185.78519960041461
 51
239.45328654197237
  0
ARC
  8
_0-0_
  6
CONTINUOUS
 62
    7
 10
6.733645406373526
 20
12.87370672495328
 40
1.4002583834460358
 50
276.31335711274312
 51
302.40463123864498
  0
ARC
  8
_0-0_
  6
CONTINUOUS
 62
    7
 10
4.9285564045008385
 20
12.29500789813315
 40
1.3005404850498101
 50
58.183145346476472
 51
108.39718103800973
  0
ARC
  8
_0-0_
  6
CONTINUOUS
 62
    7
 10
4.9243942638458975
 20
12.016644105306725
 40
1.5660569580451891
 50
105.03659682177867
 51
153.84350865160198
  0
ARC
  8
_0-0_
  6
CONTINUOUS
 62
    7
 10
5.4403185732964658
 20
12.250791826390341
 40
1.9750185400218552
 50
166.64467081122464
 51
199.89630503514235
  0
ARC
  8
_0-0_
  6
CONTINUOUS
 62
    7
 10
4.1303462799345141
 20
13.033861890823133
 40
1.5546724816915076
 50
249.39373938616365
 51
297.84923002207063
  0
ARC
  8
_0-0_
  6
CONTINUOUS
 62
    7
 10
4.0828841692721625
 20
13.22281482195055
 40
1.7445272383439292
 50
296.32829310517076
 51
328.21908490701639
  0
ARC
  8
_0-0_
  6
CONTINUOUS
 62
    7
 10
4.9868732002775147
 20
11.925099225136165
 40
0.8637790385010856
 50
86.87794143179508
 51
156.33706306070243
  0
ARC
  8
_0-0_
  6
CONTINUOUS
 62
    7
 10
4.7229666489593143
 20
12.325199889235378
 40
0.5299471653914859
 50
185.78519960041461
 51
239.45328654197237
  0
ARC
  8
_0-0_
  6
CONTINUOUS
 62
    7
 10
4.299645089764951
 20
13.260567702427494
 40
1.4002583834460358
 50
276.31335711274312
 51
302.40463123864498
  0
ARC
  8
_0-0_
  6
CONTINUOUS
 62
    7
 10
2.2527679769708868
 20
12.40784234989647
 40
1.3005404850498101
 50
58.183145346476472
 51
108.39718103800973
  0
ARC
  8
_0-0_
  6
CONTINUOUS
 62
    7
 10
2.2486058363159458
 20
12.129478557070044
 40
1.5660569580451891
 50
105.03659682177867
 51
153.84350865160198
  0
ARC
  8
_0-0_
  6
CONTINUOUS
 62
    7
 10
2.7645301457665141
 20
12.36362627815366
 40
1.9750185400218552
 50
166.64467081122464
 51
199.89630503514235
  0
ARC
  8
_0-0_
  6
CONTINUOUS
 62
    7
 10
1.4545578524045624
 20
13.146696342586452
 40
1.5546724816915076
 50
249.39373938616365
 51
297.84923002207063
  0
ARC
  8
_0-0_
  6
CONTINUOUS
 62
    7
 10
1.4070957417422107
 20
13.335649273713869
 40
1.7445272383439292
 50
296.32829310517076
 51
328.21908490701639
  0
ARC
  8
_0-0_
  6
CONTINUOUS
 62
    7
 10
2.311084772747563
 20
12.037933676899485
 40
0.8637790385010856
 50
86.87794143179508
 51
156.33706306070243
  0
ARC
  8
_0-0_
  6
CONTINUOUS
 62
    7
 10
2.0471782214293626
 20
12.438034340998698
 40
0.5299471653914859
 50
185.78519960041461
 51
239.45328654197237
  0
ARC
  8
_0-0_
  6
CONTINUOUS
 62
    7
 10
1.6238566622349992
 20
13.373402154190813
 40
1.4002583834460358
 50
276.31335711274312
 51
302.40463123864498
  0
ARC
  8
_0-0_
  6
CONTINUOUS
 62
    7
 10
0.8503969336268681
 20
14.535577726004618
 40
1.3005404850498101
 50
58.183145346476472
 51
108.39718103800973
  0
ARC
  8
_0-0_
  6
CONTINUOUS
 62
    7
 10
0.8462347929719271
 20
14.257213933178193
 40
1.5660569580451891
 50
105.03659682177867
 51
153.84350865160198
  0
ARC
  8
_0-0_
  6
CONTINUOUS
 62
    7
 10
1.3621591024224955
 20
14.491361654261809
 40
1.9750185400218552
 50
166.64467081122464
 51
199.89630503514235
  0
ARC
  8
_0-0_
  6
CONTINUOUS
 62
    7
 10
0.0521868090605437
 20
15.274431718694601
 40
1.5546724816915076
 50
249.39373938616365
 51
297.84923002207063
  0
ARC
  8
_0-0_
  6
CONTINUOUS
 62
    7
 10
0.0047246983981921
 20
15.463384649822018
 40
1.7445272383439292
 50
296.32829310517076
 51
328.21908490701639
  0
ARC
  8
_0-0_
  6
CONTINUOUS
 62
    7
 10
0.9087137294035443
 20
14.165669053007633
 40
0.8637790385010856
 50
86.87794143179508
 51
156.33706306070243
  0
ARC
  8
_0-0_
  6
CONTINUOUS
 62
    7
 10
0.6448071780853439
 20
14.565769717106846
 40
0.5299471653914859
 50
185.78519960041461
 51
239.45328654197237
  0
ARC
  8
_0-0_
  6
CONTINUOUS
 62
    7
 10
0.2214856188909806
 20
15.501137530298962
 40
1.4002583834460358
 50
276.31335711274312
 51
302.40463123864498
  0
ARC
  8
_0-0_
  6
CONTINUOUS
 62
    7
 10
-1.2451000276917767
 20
14.454981689030831
 40
1.3005404850498101
 50
58.183145346476472
 51
108.39718103800973
  0
ARC
  8
_0-0_
  6
CONTINUOUS
 62
    7
 10
-1.2492621683467178
 20
14.176617896204405
 40
1.5660569580451891
 50
105.03659682177867
 51
153.84350865160198
  0
ARC
  8
_0-0_
  6
CONTINUOUS
 62
    7
 10
-0.7333378588961494
 20
14.410765617288021
 40
1.9750185400218552
 50
166.64467081122464
 51
199.89630503514235
  0
ARC
  8
_0-0_
  6
CONTINUOUS
 62
    7
 10
-2.0433101522581012
 20
15.193835681720813
 40
1.5546724816915076
 50
249.39373938616365
 51
297.84923002207063
  0
ARC
  8
_0-0_
  6
CONTINUOUS
 62
    7
 10
-2.0907722629204528
 20
15.382788612848231
 40
1.7445272383439292
 50
296.32829310517076
 51
328.21908490701639
  0
ARC
  8
_0-0_
  6
CONTINUOUS
 62
    7
 10
-1.1867832319151006
 20
14.085073016033846
 40
0.8637790385010856
 50
86.87794143179508
 51
156.33706306070243
  0
ARC
  8
_0-0_
  6
CONTINUOUS
 62
    7
 10
-1.450689783233301
 20
14.485173680133059
 40
0.5299471653914859
 50
185.78519960041461
 51
239.45328654197237
  0
ARC
  8
_0-0_
  6
CONTINUOUS
 62
    7
 10
-1.8740113424276643
 20
15.420541493325175
 40
1.4002583834460358
 50
276.31335711274312
 51
302.40463123864498
  0
ARC
  8
_0-0_
  6
CONTINUOUS
 62
    7
 10
-2.7764247301938525
 20
12.585153631238811
 40
1.3005404850498101
 50
58.183145346476472
 51
108.39718103800973
  0
ARC
  8
_0-0_
  6
CONTINUOUS
 62
    7
 10
-2.7805868708487935
 20
12.306789838412385
 40
1.5660569580451891
 50
105.03659682177867
 51
153.84350865160198
  0
ARC
  8
_0-0_
  6
CONTINUOUS
 62
    7
 10
-2.2646625613982252
 20
12.540937559496001
 40
1.9750185400218552
 50
166.64467081122464
 51
199.89630503514235
  0
ARC
  8
_0-0_
  6
CONTINUOUS
 62
    7
 10
-3.5746348547601769
 20
13.324007623928793
 40
1.5546724816915076
 50
249.39373938616365
 51
297.84923002207063
  0
ARC
  8
_0-0_
  6
CONTINUOUS
 62
    7
 10
-3.6220969654225286
 20
13.51296055505621
 40
1.7445272383439292
 50
296.32829310517076
 51
328.21908490701639
  0
ARC
  8
_0-0_
  6
CONTINUOUS
 62
    7
 10
-2.7181079344171764
 20
12.215244958241826
 40
0.8637790385010856
 50
86.87794143179508
 51
156.33706306070243
  0
ARC
  8
_0-0_
  6
CONTINUOUS
 62
    7
 10
-2.9820144857353768
 20
12.615345622341039
 40
0.5299471653914859
 50
185.78519960041461
 51
239.45328654197237
  0
ARC
  8
_0-0_
  6
CONTINUOUS
 62
    7
 10
-3.4053360449297401
 20
13.550713435533154
 40
1.4002583834460358
 50
276.31335711274312
 51
302.40463123864498
  0
ARC
  8
_0-0_
  6
CONTINUOUS
 62
    7
 10
-0.3263052061905256
 20
12.391723142501704
 40
1.3005404850498101
 50
58.183145346476472
 51
108.39718103800973
  0
ARC
  8
_0-0_
  6
CONTINUOUS
 62
    7
 10
-0.3304673468454666
 20
12.113359349675278
 40
1.5660569580451891
 50
105.03659682177867
 51
153.84350865160198
  0
ARC
  8
_0-0_
  6
CONTINUOUS
 62
    7
 10
0.1854569626051016
 20
12.347507070758894
 40
1.9750185400218552
 50
166.64467081122464
 51
199.89630503514235
  0
ARC
  8
_0-0_
  6
CONTINUOUS
 62
    7
 10
-1.1245153307568501
 20
13.130577135191686
 40
1.5546724816915076
 50
249.39373938616365
 51
297.84923002207063
  0
ARC
  8
_0-0_
  6
CONTINUOUS
 62
    7
 10
-1.1719774414192017
 20
13.319530066319103
 40
1.7445272383439292
 50
296.32829310517076
 51
328.21908490701639
  0
ARC
  8
_0-0_
  6
CONTINUOUS
 62
    7
 10
-0.2679884104138494
 20
12.021814469504719
 40
0.8637790385010856
 50
86.87794143179508
 51
156.33706306070243
  0
ARC
  8
_0-0_
  6
CONTINUOUS
 62
    7
 10
-0.5318949617320498
 20
12.421915133603932
 40
0.5299471653914859
 50
185.78519960041461
 51
239.45328654197237
  0
ARC
  8
_0-0_
  6
CONTINUOUS
 62
    7
 10
-0.9552165209264131
 20
13.357282946796047
 40
1.4002583834460358
 50
276.31335711274312
 51
302.40463123864498
  0
ARC
  8
_0-0_
  6
CONTINUOUS
 62
    7
 10
-5.0331137654600866
 20
14.712889007346973
 40
1.3005404850498101
 50
58.183145346476472
 51
108.39718103800973
  0
ARC
  8
_0-0_
  6
CONTINUOUS
 62
    7
 10
-5.0372759061150276
 20
14.434525214520548
 40
1.5660569580451891
 50
105.03659682177867
 51
153.84350865160198
  0
ARC
  8
_0-0_
  6
CONTINUOUS
 62
    7
 10
-4.5213515966644593
 20
14.668672935604164
 40
1.9750185400218552
 50
166.64467081122464
 51
199.89630503514235
  0
ARC
  8
_0-0_
  6
CONTINUOUS
 62
    7
 10
-5.831323890026411
 20
15.451743000036956
 40
1.5546724816915076
 50
249.39373938616365
 51
297.84923002207063
  0
ARC
  8
_0-0_
  6
CONTINUOUS
 62
    7
 10
-5.8787860006887627
 20
15.640695931164373
 40
1.7445272383439292
 50
296.32829310517076
 51
328.21908490701639
  0
ARC
  8
_0-0_
  6
CONTINUOUS
 62
    7
 10
-4.9747969696834105
 20
14.342980334349988
 40
0.8637790385010856
 50
86.87794143179508
 51
156.33706306070243
  0
ARC
  8
_0-0_
  6
CONTINUOUS
 62
    7
 10
-5.2387035210016109
 20
14.743080998449202
 40
0.5299471653914859
 50
185.78519960041461
 51
239.45328654197237
  0
ARC
  8
_0-0_
  6
CONTINUOUS
 62
    7
 10
-5.6620250801959742
 20
15.678448811641317
 40
1.4002583834460358
 50
276.31335711274312
 51
302.40463123864498
  0
ARC
  8
_0-0_
  6
CONTINUOUS
 62
    7
 10
-5.0492329728548526
 20
12.649630460817846
 40
1.3005404850498101
 50
58.183145346476472
 51
108.39718103800973
  0
ARC
  8
_0-0_
  6
CONTINUOUS
 62
    7
 10
-5.0533951135097936
 20
12.371266667991421
 40
1.5660569580451891
 50
105.03659682177867
 51
153.84350865160198
  0
ARC
  8
_0-0_
  6
CONTINUOUS
 62
    7
 10
-4.5374708040592253
 20
12.605414389075037
 40
1.9750185400218552
 50
166.64467081122464
 51
199.89630503514235
  0
ARC
  8
_0-0_
  6
CONTINUOUS
 62
    7
 10
-5.8474430974211771
 20
13.388484453507829
 40
1.5546724816915076
 50
249.39373938616365
 51
297.84923002207063
  0
ARC
  8
_0-0_
  6
CONTINUOUS
 62
    7
 10
-5.8949052080835287
 20
13.577437384635246
 40
1.7445272383439292
 50
296.32829310517076
 51
328.21908490701639
  0
ARC
  8
_0-0_
  6
CONTINUOUS
 62
    7
 10
-4.9909161770781765
 20
12.279721787820861
 40
0.8637790385010856
 50
86.87794143179508
 51
156.33706306070243
  0
ARC
  8
_0-0_
  6
CONTINUOUS
 62
    7
 10
-5.2548227283963769
 20
12.679822451920074
 40
0.5299471653914859
 50
185.78519960041461
 51
239.45328654197237
  0
ARC
  8
_0-0_
  6
CONTINUOUS
 62
    7
 10
-5.6781442875907402
 20
13.61519026511219
 40
1.4002583834460358
 50
276.31335711274312
 51
302.40463123864498
  0
ARC
  8
_0-0_
  6
CONTINUOUS
 62
    7
 10
-7.6444253634110169
 20
12.665749668212598
 40
1.3005404850498101
 50
58.183145346476472
 51
108.39718103800973
  0
ARC
  8
_0-0_
  6
CONTINUOUS
 62
    7
 10
-7.6485875040659579
 20
12.387385875386173
 40
1.5660569580451891
 50
105.03659682177867
 51
153.84350865160198
  0
ARC
  8
_0-0_
  6
CONTINUOUS
 62
    7
 10
-7.1326631946153896
 20
12.621533596469789
 40
1.9750185400218552
 50
166.64467081122464
 51
199.89630503514235
  0
ARC
  8
_0-0_
  6
CONTINUOUS
 62
    7
 10
-8.4426354879773413
 20
13.40460366090258
 40
1.5546724816915076
 50
249.39373938616365
 51
297.84923002207063
  0
ARC
  8
_0-0_
  6
CONTINUOUS
 62
    7
 10
-8.4900975986396929
 20
13.593556592029998
 40
1.7445272383439292
 50
296.32829310517076
 51
328.21908490701639
  0
ARC
  8
_0-0_
  6
CONTINUOUS
 62
    7
 10
-7.5861085676343407
 20
12.295840995215613
 40
0.8637790385010856
 50
86.87794143179508
 51
156.33706306070243
  0
ARC
  8
_0-0_
  6
CONTINUOUS
 62
    7
 10
-7.8500151189525411
 20
12.695941659314826
 40
0.5299471653914859
 50
185.78519960041461
 51
239.45328654197237
  0
ARC
  8
_0-0_
  6
CONTINUOUS
 62
    7
 10
-8.2733366781469044
 20
13.631309472506942
 40
1.4002583834460358
 50
276.31335711274312
 51
302.40463123864498
  0
ARC
  8
_0-0_
  6
CONTINUOUS
 62
    7
 10
-7.3703988377001082
 20
14.777365836926009
 40
1.3005404850498101
 50
58.183145346476472
 51
108.39718103800973
  0
ARC
  8
_0-0_
  6
CONTINUOUS
 62
    7
 10
-7.3745609783550492
 20
14.499002044099583
 40
1.5660569580451891
 50
105.03659682177867
 51
153.84350865160198
  0
ARC
  8
_0-0_
  6
CONTINUOUS
 62
    7
 10
-6.8586366689044809
 20
14.7331497651832
 40
1.9750185400218552
 50
166.64467081122464
 51
199.89630503514235
  0
ARC
  8
_0-0_
  6
CONTINUOUS
 62
    7
 10
-8.1686089622664326
 20
15.516219829615991
 40
1.5546724816915076
 50
249.39373938616365
 51
297.84923002207063
  0
ARC
  8
_0-0_
  6
CONTINUOUS
 62
    7
 10
-8.2160710729287842
 20
15.705172760743409
 40
1.7445272383439292
 50
296.32829310517076
 51
328.21908490701639
  0
ARC
  8
_0-0_
  6
CONTINUOUS
 62
    7
 10
-7.312082041923432
 20
14.407457163929024
 40
0.8637790385010856
 50
86.87794143179508
 51
156.33706306070243
  0
ARC
  8
_0-0_
  6
CONTINUOUS
 62
    7
 10
-7.5759885932416324
 20
14.807557828028237
 40
0.5299471653914859
 50
185.78519960041461
 51
239.45328654197237
  0
ARC
  8
_0-0_
  6
CONTINUOUS
 62
    7
 10
-7.9993101524359957
 20
15.742925641220353
 40
1.4002583834460358
 50
276.31335711274312
 51
302.40463123864498
  0
ARC
  8
_0-0_
  6
CONTINUOUS
 62
    7
 10
12.023677081075363
 20
5.4994786048573872
 40
1.3005404850498101
 50
58.183145346476472
 51
108.39718103800973
  0
ARC
  8
_0-0_
  6
CONTINUOUS
 62
    7
 10
12.019514940420422
 20
5.2211148120309616
 40
1.5660569580451891
 50
105.03659682177867
 51
153.84350865160198
  0
ARC
  8
_0-0_
  6
CONTINUOUS
 62
    7
 10
12.53543924987099
 20
5.4552625331145776
 40
1.9750185400218552
 50
166.64467081122464
 51
199.89630503514235
  0
ARC
  8
_0-0_
  6
CONTINUOUS
 62
    7
 10
11.225466956509038
 20
6.2383325975473696
 40
1.5546724816915076
 50
249.39373938616365
 51
297.84923002207063
  0
ARC
  8
_0-0_
  6
CONTINUOUS
 62
    7
 10
11.178004845846687
 20
6.427285528674787
 40
1.7445272383439292
 50
296.32829310517076
 51
328.21908490701639
  0
ARC
  8
_0-0_
  6
CONTINUOUS
 62
    7
 10
12.081993876852039
 20
5.1295699318604022
 40
0.8637790385010856
 50
86.87794143179508
 51
156.33706306070243
  0
ARC
  8
_0-0_
  6
CONTINUOUS
 62
    7
 10
11.818087325533838
 20
5.5296705959596153
 40
0.5299471653914859
 50
185.78519960041461
 51
239.45328654197237
  0
ARC
  8
_0-0_
  6
CONTINUOUS
 62
    7
 10
11.394765766339475
 20
6.465038409151731
 40
1.4002583834460358
 50
276.31335711274312
 51
302.40463123864498
  0
ARC
  8
_0-0_
  6
CONTINUOUS
 62
    7
 10
12.009405935674906
 20
3.2589087769859191
 40
1.3005404850498101
 50
58.183145346476472
 51
108.39718103800973
  0
ARC
  8
_0-0_
  6
CONTINUOUS
 62
    7
 10
12.005243795019965
 20
2.9805449841594935
 40
1.5660569580451891
 50
105.03659682177867
 51
153.84350865160198
  0
ARC
  8
_0-0_
  6
CONTINUOUS
 62
    7
 10
12.521168104470533
 20
3.2146927052431096
 40
1.9750185400218552
 50
166.64467081122464
 51
199.89630503514235
  0
ARC
  8
_0-0_
  6
CONTINUOUS
 62
    7
 10
11.211195811108581
 20
3.9977627696759015
 40
1.5546724816915076
 50
249.39373938616365
 51
297.84923002207063
  0
ARC
  8
_0-0_
  6
CONTINUOUS
 62
    7
 10
11.16373370044623
 20
4.1867157008033189
 40
1.7445272383439292
 50
296.32829310517076
 51
328.21908490701639
  0
ARC
  8
_0-0_
  6
CONTINUOUS
 62
    7
 10
12.067722731451582
 20
2.8890001039889341
 40
0.8637790385010856
 50
86.87794143179508
 51
156.33706306070243
  0
ARC
  8
_0-0_
  6
CONTINUOUS
 62
    7
 10
11.803816180133381
 20
3.2891007680881472
 40
0.5299471653914859
 50
185.78519960041461
 51
239.45328654197237
  0
ARC
  8
_0-0_
  6
CONTINUOUS
 62
    7
 10
11.380494620939018
 20
4.2244685812802629
 40
1.4002583834460358
 50
276.31335711274312
 51
302.40463123864498
  0
ARC
  8
_0-0_
  6
CONTINUOUS
 62
    7
 10
9.1694480009843176
 20
5.6992746404637558
 40
1.3005404850498101
 50
58.183145346476472
 51
108.39718103800973
  0
ARC
  8
_0-0_
  6
CONTINUOUS
 62
    7
 10
9.1652858603293765
 20
5.4209108476373302
 40
1.5660569580451891
 50
105.03659682177867
 51
153.84350865160198
  0
ARC
  8
_0-0_
  6
CONTINUOUS
 62
    7
 10
9.6812101697799449
 20
5.6550585687209463
 40
1.9750185400218552
 50
166.64467081122464
 51
199.89630503514235
  0
ARC
  8
_0-0_
  6
CONTINUOUS
 62
    7
 10
8.3712378764179931
 20
6.4381286331537382
 40
1.5546724816915076
 50
249.39373938616365
 51
297.84923002207063
  0
ARC
  8
_0-0_
  6
CONTINUOUS
 62
    7
 10
8.3237757657556415
 20
6.6270815642811556
 40
1.7445272383439292
 50
296.32829310517076
 51
328.21908490701639
  0
ARC
  8
_0-0_
  6
CONTINUOUS
 62
    7
 10
9.2277647967609937
 20
5.3293659674667708
 40
0.8637790385010856
 50
86.87794143179508
 51
156.33706306070243
  0
ARC
  8
_0-0_
  6
CONTINUOUS
 62
    7
 10
8.9638582454427933
 20
5.7294666315659839
 40
0.5299471653914859
 50
185.78519960041461
 51
239.45328654197237
  0
ARC
  8
_0-0_
  6
CONTINUOUS
 62
    7
 10
8.54053668624843
 20
6.6648344447580996
 40
1.4002583834460358
 50
276.31335711274312
 51
302.40463123864498
  0
ARC
  8
_0-0_
  6
CONTINUOUS
 62
    7
 10
6.7290821375064667
 20
5.9561552576719521
 40
1.3005404850498101
 50
58.183145346476472
 51
108.39718103800973
  0
ARC
  8
_0-0_
  6
CONTINUOUS
 62
    7
 10
6.7249199968515256
 20
5.6777914648455265
 40
1.5660569580451891
 50
105.03659682177867
 51
153.84350865160198
  0
ARC
  8
_0-0_
  6
CONTINUOUS
 62
    7
 10
7.240844306302094
 20
5.9119391859291426
 40
1.9750185400218552
 50
166.64467081122464
 51
199.89630503514235
  0
ARC
  8
_0-0_
  6
CONTINUOUS
 62
    7
 10
5.9308720129401422
 20
6.6950092503619345
 40
1.5546724816915076
 50
249.39373938616365
 51
297.84923002207063
  0
ARC
  8
_0-0_
  6
CONTINUOUS
 62
    7
 10
5.8834099022777906
 20
6.8839621814893519
 40
1.7445272383439292
 50
296.32829310517076
 51
328.21908490701639
  0
ARC
  8
_0-0_
  6
CONTINUOUS
 62
    7
 10
6.7873989332831428
 20
5.5862465846749672
 40
0.8637790385010856
 50
86.87794143179508
 51
156.33706306070243
  0
ARC
  8
_0-0_
  6
CONTINUOUS
 62
    7
 10
6.5234923819649424
 20
5.9863472487741802
 40
0.5299471653914859
 50
185.78519960041461
 51
239.45328654197237
  0
ARC
  8
_0-0_
  6
CONTINUOUS
 62
    7
 10
6.1001708227705791
 20
6.9217150619662959
 40
1.4002583834460358
 50
276.31335711274312
 51
302.40463123864498
  0
ARC
  8
_0-0_
  6
CONTINUOUS
 62
    7
 10
4.0032933660195198
 20
6.0988667116765072
 40
1.3005404850498101
 50
58.183145346476472
 51
108.39718103800973
  0
ARC
  8
_0-0_
  6
CONTINUOUS
 62
    7
 10
3.9991312253645788
 20
5.8205029188500816
 40
1.5660569580451891
 50
105.03659682177867
 51
153.84350865160198
  0
ARC
  8
_0-0_
  6
CONTINUOUS
 62
    7
 10
4.5150555348151471
 20
6.0546506399336977
 40
1.9750185400218552
 50
166.64467081122464
 51
199.89630503514235
  0
ARC
  8
_0-0_
  6
CONTINUOUS
 62
    7
 10
3.2050832414531953
 20
6.8377207043664896
 40
1.5546724816915076
 50
249.39373938616365
 51
297.84923002207063
  0
ARC
  8
_0-0_
  6
CONTINUOUS
 62
    7
 10
3.1576211307908437
 20
7.026673635493907
 40
1.7445272383439292
 50
296.32829310517076
 51
328.21908490701639
  0
ARC
  8
_0-0_
  6
CONTINUOUS
 62
    7
 10
4.0616101617961959
 20
5.7289580386795222
 40
0.8637790385010856
 50
86.87794143179508
 51
156.33706306070243
  0
ARC
  8
_0-0_
  6
CONTINUOUS
 62
    7
 10
3.7977036104779955
 20
6.1290587027787353
 40
0.5299471653914859
 50
185.78519960041461
 51
239.45328654197237
  0
ARC
  8
_0-0_
  6
CONTINUOUS
 62
    7
 10
3.3743820512836322
 20
7.064426515970851
 40
1.4002583834460358
 50
276.31335711274312
 51
302.40463123864498
  0
ARC
  8
_0-0_
  6
CONTINUOUS
 62
    7
 10
2.9472286063858348
 20
4.0152794832100369
 40
1.3005404850498101
 50
58.183145346476472
 51
108.39718103800973
  0
ARC
  8
_0-0_
  6
CONTINUOUS
 62
    7
 10
2.9430664657308938
 20
3.7369156903836114
 40
1.5660569580451891
 50
105.03659682177867
 51
153.84350865160198
  0
ARC
  8
_0-0_
  6
CONTINUOUS
 62
    7
 10
3.4589907751814621
 20
3.9710634114672274
 40
1.9750185400218552
 50
166.64467081122464
 51
199.89630503514235
  0
ARC
  8
_0-0_
  6
CONTINUOUS
 62
    7
 10
2.1490184818195104
 20
4.7541334759000193
 40
1.5546724816915076
 50
249.39373938616365
 51
297.84923002207063
  0
ARC
  8
_0-0_
  6
CONTINUOUS
 62
    7
 10
2.1015563711571588
 20
4.9430864070274367
 40
1.7445272383439292
 50
296.32829310517076
 51
328.21908490701639
  0
ARC
  8
_0-0_
  6
CONTINUOUS
 62
    7
 10
3.005545402162511
 20
3.645370810213052
 40
0.8637790385010856
 50
86.87794143179508
 51
156.33706306070243
  0
ARC
  8
_0-0_
  6
CONTINUOUS
 62
    7
 10
2.7416388508443106
 20
4.0454714743122651
 40
0.5299471653914859
 50
185.78519960041461
 51
239.45328654197237
  0
ARC
  8
_0-0_
  6
CONTINUOUS
 62
    7
 10
2.3183172916499473
 20
4.9808392875043808
 40
1.4002583834460358
 50
276.31335711274312
 51
302.40463123864498
  0
ARC
  8
_0-0_
  6
CONTINUOUS
 62
    7
 10
1.591469793342597
 20
1.9316922547435809
 40
1.3005404850498101
 50
58.183145346476472
 51
108.39718103800973
  0
ARC
  8
_0-0_
  6
CONTINUOUS
 62
    7
 10
1.5873076526876559
 20
1.6533284619171553
 40
1.5660569580451891
 50
105.03659682177867
 51
153.84350865160198
  0
ARC
  8
_0-0_
  6
CONTINUOUS
 62
    7
 10
2.1032319621382243
 20
1.8874761830007714
 40
1.9750185400218552
 50
166.64467081122464
 51
199.89630503514235
  0
ARC
  8
_0-0_
  6
CONTINUOUS
 62
    7
 10
0.7932596687762725
 20
2.6705462474335633
 40
1.5546724816915076
 50
249.39373938616365
 51
297.84923002207063
  0
ARC
  8
_0-0_
  6
CONTINUOUS
 62
    7
 10
0.7457975581139209
 20
2.8594991785609807
 40
1.7445272383439292
 50
296.32829310517076
 51
328.21908490701639
  0
ARC
  8
_0-0_
  6
CONTINUOUS
 62
    7
 10
1.6497865891192731
 20
1.5617835817465959
 40
0.8637790385010856
 50
86.87794143179508
 51
156.33706306070243
  0
ARC
  8
_0-0_
  6
CONTINUOUS
 62
    7
 10
1.3858800378010727
 20
1.961884245845809
 40
0.5299471653914859
 50
185.78519960041461
 51
239.45328654197237
  0
ARC
  8
_0-0_
  6
CONTINUOUS
 62
    7
 10
0.9625584786067094
 20
2.8972520590379247
 40
1.4002583834460358
 50
276.31335711274312
 51
302.40463123864498
  0
ARC
  8
_0-0_
  6
CONTINUOUS
 62
    7
 10
4.2173605470263595
 20
1.6319982013340137
 40
1.3005404850498101
 50
58.183145346476472
 51
108.39718103800973
  0
ARC
  8
_0-0_
  6
CONTINUOUS
 62
    7
 10
4.2131984063714185
 20
1.3536344085075882
 40
1.5660569580451891
 50
105.03659682177867
 51
153.84350865160198
  0
ARC
  8
_0-0_
  6
CONTINUOUS
 62
    7
 10
4.7291227158219868
 20
1.5877821295912042
 40
1.9750185400218552
 50
166.64467081122464
 51
199.89630503514235
  0
ARC
  8
_0-0_
  6
CONTINUOUS
 62
    7
 10
3.4191504224600351
 20
2.3708521940239962
 40
1.5546724816915076
 50
249.39373938616365
 51
297.84923002207063
  0
ARC
  8
_0-0_
  6
CONTINUOUS
 62
    7
 10
3.3716883117976835
 20
2.5598051251514136
 40
1.7445272383439292
 50
296.32829310517076
 51
328.21908490701639
  0
ARC
  8
_0-0_
  6
CONTINUOUS
 62
    7
 10
4.2756773428030357
 20
1.2620895283370288
 40
0.8637790385010856
 50
86.87794143179508
 51
156.33706306070243
  0
ARC
  8
_0-0_
  6
CONTINUOUS
 62
    7
 10
4.0117707914848353
 20
1.6621901924362419
 40
0.5299471653914859
 50
185.78519960041461
 51
239.45328654197237
  0
ARC
  8
_0-0_
  6
CONTINUOUS
 62
    7
 10
3.588449232290472
 20
2.5975580056283576
 40
1.4002583834460358
 50
276.31335711274312
 51
302.40463123864498
  0
ARC
  8
_0-0_
  6
CONTINUOUS
 62
    7
 10
4.9594601078500204
 20
3.8297545930041252
 40
1.3005404850498101
 50
58.183145346476472
 51
108.39718103800973
  0
ARC
  8
_0-0_
  6
CONTINUOUS
 62
    7
 10
4.9552979671950794
 20
3.5513908001776997
 40
1.5660569580451891
 50
105.03659682177867
 51
153.84350865160198
  0
ARC
  8
_0-0_
  6
CONTINUOUS
 62
    7
 10
5.4712222766456478
 20
3.7855385212613157
 40
1.9750185400218552
 50
166.64467081122464
 51
199.89630503514235
  0
ARC
  8
_0-0_
  6
CONTINUOUS
 62
    7
 10
4.161249983283696
 20
4.5686085856941077
 40
1.5546724816915076
 50
249.39373938616365
 51
297.84923002207063
  0
ARC
  8
_0-0_
  6
CONTINUOUS
 62
    7
 10
4.1137878726213444
 20
4.7575615168215251
 40
1.7445272383439292
 50
296.32829310517076
 51
328.21908490701639
  0
ARC
  8
_0-0_
  6
CONTINUOUS
 62
    7
 10
5.0177769036266966
 20
3.4598459200071403
 40
0.8637790385010856
 50
86.87794143179508
 51
156.33706306070243
  0
ARC
  8
_0-0_
  6
CONTINUOUS
 62
    7
 10
4.7538703523084962
 20
3.8599465841063534
 40
0.5299471653914859
 50
185.78519960041461
 51
239.45328654197237
  0
ARC
  8
_0-0_
  6
CONTINUOUS
 62
    7
 10
4.3305487931141329
 20
4.7953143972984691
 40
1.4002583834460358
 50
276.31335711274312
 51
302.40463123864498
  0
ARC
  8
_0-0_
  6
CONTINUOUS
 62
    7
 10
9.1266345647829468
 20
3.4587048125922877
 40
1.3005404850498101
 50
58.183145346476472
 51
108.39718103800973
  0
ARC
  8
_0-0_
  6
CONTINUOUS
 62
    7
 10
9.1224724241280057
 20
3.1803410197658621
 40
1.5660569580451891
 50
105.03659682177867
 51
153.84350865160198
  0
ARC
  8
_0-0_
  6
CONTINUOUS
 62
    7
 10
9.6383967335785741
 20
3.4144887408494782
 40
1.9750185400218552
 50
166.64467081122464
 51
199.89630503514235
  0
ARC
  8
_0-0_
  6
CONTINUOUS
 62
    7
 10
8.3284244402166223
 20
4.1975588052822701
 40
1.5546724816915076
 50
249.39373938616365
 51
297.84923002207063
  0
ARC
  8
_0-0_
  6
CONTINUOUS
 62
    7
 10
8.2809623295542707
 20
4.3865117364096875
 40
1.7445272383439292
 50
296.32829310517076
 51
328.21908490701639
  0
ARC
  8
_0-0_
  6
CONTINUOUS
 62
    7
 10
9.1849513605596229
 20
3.0887961395953027
 40
0.8637790385010856
 50
86.87794143179508
 51
156.33706306070243
  0
ARC
  8
_0-0_
  6
CONTINUOUS
 62
    7
 10
8.9210448092414225
 20
3.4888968036945158
 40
0.5299471653914859
 50
185.78519960041461
 51
239.45328654197237
  0
ARC
  8
_0-0_
  6
CONTINUOUS
 62
    7
 10
8.4977232500470592
 20
4.4242646168866315
 40
1.4002583834460358
 50
276.31335711274312
 51
302.40463123864498
  0
ARC
  8
_0-0_
  6
CONTINUOUS
 62
    7
 10
6.8432513007101221
 20
1.6177270559335568
 40
1.3005404850498101
 50
58.183145346476472
 51
108.39718103800973
  0
ARC
  8
_0-0_
  6
CONTINUOUS
 62
    7
 10
6.8390891600551811
 20
1.3393632631071313
 40
1.5660569580451891
 50
105.03659682177867
 51
153.84350865160198
  0
ARC
  8
_0-0_
  6
CONTINUOUS
 62
    7
 10
7.3550134695057494
 20
1.5735109841907473
 40
1.9750185400218552
 50
166.64467081122464
 51
199.89630503514235
  0
ARC
  8
_0-0_
  6
CONTINUOUS
 62
    7
 10
6.0450411761437977
 20
2.3565810486235392
 40
1.5546724816915076
 50
249.39373938616365
 51
297.84923002207063
  0
ARC
  8
_0-0_
  6
CONTINUOUS
 62
    7
 10
5.997579065481446
 20
2.5455339797509566
 40
1.7445272383439292
 50
296.32829310517076
 51
328.21908490701639
  0
ARC
  8
_0-0_
  6
CONTINUOUS
 62
    7
 10
6.9015680964867983
 20
1.2478183829365719
 40
0.8637790385010856
 50
86.87794143179508
 51
156.33706306070243
  0
ARC
  8
_0-0_
  6
CONTINUOUS
 62
    7
 10
6.6376615451685979
 20
1.647919047035785
 40
0.5299471653914859
 50
185.78519960041461
 51
239.45328654197237
  0
ARC
  8
_0-0_
  6
CONTINUOUS
 62
    7
 10
6.2143399859742345
 20
2.5832868602279007
 40
1.4002583834460358
 50
276.31335711274312
 51
302.40463123864498
  0
ARC
  8
_0-0_
  6
CONTINUOUS
 62
    7
 10
9.569040072197069
 20
1.1182369669176353
 40
1.3005404850498101
 50
58.183145346476472
 51
108.39718103800973
  0
ARC
  8
_0-0_
  6
CONTINUOUS
 62
    7
 10
9.564877931542128
 20
0.8398731740912097
 40
1.5660569580451891
 50
105.03659682177867
 51
153.84350865160198
  0
ARC
  8
_0-0_
  6
CONTINUOUS
 62
    7
 10
10.080802240992696
 20
1.0740208951748258
 40
1.9750185400218552
 50
166.64467081122464
 51
199.89630503514235
  0
ARC
  8
_0-0_
  6
CONTINUOUS
 62
    7
 10
8.7708299476307445
 20
1.8570909596076177
 40
1.5546724816915076
 50
249.39373938616365
 51
297.84923002207063
  0
ARC
  8
_0-0_
  6
CONTINUOUS
 62
    7
 10
8.7233678369683929
 20
2.0460438907350351
 40
1.7445272383439292
 50
296.32829310517076
 51
328.21908490701639
  0
ARC
  8
_0-0_
  6
CONTINUOUS
 62
    7
 10
9.6273568679737451
 20
0.7483282939206503
 40
0.8637790385010856
 50
86.87794143179508
 51
156.33706306070243
  0
ARC
  8
_0-0_
  6
CONTINUOUS
 62
    7
 10
9.3634503166555447
 20
1.1484289580198634
 40
0.5299471653914859
 50
185.78519960041461
 51
239.45328654197237
  0
ARC
  8
_0-0_
  6
CONTINUOUS
 62
    7
 10
8.9401287574611814
 20
2.0837967712119791
 40
1.4002583834460358
 50
276.31335711274312
 51
302.40463123864498
  0
ARC
  8
_0-0_
  6
CONTINUOUS
 62
    7
 10
1.3060468853334868
 20
6.3700184742851462
 40
1.3005404850498101
 50
58.183145346476472
 51
108.39718103800973
  0
ARC
  8
_0-0_
  6
CONTINUOUS
 62
    7
 10
1.3018847446785458
 20
6.0916546814587207
 40
1.5660569580451891
 50
105.03659682177867
 51
153.84350865160198
  0
ARC
  8
_0-0_
  6
CONTINUOUS
 62
    7
 10
1.8178090541291141
 20
6.3258024025423367
 40
1.9750185400218552
 50
166.64467081122464
 51
199.89630503514235
  0
ARC
  8
_0-0_
  6
CONTINUOUS
 62
    7
 10
0.5078367607671623
 20
7.1088724669751286
 40
1.5546724816915076
 50
249.39373938616365
 51
297.84923002207063
  0
ARC
  8
_0-0_
  6
CONTINUOUS
 62
    7
 10
0.4603746501048107
 20
7.297825398102546
 40
1.7445272383439292
 50
296.32829310517076
 51
328.21908490701639
  0
ARC
  8
_0-0_
  6
CONTINUOUS
 62
    7
 10
1.3643636811101629
 20
6.0001098012881613
 40
0.8637790385010856
 50
86.87794143179508
 51
156.33706306070243
  0
ARC
  8
_0-0_
  6
CONTINUOUS
 62
    7
 10
1.1004571297919625
 20
6.4002104653873744
 40
0.5299471653914859
 50
185.78519960041461
 51
239.45328654197237
  0
ARC
  8
_0-0_
  6
CONTINUOUS
 62
    7
 10
0.6771355705975992
 20
7.3355782785794901
 40
1.4002583834460358
 50
276.31335711274312
 51
302.40463123864498
  0
ARC
  8
_0-0_
  6
CONTINUOUS
 62
    7
 10
-1.1200478327439072
 20
6.5698145098915148
 40
1.3005404850498101
 50
58.183145346476472
 51
108.39718103800973
  0
ARC
  8
_0-0_
  6
CONTINUOUS
 62
    7
 10
-1.1242099733988482
 20
6.2914507170650893
 40
1.5660569580451891
 50
105.03659682177867
 51
153.84350865160198
  0
ARC
  8
_0-0_
  6
CONTINUOUS
 62
    7
 10
-0.6082856639482798
 20
6.5255984381487053
 40
1.9750185400218552
 50
166.64467081122464
 51
199.89630503514235
  0
ARC
  8
_0-0_
  6
CONTINUOUS
 62
    7
 10
-1.9182579573102316
 20
7.3086685025814973
 40
1.5546724816915076
 50
249.39373938616365
 51
297.84923002207063
  0
ARC
  8
_0-0_
  6
CONTINUOUS
 62
    7
 10
-1.9657200679725833
 20
7.4976214337089147
 40
1.7445272383439292
 50
296.32829310517076
 51
328.21908490701639
  0
ARC
  8
_0-0_
  6
CONTINUOUS
 62
    7
 10
-1.061731036967231
 20
6.1999058368945299
 40
0.8637790385010856
 50
86.87794143179508
 51
156.33706306070243
  0
ARC
  8
_0-0_
  6
CONTINUOUS
 62
    7
 10
-1.3256375882854314
 20
6.600006500993743
 40
0.5299471653914859
 50
185.78519960041461
 51
239.45328654197237
  0
ARC
  8
_0-0_
  6
CONTINUOUS
 62
    7
 10
-1.7489591474797948
 20
7.5353743141858587
 40
1.4002583834460358
 50
276.31335711274312
 51
302.40463123864498
  0
ARC
  8
_0-0_
  6
CONTINUOUS
 62
    7
 10
-3.5889559870226577
 20
6.6839836730951703
 40
1.3005404850498101
 50
58.183145346476472
 51
108.39718103800973
  0
ARC
  8
_0-0_
  6
CONTINUOUS
 62
    7
 10
-3.5931181276775987
 20
6.4056198802687447
 40
1.5660569580451891
 50
105.03659682177867
 51
153.84350865160198
  0
ARC
  8
_0-0_
  6
CONTINUOUS
 62
    7
 10
-3.0771938182270304
 20
6.6397676013523608
 40
1.9750185400218552
 50
166.64467081122464
 51
199.89630503514235
  0
ARC
  8
_0-0_
  6
CONTINUOUS
 62
    7
 10
-4.3871661115889822
 20
7.4228376657851527
 40
1.5546724816915076
 50
249.39373938616365
 51
297.84923002207063
  0
ARC
  8
_0-0_
  6
CONTINUOUS
 62
    7
 10
-4.4346282222513338
 20
7.6117905969125701
 40
1.7445272383439292
 50
296.32829310517076
 51
328.21908490701639
  0
ARC
  8
_0-0_
  6
CONTINUOUS
 62
    7
 10
-3.5306391912459816
 20
6.3140750000981853
 40
0.8637790385010856
 50
86.87794143179508
 51
156.33706306070243
  0
ARC
  8
_0-0_
  6
CONTINUOUS
 62
    7
 10
-3.794545742564182
 20
6.7141756641973984
 40
0.5299471653914859
 50
185.78519960041461
 51
239.45328654197237
  0
ARC
  8
_0-0_
  6
CONTINUOUS
 62
    7
 10
-4.2178673017585453
 20
7.6495434773895141
 40
1.4002583834460358
 50
276.31335711274312
 51
302.40463123864498
  0
ARC
  8
_0-0_
  6
CONTINUOUS
 62
    7
 10
-6.0435929959009655
 20
6.8837797087015389
 40
1.3005404850498101
 50
58.183145346476472
 51
108.39718103800973
  0
ARC
  8
_0-0_
  6
CONTINUOUS
 62
    7
 10
-6.0477551365559066
 20
6.6054159158751133
 40
1.5660569580451891
 50
105.03659682177867
 51
153.84350865160198
  0
ARC
  8
_0-0_
  6
CONTINUOUS
 62
    7
 10
-5.5318308271053382
 20
6.8395636369587294
 40
1.9750185400218552
 50
166.64467081122464
 51
199.89630503514235
  0
ARC
  8
_0-0_
  6
CONTINUOUS
 62
    7
 10
-6.84180312046729
 20
7.6226337013915213
 40
1.5546724816915076
 50
249.39373938616365
 51
297.84923002207063
  0
ARC
  8
_0-0_
  6
CONTINUOUS
 62
    7
 10
-6.8892652311296416
 20
7.8115866325189387
 40
1.7445272383439292
 50
296.32829310517076
 51
328.21908490701639
  0
ARC
  8
_0-0_
  6
CONTINUOUS
 62
    7
 10
-5.9852762001242894
 20
6.5138710357045539
 40
0.8637790385010856
 50
86.87794143179508
 51
156.33706306070243
  0
ARC
  8
_0-0_
  6
CONTINUOUS
 62
    7
 10
-6.2491827514424898
 20
6.913971699803767
 40
0.5299471653914859
 50
185.78519960041461
 51
239.45328654197237
  0
ARC
  8
_0-0_
  6
CONTINUOUS
 62
    7
 10
-6.6725043106368531
 20
7.8493395129958827
 40
1.4002583834460358
 50
276.31335711274312
 51
302.40463123864498
  0
ARC
  8
_0-0_
  6
CONTINUOUS
 62
    7
 10
-8.698026040385642
 20
7.0693045989074506
 40
1.3005404850498101
 50
58.183145346476472
 51
108.39718103800973
  0
ARC
  8
_0-0_
  6
CONTINUOUS
 62
    7
 10
-8.702188181040583
 20
6.790940806081025
 40
1.5660569580451891
 50
105.03659682177867
 51
153.84350865160198
  0
ARC
  8
_0-0_
  6
CONTINUOUS
 62
    7
 10
-8.1862638715900147
 20
7.0250885271646411
 40
1.9750185400218552
 50
166.64467081122464
 51
199.89630503514235
  0
ARC
  8
_0-0_
  6
CONTINUOUS
 62
    7
 10
-9.4962361649519664
 20
7.808158591597433
 40
1.5546724816915076
 50
249.39373938616365
 51
297.84923002207063
  0
ARC
  8
_0-0_
  6
CONTINUOUS
 62
    7
 10
-9.543698275614318
 20
7.9971115227248504
 40
1.7445272383439292
 50
296.32829310517076
 51
328.21908490701639
  0
ARC
  8
_0-0_
  6
CONTINUOUS
 62
    7
 10
-8.6397092446089658
 20
6.6993959259104656
 40
0.8637790385010856
 50
86.87794143179508
 51
156.33706306070243
  0
ARC
  8
_0-0_
  6
CONTINUOUS
 62
    7
 10
-8.9036157959271662
 20
7.0994965900096787
 40
0.5299471653914859
 50
185.78519960041461
 51
239.45328654197237
  0
ARC
  8
_0-0_
  6
CONTINUOUS
 62
    7
 10
-9.3269373551215295
 20
8.0348644032017944
 40
1.4002583834460358
 50
276.31335711274312
 51
302.40463123864498
  0
ARC
  8
_0-0_
  6
CONTINUOUS
 62
    7
 10
-7.156742337136464
 20
4.8144636256355255
 40
1.3005404850498101
 50
58.183145346476472
 51
108.39718103800973
  0
ARC
  8
_0-0_
  6
CONTINUOUS
 62
    7
 10
-7.160904477791405
 20
4.5360998328091
 40
1.5660569580451891
 50
105.03659682177867
 51
153.84350865160198
  0
ARC
  8
_0-0_
  6
CONTINUOUS
 62
    7
 10
-6.6449801683408367
 20
4.770247553892716
 40
1.9750185400218552
 50
166.64467081122464
 51
199.89630503514235
  0
ARC
  8
_0-0_
  6
CONTINUOUS
 62
    7
 10
-7.9549524617027885
 20
5.553317618325508
 40
1.5546724816915076
 50
249.39373938616365
 51
297.84923002207063
  0
ARC
  8
_0-0_
  6
CONTINUOUS
 62
    7
 10
-8.0024145723651401
 20
5.7422705494529254
 40
1.7445272383439292
 50
296.32829310517076
 51
328.21908490701639
  0
ARC
  8
_0-0_
  6
CONTINUOUS
 62
    7
 10
-7.0984255413597879
 20
4.4445549526385406
 40
0.8637790385010856
 50
86.87794143179508
 51
156.33706306070243
  0
ARC
  8
_0-0_
  6
CONTINUOUS
 62
    7
 10
-7.3623320926779883
 20
4.8446556167377537
 40
0.5299471653914859
 50
185.78519960041461
 51
239.45328654197237
  0
ARC
  8
_0-0_
  6
CONTINUOUS
 62
    7
 10
-7.7856536518723516
 20
5.7800234299298694
 40
1.4002583834460358
 50
276.31335711274312
 51
302.40463123864498
  0
ARC
  8
_0-0_
  6
CONTINUOUS
 62
    7
 10
-8.7265683311865416
 20
2.7451475425695264
 40
1.3005404850498101
 50
58.183145346476472
 51
108.39718103800973
  0
ARC
  8
_0-0_
  6
CONTINUOUS
 62
    7
 10
-8.7307304718414827
 20
2.4667837497431009
 40
1.5660569580451891
 50
105.03659682177867
 51
153.84350865160198
  0
ARC
  8
_0-0_
  6
CONTINUOUS
 62
    7
 10
-8.2148061623909143
 20
2.7009314708267169
 40
1.9750185400218552
 50
166.64467081122464
 51
199.89630503514235
  0
ARC
  8
_0-0_
  6
CONTINUOUS
 62
    7
 10
-9.5247784557528661
 20
3.4840015352595088
 40
1.5546724816915076
 50
249.39373938616365
 51
297.84923002207063
  0
ARC
  8
_0-0_
  6
CONTINUOUS
 62
    7
 10
-9.5722405664152177
 20
3.6729544663869262
 40
1.7445272383439292
 50
296.32829310517076
 51
328.21908490701639
  0
ARC
  8
_0-0_
  6
CONTINUOUS
 62
    7
 10
-8.6682515354098655
 20
2.3752388695725415
 40
0.8637790385010856
 50
86.87794143179508
 51
156.33706306070243
  0
ARC
  8
_0-0_
  6
CONTINUOUS
 62
    7
 10
-8.9321580867280659
 20
2.7753395336717546
 40
0.5299471653914859
 50
185.78519960041461
 51
239.45328654197237
  0
ARC
  8
_0-0_
  6
CONTINUOUS
 62
    7
 10
-9.3554796459224292
 20
3.7107073468638703
 40
1.4002583834460358
 50
276.31335711274312
 51
302.40463123864498
  0
ARC
  8
_0-0_
  6
CONTINUOUS
 62
    7
 10
-4.9875282362672806
 20
4.5433118630268865
 40
1.3005404850498101
 50
58.183145346476472
 51
108.39718103800973
  0
ARC
  8
_0-0_
  6
CONTINUOUS
 62
    7
 10
-4.9916903769222216
 20
4.264948070200461
 40
1.5660569580451891
 50
105.03659682177867
 51
153.84350865160198
  0
ARC
  8
_0-0_
  6
CONTINUOUS
 62
    7
 10
-4.4757660674716533
 20
4.499095791284077
 40
1.9750185400218552
 50
166.64467081122464
 51
199.89630503514235
  0
ARC
  8
_0-0_
  6
CONTINUOUS
 62
    7
 10
-5.785738360833605
 20
5.2821658557168689
 40
1.5546724816915076
 50
249.39373938616365
 51
297.84923002207063
  0
ARC
  8
_0-0_
  6
CONTINUOUS
 62
    7
 10
-5.8332004714959567
 20
5.4711187868442863
 40
1.7445272383439292
 50
296.32829310517076
 51
328.21908490701639
  0
ARC
  8
_0-0_
  6
CONTINUOUS
 62
    7
 10
-4.9292114404906044
 20
4.1734031900299016
 40
0.8637790385010856
 50
86.87794143179508
 51
156.33706306070243
  0
ARC
  8
_0-0_
  6
CONTINUOUS
 62
    7
 10
-5.1931179918088048
 20
4.5735038541291146
 40
0.5299471653914859
 50
185.78519960041461
 51
239.45328654197237
  0
ARC
  8
_0-0_
  6
CONTINUOUS
 62
    7
 10
-5.6164395510031682
 20
5.5088716673212303
 40
1.4002583834460358
 50
276.31335711274312
 51
302.40463123864498
  0
ARC
  8
_0-0_
  6
CONTINUOUS
 62
    7
 10
-6.3147447585096046
 20
2.4026400529585885
 40
1.3005404850498101
 50
58.183145346476472
 51
108.39718103800973
  0
ARC
  8
_0-0_
  6
CONTINUOUS
 62
    7
 10
-6.3189068991645456
 20
2.124276260132163
 40
1.5660569580451891
 50
105.03659682177867
 51
153.84350865160198
  0
ARC
  8
_0-0_
  6
CONTINUOUS
 62
    7
 10
-5.8029825897139773
 20
2.358423981215779
 40
1.9750185400218552
 50
166.64467081122464
 51
199.89630503514235
  0
ARC
  8
_0-0_
  6
CONTINUOUS
 62
    7
 10
-7.112954883075929
 20
3.1414940456485709
 40
1.5546724816915076
 50
249.39373938616365
 51
297.84923002207063
  0
ARC
  8
_0-0_
  6
CONTINUOUS
 62
    7
 10
-7.1604169937382807
 20
3.3304469767759883
 40
1.7445272383439292
 50
296.32829310517076
 51
328.21908490701639
  0
ARC
  8
_0-0_
  6
CONTINUOUS
 62
    7
 10
-6.2564279627329284
 20
2.0327313799616036
 40
0.8637790385010856
 50
86.87794143179508
 51
156.33706306070243
  0
ARC
  8
_0-0_
  6
CONTINUOUS
 62
    7
 10
-6.5203345140511288
 20
2.4328320440608167
 40
0.5299471653914859
 50
185.78519960041461
 51
239.45328654197237
  0
ARC
  8
_0-0_
  6
CONTINUOUS
 62
    7
 10
-6.9436560732454922
 20
3.3681998572529324
 40
1.4002583834460358
 50
276.31335711274312
 51
302.40463123864498
  0
ARC
  8
_0-0_
  6
CONTINUOUS
 62
    7
 10
-3.6460405686244854
 20
2.4169111983590454
 40
1.3005404850498101
 50
58.183145346476472
 51
108.39718103800973
  0
ARC
  8
_0-0_
  6
CONTINUOUS
 62
    7
 10
-3.6502027092794265
 20
2.1385474055326199
 40
1.5660569580451891
 50
105.03659682177867
 51
153.84350865160198
  0
ARC
  8
_0-0_
  6
CONTINUOUS
 62
    7
 10
-3.1342783998288581
 20
2.3726951266162359
 40
1.9750185400218552
 50
166.64467081122464
 51
199.89630503514235
  0
ARC
  8
_0-0_
  6
CONTINUOUS
 62
    7
 10
-4.4442506931908099
 20
3.1557651910490279
 40
1.5546724816915076
 50
249.39373938616365
 51
297.84923002207063
  0
ARC
  8
_0-0_
  6
CONTINUOUS
 62
    7
 10
-4.4917128038531615
 20
3.3447181221764453
 40
1.7445272383439292
 50
296.32829310517076
 51
328.21908490701639
  0
ARC
  8
_0-0_
  6
CONTINUOUS
 62
    7
 10
-3.5877237728478093
 20
2.0470025253620605
 40
0.8637790385010856
 50
86.87794143179508
 51
156.33706306070243
  0
ARC
  8
_0-0_
  6
CONTINUOUS
 62
    7
 10
-3.8516303241660097
 20
2.4471031894612736
 40
0.5299471653914859
 50
185.78519960041461
 51
239.45328654197237
  0
ARC
  8
_0-0_
  6
CONTINUOUS
 62
    7
 10
-4.274951883360373
 20
3.3824710026533893
 40
1.4002583834460358
 50
276.31335711274312
 51
302.40463123864498
  0
ARC
  8
_0-0_
  6
CONTINUOUS
 62
    7
 10
-0.977336378739352
 20
2.2599285989540476
 40
1.3005404850498101
 50
58.183145346476472
 51
108.39718103800973
  0
ARC
  8
_0-0_
  6
CONTINUOUS
 62
    7
 10
-0.9814985193942931
 20
1.9815648061276221
 40
1.5660569580451891
 50
105.03659682177867
 51
153.84350865160198
  0
ARC
  8
_0-0_
  6
CONTINUOUS
 62
    7
 10
-0.4655742099437247
 20
2.2157125272112381
 40
1.9750185400218552
 50
166.64467081122464
 51
199.89630503514235
  0
ARC
  8
_0-0_
  6
CONTINUOUS
 62
    7
 10
-1.7755465033056765
 20
2.99878259164403
 40
1.5546724816915076
 50
249.39373938616365
 51
297.84923002207063
  0
ARC
  8
_0-0_
  6
CONTINUOUS
 62
    7
 10
-1.8230086139680282
 20
3.1877355227714474
 40
1.7445272383439292
 50
296.32829310517076
 51
328.21908490701639
  0
ARC
  8
_0-0_
  6
CONTINUOUS
 62
    7
 10
-0.9190195829626759
 20
1.8900199259570627
 40
0.8637790385010856
 50
86.87794143179508
 51
156.33706306070243
  0
ARC
  8
_0-0_
  6
CONTINUOUS
 62
    7
 10
-1.1829261342808763
 20
2.2901205900562758
 40
0.5299471653914859
 50
185.78519960041461
 51
239.45328654197237
  0
ARC
  8
_0-0_
  6
CONTINUOUS
 62
    7
 10
-1.6062476934752397
 20
3.2254884032483915
 40
1.4002583834460358
 50
276.31335711274312
 51
302.40463123864498
  0
ARC
  8
_0-0_
  6
CONTINUOUS
 62
    7
 10
-11.095578467662122
 20
7.1549314713101921
 40
1.3005404850498101
 50
58.183145346476472
 51
108.39718103800973
  0
ARC
  8
_0-0_
  6
CONTINUOUS
 62
    7
 10
-11.099740608317063
 20
6.8765676784837666
 40
1.5660569580451891
 50
105.03659682177867
 51
153.84350865160198
  0
ARC
  8
_0-0_
  6
CONTINUOUS
 62
    7
 10
-10.583816298866495
 20
7.1107153995673826
 40
1.9750185400218552
 50
166.64467081122464
 51
199.89630503514235
  0
ARC
  8
_0-0_
  6
CONTINUOUS
 62
    7
 10
-11.893788592228447
 20
7.8937854640001746
 40
1.5546724816915076
 50
249.39373938616365
 51
297.84923002207063
  0
ARC
  8
_0-0_
  6
CONTINUOUS
 62
    7
 10
-11.941250702890798
 20
8.082738395127592
 40
1.7445272383439292
 50
296.32829310517076
 51
328.21908490701639
  0
ARC
  8
_0-0_
  6
CONTINUOUS
 62
    7
 10
-11.037261671885446
 20
6.7850227983132072
 40
0.8637790385010856
 50
86.87794143179508
 51
156.33706306070243
  0
ARC
  8
_0-0_
  6
CONTINUOUS
 62
    7
 10
-11.301168223203646
 20
7.1851234624124203
 40
0.5299471653914859
 50
185.78519960041461
 51
239.45328654197237
  0
ARC
  8
_0-0_
  6
CONTINUOUS
 62
    7
 10
-11.72448978239801
 20
8.120491275604536
 40
1.4002583834460358
 50
276.31335711274312
 51
302.40463123864498
  0
ARC
  8
_0-0_
  6
CONTINUOUS
 62
    7
 10
-13.136352259927207
 20
5.3424960054523751
 40
1.3005404850498101
 50
58.183145346476472
 51
108.39718103800973
  0
ARC
  8
_0-0_
  6
CONTINUOUS
 62
    7
 10
-13.140514400582148
 20
5.0641322126259496
 40
1.5660569580451891
 50
105.03659682177867
 51
153.84350865160198
  0
ARC
  8
_0-0_
  6
CONTINUOUS
 62
    7
 10
-12.62459009113158
 20
5.2982799337095656
 40
1.9750185400218552
 50
166.64467081122464
 51
199.89630503514235
  0
ARC
  8
_0-0_
  6
CONTINUOUS
 62
    7
 10
-13.934562384493532
 20
6.0813499981423575
 40
1.5546724816915076
 50
249.39373938616365
 51
297.84923002207063
  0
ARC
  8
_0-0_
  6
CONTINUOUS
 62
    7
 10
-13.982024495155883
 20
6.2703029292697749
 40
1.7445272383439292
 50
296.32829310517076
 51
328.21908490701639
  0
ARC
  8
_0-0_
  6
CONTINUOUS
 62
    7
 10
-13.078035464150531
 20
4.9725873324553902
 40
0.8637790385010856
 50
86.87794143179508
 51
156.33706306070243
  0
ARC
  8
_0-0_
  6
CONTINUOUS
 62
    7
 10
-13.341942015468732
 20
5.3726879965546033
 40
0.5299471653914859
 50
185.78519960041461
 51
239.45328654197237
  0
ARC
  8
_0-0_
  6
CONTINUOUS
 62
    7
 10
-13.765263574663095
 20
6.308055809746719
 40
1.4002583834460358
 50
276.31335711274312
 51
302.40463123864498
  0
ARC
  8
_0-0_
  6
CONTINUOUS
 62
    7
 10
-13.293334859332219
 20
3.3017222131872757
 40
1.3005404850498101
 50
58.183145346476472
 51
108.39718103800973
  0
ARC
  8
_0-0_
  6
CONTINUOUS
 62
    7
 10
-13.29749699998716
 20
3.0233584203608501
 40
1.5660569580451891
 50
105.03659682177867
 51
153.84350865160198
  0
ARC
  8
_0-0_
  6
CONTINUOUS
 62
    7
 10
-12.781572690536592
 20
3.2575061414444662
 40
1.9750185400218552
 50
166.64467081122464
 51
199.89630503514235
  0
ARC
  8
_0-0_
  6
CONTINUOUS
 62
    7
 10
-14.091544983898544
 20
4.0405762058772581
 40
1.5546724816915076
 50
249.39373938616365
 51
297.84923002207063
  0
ARC
  8
_0-0_
  6
CONTINUOUS
 62
    7
 10
-14.139007094560895
 20
4.2295291370046755
 40
1.7445272383439292
 50
296.32829310517076
 51
328.21908490701639
  0
ARC
  8
_0-0_
  6
CONTINUOUS
 62
    7
 10
-13.235018063555543
 20
2.9318135401902907
 40
0.8637790385010856
 50
86.87794143179508
 51
156.33706306070243
  0
ARC
  8
_0-0_
  6
CONTINUOUS
 62
    7
 10
-13.498924614873744
 20
3.3319142042895038
 40
0.5299471653914859
 50
185.78519960041461
 51
239.45328654197237
  0
ARC
  8
_0-0_
  6
CONTINUOUS
 62
    7
 10
-13.922246174068107
 20
4.2672820174816195
 40
1.4002583834460358
 50
276.31335711274312
 51
302.40463123864498
  0
ARC
  8
_0-0_
  6
CONTINUOUS
 62
    7
 10
-10.681715251048914
 20
5.0856153882441788
 40
1.3005404850498101
 50
58.183145346476472
 51
108.39718103800973
  0
ARC
  8
_0-0_
  6
CONTINUOUS
 62
    7
 10
-10.685877391703855
 20
4.8072515954177533
 40
1.5660569580451891
 50
105.03659682177867
 51
153.84350865160198
  0
ARC
  8
_0-0_
  6
CONTINUOUS
 62
    7
 10
-10.169953082253286
 20
5.0413993165013693
 40
1.9750185400218552
 50
166.64467081122464
 51
199.89630503514235
  0
ARC
  8
_0-0_
  6
CONTINUOUS
 62
    7
 10
-11.479925375615238
 20
5.8244693809341612
 40
1.5546724816915076
 50
249.39373938616365
 51
297.84923002207063
  0
ARC
  8
_0-0_
  6
CONTINUOUS
 62
    7
 10
-11.52738748627759
 20
6.0134223120615786
 40
1.7445272383439292
 50
296.32829310517076
 51
328.21908490701639
  0
ARC
  8
_0-0_
  6
CONTINUOUS
 62
    7
 10
-10.623398455272238
 20
4.7157067152471939
 40
0.8637790385010856
 50
86.87794143179508
 51
156.33706306070243
  0
ARC
  8
_0-0_
  6
CONTINUOUS
 62
    7
 10
-10.887305006590438
 20
5.1158073793464069
 40
0.5299471653914859
 50
185.78519960041461
 51
239.45328654197237
  0
ARC
  8
_0-0_
  6
CONTINUOUS
 62
    7
 10
-11.310626565784801
 20
6.0511751925385227
 40
1.4002583834460358
 50
276.31335711274312
 51
302.40463123864498
  0
ARC
  8
_0-0_
  6
CONTINUOUS
 62
    7
 10
-11.038493886060294
 20
2.8165032695717969
 40
1.3005404850498101
 50
58.183145346476472
 51
108.39718103800973
  0
ARC
  8
_0-0_
  6
CONTINUOUS
 62
    7
 10
-11.042656026715235
 20
2.5381394767453713
 40
1.5660569580451891
 50
105.03659682177867
 51
153.84350865160198
  0
ARC
  8
_0-0_
  6
CONTINUOUS
 62
    7
 10
-10.526731717264667
 20
2.7722871978289874
 40
1.9750185400218552
 50
166.64467081122464
 51
199.89630503514235
  0
ARC
  8
_0-0_
  6
CONTINUOUS
 62
    7
 10
-11.836704010626619
 20
3.5553572622617793
 40
1.5546724816915076
 50
249.39373938616365
 51
297.84923002207063
  0
ARC
  8
_0-0_
  6
CONTINUOUS
 62
    7
 10
-11.88416612128897
 20
3.7443101933891967
 40
1.7445272383439292
 50
296.32829310517076
 51
328.21908490701639
  0
ARC
  8
_0-0_
  6
CONTINUOUS
 62
    7
 10
-10.980177090283618
 20
2.4465945965748119
 40
0.8637790385010856
 50
86.87794143179508
 51
156.33706306070243
  0
ARC
  8
_0-0_
  6
CONTINUOUS
 62
    7
 10
-11.244083641601819
 20
2.846695260674025
 40
0.5299471653914859
 50
185.78519960041461
 51
239.45328654197237
  0
ARC
  8
_0-0_
  6
CONTINUOUS
 62
    7
 10
-11.667405200796182
 20
3.7820630738661407
 40
1.4002583834460358
 50
276.31335711274312
 51
302.40463123864498
  0
LINE
  8
_0-0_
  6
CONTINUOUS
 62
    7
 10
-15.84431873997535
 20
2.6488805747508195
 11
9.786658399242242
 21
0.3226838744766098
  0
LINE
  8
_0-0_
  6
CONTINUOUS
 62
    7
 10
10.928350031278669
 20
0.6937336548884474
 11
14.239255764184279
 21
6.5877167052764634
  0
ARC
  8
_0-0_
  6
CONTINUOUS
 62
    7
 10
10.082652526066468
 20
1.3539062698947788
 40
1.0728616648601206
 50
253.98481161608981
 51
322.02351159573743
  0
LINE
  8
_0-0_
  6
CONTINUOUS
 62
    7
 10
-10.195372226939369
 20
12.199577656795597
 11
16.071301919639993
 21
10.816150296547391
  0
LINE
  8
_0-0_
  6
CONTINUOUS
 62
    7
 10
17.048923920882075
 20
11.277292749963451
 11
20.055572717154845
 21
16.755665096546366
  0
ARC
  8
_0-0_
  6
CONTINUOUS
 62
    7
 10
15.75754768883499
 20
12.748159813878686
 40
1.9573202324624184
 50
279.22418508829674
 51
311.28214170084965
  0
ARC
  8
_0-0_
  6
CONTINUOUS
 62
    7
 10
19.718971901877197
 20
16.845305881375879
 40
0.3483325697525737
 50
345.08756447795912
 51
73.864213528533796
  0
ARC
  8
_0-0_
  6
CONTINUOUS
 62
    7
 10
20.976904090329725
 20
15.982249120520237
 40
5.1638478338757379
 50
340.40107446827352
 51
6.5593220284119456
  0
ARC
  8
_0-0_
  6
CONTINUOUS
 62
    7
 10
11.563018139586731
 20
18.710977527046069
 40
14.959161861722025
 50
329.59321405220334
 51
342.65033266231302
  0
ENDBLK
  0
ENDSEC
  0
SECTION
  2
ENTITIES
  0
LINE
  8
_0-0_
  6
CONTINUOUS
 62
    7
 10
-1244.420826261083
 20
-1127.4836411798831
 11
1755.579173738917
 21
-1127.4836411798831
  0
LINE
  8
_0-0_
  6
CONTINUOUS
 62
    7
 10
1755.579173738917
 20
-1127.4836411798831
 11
1755.579173738917
 21
1392.5163588201169
  0
LINE
  8
_0-0_
  6
CONTINUOUS
 62
    7
 10
1755.579173738917
 20
1392.5163588201169
 11
-1244.420826261083
 21
1392.5163588201169
  0
LINE
  8
_0-0_
  6
CONTINUOUS
 62
    7
 10
-1244.420826261083
 20
1392.5163588201169
 11
-1244.420826261083
 21
-1127.4836411798831
  0
INSERT
  2
-003-1
  8
_0-0_
 10
139.23979591836735
 20
119.64795918367346
 41
1
 42
1
 50
0
  0
ENDSEC
  0
EOF
