  0
SECTION
  2
HEADER
  9
$ACADVER
  1
AC1009
  9
$INSBASE
 10
0
 20
0
 30
0
  9
$EXTMIN
 10
0
 20
0
  9
$EXTMAX
 10
297
 20
210
  9
$LIMMIN
 10
0
 20
0
  9
$LIMMAX
 10
297
 20
210
  9
$LTSCALE
 40
1
  0
ENDSEC
  0
SECTION
  2
TABLES
  0
TABLE
  2
LTYPE
 70
     9
  0
LTYPE
  2
CONTINUOUS
 70
    64
  3
実線
 72
    65
 73
     0
 40
0.0
  0
LTYPE
  2
DASHED1
 70
    64
  3
--  --  --  --  --  --  --  --  
 72
    65
 73
     2
 40
2.5
 49
1.25
 49
-1.25
  0
LTYPE
  2
DASHED2
 70
    64
  3
----    ----    ----    ----    
 72
    65
 73
     2
 40
5.0
 49
2.5
 49
-2.5
  0
LTYPE
  2
DASHED3
 70
    64
  3
------  ------  ------  ------  
 72
    65
 73
     2
 40
5.0
 49
3.75
 49
-1.25
  0
LTYPE
  2
CENTER1
 70
    64
  3
----- - ----- - ----- - ----- - 
 72
    65
 73
     4
 40
10.0
 49
6.25
 49
-1.25
 49
1.25
 49
-1.25
  0
LTYPE
  2
CENTER2
 70
    64
  3
----------  --  ----------  --  
 72
    65
 73
     4
 40
20.0
 49
12.5
 49
-2.5
 49
2.5
 49
-2.5
  0
LTYPE
  2
PHANTOM1
 70
    64
  3
--- - - --- - - --- - - --- - - 
 72
    65
 73
     6
 40
10.0
 49
3.25
 49
-1.25
 49
1.25
 49
-1.25
 49
1.25
 49
-1.25
  0
LTYPE
  2
PHANTOM2
 70
    64
  3
--------  -  -  --------  -  -  
 72
    65
 73
     6
 40
20.0
 49
10.0
 49
-2.5
 49
1.25
 49
-2.5
 49
1.25
 49
-2.5
  0
LTYPE
  2
DOT
 70
    64
  3
-   -   -   -   -   -   -   -   
 72
    65
 73
     2
 40
2.5
 49
0.625
 49
-1.875
  0
LTYPE
  2
DUMMY
 70
    64
  3
ダミー
 72
    65
 73
     0
 40
0.0
  0
LTYPE
  2
RAND1
 70
    64
  3
ランダム線1
 72
    65
 73
     4
 40
10.0
 49
1.0
 49
-2.0
 49
3.0
 49
-4.0
  0
LTYPE
  2
RAND2
 70
    64
  3
ランダム線2
 72
    65
 73
     4
 40
14.0
 49
2.0
 49
-3.0
 49
4.0
 49
-5.0
  0
LTYPE
  2
RAND3
 70
    64
  3
ランダム線3
 72
    65
 73
     4
 40
18.0
 49
3.0
 49
-4.0
 49
5.0
 49
-6.0
  0
LTYPE
  2
RAND4
 70
    64
  3
ランダム線4
 72
    65
 73
     4
 40
22.0
 49
4.0
 49
-5.0
 49
6.0
 49
-7.0
  0
LTYPE
  2
RAND5
 70
    64
  3
ランダム線5
 72
    65
 73
     4
 40
26.0
 49
5.0
 49
-6.0
 49
7.0
 49
-8.0
  0
LTYPE
  2
LONG1
 70
    64
  3
----------  --  ----------  --  
 72
    65
 73
     4
 40
40.0
 49
32.5
 49
-2.5
 49
2.5
 49
-2.5
  0
LTYPE
  2
LONG2
 70
    64
  3
--------  -  -  --------  -  -  
 72
    65
 73
     6
 40
40.0
 49
30.0
 49
-2.5
 49
1.25
 49
-2.5
 49
1.25
 49
-2.5
  0
LTYPE
  2
LONG3
 70
    64
  3
+++++++++++++++..+++++++++++++++
 72
    65
 73
     2
 40
40.0
 49
37.5
 49
-2.5
  0
LTYPE
  2
LONG4
 70
    64
  3
+++++++++++++++..+++++++++++++++
 72
    65
 73
     2
 40
80.0
 49
75.0
 49
-5.0
  0
LTYPE
  2
LONG5
 70
    64
  3
----------  --  ----------  --  
 72
    65
 73
     4
 40
60.0
 49
37.5
 49
-7.5
 49
7.5
 49
-7.5
  0
LTYPE
  2
dashed
 70
   64
  3
-------   -------------   ------
 72
   65
 73
    2
 40
7.5
 49
6
 49
-1.5
  0
LTYPE
  2
dashed_spaced
 70
   64
  3
----        --------        ----
 72
   65
 73
    2
 40
12
 49
6
 49
-6
  0
LTYPE
  2
long_dashed_dotted
 70
   64
  3
------------- --- --------------
 72
   65
 73
    4
 40
15.25
 49
12
 49
-1.5
 49
0.25
 49
-1.5
  0
LTYPE
  2
long_dashed_double-dotted
 70
   64
  3
----------- --- --- ------------
 72
   65
 73
    6
 40
17
 49
12
 49
-1.5
 49
0.25
 49
-1.5
 49
0.25
 49
-1.5
  0
LTYPE
  2
long_dashed_triplicate-dotted
 70
   64
  3
--------- --- --- --- ----------
 72
   65
 73
    8
 40
18.75
 49
12
 49
-1.5
 49
0.25
 49
-1.5
 49
0.25
 49
-1.5
 49
0.25
 49
-1.5
  0
LTYPE
  2
dotted
 70
   64
  3
   -       -       -       -    
 72
   65
 73
    2
 40
1.75
 49
0.25
 49
-1.5
  0
LTYPE
  2
chain
 70
   64
  3
-------------- -- --------------
 72
   65
 73
    4
 40
18.5
 49
12
 49
-1.5
 49
3.5
 49
-1.5
  0
LTYPE
  2
chain_double_dash
 70
   64
  3
------------ -- -- -------------
 72
   65
 73
    6
 40
23.5
 49
12
 49
-1.5
 49
3.5
 49
-1.5
 49
3.5
 49
-1.5
  0
LTYPE
  2
dashed_dotted
 70
   64
  3
-----------     -     ----------
 72
   65
 73
    4
 40
9.25
 49
6
 49
-1.5
 49
0.25
 49
-1.5
  0
LTYPE
  2
double-dashed_dotted
 70
   64
  3
------   -----------   -   -----
 72
   65
 73
    6
 40
16.75
 49
6
 49
-1.5
 49
6
 49
-1.5
 49
0.25
 49
-1.5
  0
LTYPE
  2
dashed_double-dotted
 70
   64
  3
---------    -    -    ---------
 72
   65
 73
    6
 40
11
 49
6
 49
-1.5
 49
0.25
 49
-1.5
 49
0.25
 49
-1.5
  0
LTYPE
  2
double-dashed_double-dotted
 70
   64
  3
-----   ---------   -   -   ----
 72
   65
 73
    8
 40
18.5
 49
6
 49
-1.5
 49
6
 49
-1.5
 49
0.25
 49
-1.5
 49
0.25
 49
-1.5
  0
LTYPE
  2
dashed_triplicate-dotted
 70
   64
  3
-------    -    -    -    ------
 72
   65
 73
    8
 40
12.75
 49
6
 49
-1.5
 49
0.25
 49
-1.5
 49
0.25
 49
-1.5
 49
0.25
 49
-1.5
  0
LTYPE
  2
double-dashed_triplicate-dotted
 70
   64
  3
-----  ---------  -  -  -  -----
 72
   65
 73
   10
 40
20.25
 49
6
 49
-1.5
 49
6
 49
-1.5
 49
0.25
 49
-1.5
 49
0.25
 49
-1.5
 49
0.25
 49
-1.5
  0
LTYPE
  2
undefined
 70
   64
  3
--------------------------------
 72
   65
 73
    0
 40
0
  0
LTYPE
  2
_
 70
   64
  3
                                
 72
   65
 73
    0
 40
0
  0
LTYPE
  2
__18
 70
   64
  3
                                
 72
   65
 73
    0
 40
0
  0
LTYPE
  2
__19
 70
   64
  3
                                
 72
   65
 73
    0
 40
0
  0
LTYPE
  2
__20
 70
   64
  3
                                
 72
   65
 73
    0
 40
0
  0
LTYPE
  2
__21
 70
   64
  3
                                
 72
   65
 73
    0
 40
0
  0
LTYPE
  2
__22
 70
   64
  3
                                
 72
   65
 73
    0
 40
0
  0
LTYPE
  2
__23
 70
   64
  3
                                
 72
   65
 73
    0
 40
0
  0
LTYPE
  2
__24
 70
   64
  3
                                
 72
   65
 73
    0
 40
0
  0
LTYPE
  2
__25
 70
   64
  3
                                
 72
   65
 73
    0
 40
0
  0
LTYPE
  2
__26
 70
   64
  3
                                
 72
   65
 73
    0
 40
0
  0
LTYPE
  2
__27
 70
   64
  3
                                
 72
   65
 73
    0
 40
0
  0
LTYPE
  2
__28
 70
   64
  3
                                
 72
   65
 73
    0
 40
0
  0
LTYPE
  2
__29
 70
   64
  3
                                
 72
   65
 73
    0
 40
0
  0
LTYPE
  2
__30
 70
   64
  3
                                
 72
   65
 73
    0
 40
0
  0
LTYPE
  2
__31
 70
   64
  3
                                
 72
   65
 73
    0
 40
0
  0
LTYPE
  2
__32
 70
   64
  3
                                
 72
   65
 73
    0
 40
0
  0
ENDTAB
  0
TABLE
  2
STYLE
  5
3
100
AcDbSymbolTable
 70
     1
  0
STYLE
  5
10
100
AcDbSymbolTableRecord
100
AcDbTextStyleTableRecord
  2
STANDARD
 70
     0
 40
0.0
 41
1.0
 50
0.0
 71
     0
 42
0.2
  3
txt
  4
bigfont.shx
  0
STYLE
  5
26
100
AcDbSymbolTableRecord
100
AcDbTextStyleTableRecord
  2
TATEGAKI
 70
    68
 40
0.0
 41
1.0
 50
0.0
 71
     0
 42
1.0
  3
txt
  4
bigfont.shx
  0
ENDTAB
  0
TABLE
  2
LAYER
 70
    2
  0
LAYER
  2
_0-0_
 70
   64
 62
    7
  6
CONTINUOUS
  0
LAYER
  2
ADD_LINE
 70
   64
 62
    7
  6
CONTINUOUS
  0
ENDTAB
  0
ENDSEC
  0
SECTION
  2
BLOCKS
  0
BLOCK
  2
-002-5
 70
   64
 10
0
 20
0
 30
0
  0
LINE
  8
_0-0_
  6
CONTINUOUS
 62
    7
 10
-1.2291473344018868
 20
20.343798569750234
 11
18.898067330927915
 21
19.00755195296486
  0
LINE
  8
_0-0_
  6
CONTINUOUS
 62
    7
 10
19.315644398673328
 20
15.750450824550498
 11
8.291609810193961
 21
-2.6229401562484895
  0
LINE
  8
_0-0_
  6
CONTINUOUS
 62
    7
 10
8.9597331185866267
 20
-2.9570018104448366
 11
19.733221466418769
 21
14.33068879421603
  0
LINE
  8
_0-0_
  6
CONTINUOUS
 62
    7
 10
18.814551917378822
 20
10.656010598056227
 11
10.79707221666655
 21
-3.4580942917393571
  0
LINE
  8
_0-0_
  6
CONTINUOUS
 62
    7
 10
10.79707221666655
 20
-3.4580942917393571
 11
10.379495148921109
 21
-4.7108254949756514
  0
LINE
  8
_0-0_
  6
CONTINUOUS
 62
    7
 10
-6.8246800421906642
 20
16.168027892295925
 11
-17.264106735826459
 21
0.6341609721658727
  0
LINE
  8
_0-0_
  6
CONTINUOUS
 62
    7
 10
-17.431137562924633
 20
0.216583904420446
 11
-18.850899593259101
 21
-1.8713014343067158
  0
LINE
  8
_0-0_
  6
CONTINUOUS
 62
    7
 10
-17.431137562924633
 20
0.216583904420446
 11
7.957548155997614
 21
-2.8734863968957569
  0
LINE
  8
_0-0_
  6
CONTINUOUS
 62
    7
 10
7.957548155997614
 20
-2.8734863968957569
 11
6.0156818046540366
 21
-6.7331929031160058
  0
LINE
  8
_0-0_
  6
CONTINUOUS
 62
    7
 10
-17.264106735826459
 20
0.6341609721658727
 11
8.291609810193961
 21
-2.6229401562484895
  0
LINE
  8
_0-0_
  6
CONTINUOUS
 62
    7
 10
8.291609810193961
 20
-2.6229401562484895
 11
8.9597331185866267
 21
-2.9570018104448366
  0
LINE
  8
_0-0_
  6
CONTINUOUS
 62
    7
 10
8.9597331185866267
 20
-2.9570018104448366
 11
9.4525804475881046
 21
-3.8250478975564164
  0
LINE
  8
_0-0_
  6
CONTINUOUS
 62
    7
 10
9.4525804475881046
 20
-3.8250478975564164
 11
9.2763292351299356
 21
-4.0453619131291134
  0
LINE
  8
_0-0_
  6
CONTINUOUS
 62
    7
 10
9.2763292351299356
 20
-4.0453619131291134
 11
8.747575597755457
 21
-3.296294260181952
  0
LINE
  8
_0-0_
  6
CONTINUOUS
 62
    7
 10
8.747575597755457
 20
-3.296294260181952
 11
7.957548155997614
 21
-2.8734863968957569
  0
LINE
  8
_0-0_
  6
CONTINUOUS
 62
    7
 10
8.747575597755457
 20
-3.296294260181952
 11
6.8528750638302824
 21
-7.0416325249177731
  0
LINE
  8
_0-0_
  6
CONTINUOUS
 62
    7
 10
6.2800586233412758
 20
-10.214154349164602
 11
5.5750537735086425
 21
-20.789227096654002
  0
LINE
  8
_0-0_
  6
CONTINUOUS
 62
    7
 10
5.2666141517068752
 20
-10.434468364737299
 11
4.6056721049887841
 21
-20.74516429353946
  0
LINE
  8
_0-0_
  6
CONTINUOUS
 62
    7
 10
-19.893246426694986
 20
-6.4688160844287665
 11
-19.849183623580444
 21
-17.484516863063561
  0
LINE
  8
_0-0_
  6
CONTINUOUS
 62
    7
 10
-16.941038618020869
 20
-22.0229855838611
 11
0.8162710371384207
 21
-25.503947029909682
  0
LINE
  8
_0-0_
  6
CONTINUOUS
 62
    7
 10
-17.117289830479024
 20
-22.46361361500648
 11
1.1247106589401881
 21
-25.944575061055076
  0
LINE
  8
_0-0_
  6
CONTINUOUS
 62
    7
 10
-20.730439685871232
 20
-1.2694053169131507
 11
-18.703550742602431
 21
-1.577844938714918
  0
LINE
  8
_0-0_
  6
CONTINUOUS
 62
    7
 10
-22.228574991765569
 20
-5.8078740377106755
 11
-19.893246426694986
 21
-6.4247532813142243
  0
LINE
  8
_0-0_
  6
CONTINUOUS
 62
    7
 10
-19.849183623580444
 20
-17.484516863063561
 11
-19.849183623580444
 21
-18.18952171289618
  0
LINE
  8
_0-0_
  6
CONTINUOUS
 62
    7
 10
-19.849183623580444
 20
-18.18952171289618
 11
-19.761058017351374
 21
-38.634662358042362
  0
LINE
  8
_0-0_
  6
CONTINUOUS
 62
    7
 10
-19.364492789320522
 20
-38.546536751813278
 11
-19.540744001778677
 21
-19.335154593874208
  0
LINE
  8
_0-0_
  6
CONTINUOUS
 62
    7
 10
-16.147908161959151
 20
-22.595802024350107
 11
-16.368222177531848
 21
-37.665280689522497
  0
LINE
  8
_0-0_
  6
CONTINUOUS
 62
    7
 10
-16.7647874055627
 20
-37.973720311324271
 11
-18.96792756128967
 21
-38.502473948698743
  0
LINE
  8
_0-0_
  6
CONTINUOUS
 62
    7
 10
-16.368222177531848
 20
-38.370285539355123
 11
-18.703550742602431
 21
-39.031227586073214
  0
LINE
  8
_0-0_
  6
CONTINUOUS
 62
    7
 10
-19.011990364404198
 20
-39.251541601645911
 11
6.5444354420285151
 21
-45.464396840795928
  0
LINE
  8
_0-0_
  6
CONTINUOUS
 62
    7
 10
6.4122470326848884
 20
-45.949087675055864
 11
-19.011990364404198
 21
-39.515918420333144
  0
LINE
  8
_0-0_
  6
CONTINUOUS
 62
    7
 10
7.205377488746592
 20
-45.111894415879618
 11
8.2188219603810069
 21
-8.6278934370411946
  0
LINE
  8
_0-0_
  6
CONTINUOUS
 62
    7
 10
8.5272615821827742
 20
-8.5397678308121101
 11
7.6460055198919861
 21
-45.111894415879618
  0
LINE
  8
_0-0_
  6
CONTINUOUS
 62
    7
 10
10.730401737909744
 20
-44.186575550474295
 11
11.743846209544131
 21
-11.53603844260077
  0
LINE
  8
_0-0_
  6
CONTINUOUS
 62
    7
 10
10.069459691191639
 20
-11.227598820798988
 11
13.72667234969839
 21
-11.668226851944382
  0
LINE
  8
_0-0_
  6
CONTINUOUS
 62
    7
 10
8.8763025979372117
 20
-8.0126045706201126
 11
8.8612407905031603
 21
-9.5187853140258056
  0
LINE
  8
_0-0_
  6
CONTINUOUS
 62
    7
 10
8.8612407905031603
 20
-9.5187853140258056
 11
9.2377859763545587
 21
-9.7296506181026103
  0
LINE
  8
_0-0_
  6
CONTINUOUS
 62
    7
 10
9.2377859763545587
 20
-9.7296506181026103
 11
9.2829713986567413
 21
-10.573111834409787
  0
LINE
  8
_0-0_
  6
CONTINUOUS
 62
    7
 10
9.2829713986567413
 20
-10.573111834409787
 11
9.5088985101675974
 21
-10.994842442563382
  0
LINE
  8
_0-0_
  6
CONTINUOUS
 62
    7
 10
9.5088985101675974
 20
-10.994842442563382
 11
10.069459691191639
 21
-11.227598820798988
  0
LINE
  8
_0-0_
  6
CONTINUOUS
 62
    7
 10
8.8763025979372117
 20
-8.0126045706201126
 11
9.373342243261078
 21
-7.5607503475984146
  0
LINE
  8
_0-0_
  6
CONTINUOUS
 62
    7
 10
9.373342243261078
 20
-7.5607503475984146
 11
9.3884040506951294
 21
-6.8076599758955609
  0
LINE
  8
_0-0_
  6
CONTINUOUS
 62
    7
 10
9.3884040506951294
 20
-6.8076599758955609
 11
10.141494422397983
 21
-5.9641987595883847
  0
LINE
  8
_0-0_
  6
CONTINUOUS
 62
    7
 10
10.141494422397983
 20
-5.9641987595883847
 11
10.593348645419695
 21
-6.0244459893246045
  0
LINE
  8
_0-0_
  6
CONTINUOUS
 62
    7
 10
10.593348645419695
 20
-6.0244459893246045
 11
11.225944557650081
 21
-6.1148168339289413
  0
LINE
  8
_0-0_
  6
CONTINUOUS
 62
    7
 10
11.225944557650081
 20
-6.1148168339289413
 11
11.722984202973976
 21
-5.9190133372862022
  0
LINE
  8
_0-0_
  6
CONTINUOUS
 62
    7
 10
11.225944557650081
 20
-6.1148168339289413
 11
13.891884473478171
 21
-6.4160529826100827
  0
LINE
  8
_0-0_
  6
CONTINUOUS
 62
    7
 10
13.891884473478171
 20
-6.4160529826100827
 11
13.01829964230285
 21
-7.3197614286535071
  0
LINE
  8
_0-0_
  6
CONTINUOUS
 62
    7
 10
13.01829964230285
 20
-7.3197614286535071
 11
13.168917716643421
 21
-7.8469246888454904
  0
LINE
  8
_0-0_
  6
CONTINUOUS
 62
    7
 10
13.168917716643421
 20
-7.8469246888454904
 11
12.837557953094176
 21
-8.2686552969990856
  0
LINE
  8
_0-0_
  6
CONTINUOUS
 62
    7
 10
12.837557953094176
 20
-8.2686552969990856
 11
12.641754456451423
 21
-8.343964334169371
  0
LINE
  8
_0-0_
  6
CONTINUOUS
 62
    7
 10
12.641754456451423
 20
-8.343964334169371
 11
12.536321804413035
 21
-10.000763151915635
  0
LINE
  8
_0-0_
  6
CONTINUOUS
 62
    7
 10
12.536321804413035
 20
-10.000763151915635
 11
12.762248915923891
 21
-10.000763151915635
  0
LINE
  8
_0-0_
  6
CONTINUOUS
 62
    7
 10
12.762248915923891
 20
-10.000763151915635
 11
12.89780518283041
 21
-10.467679182371398
  0
LINE
  8
_0-0_
  6
CONTINUOUS
 62
    7
 10
12.89780518283041
 20
-10.467679182371398
 11
12.89780518283041
 21
-10.934595212827162
  0
LINE
  8
_0-0_
  6
CONTINUOUS
 62
    7
 10
12.89780518283041
 20
-10.934595212827162
 11
13.72667234969839
 21
-11.668226851944382
  0
LINE
  8
_0-0_
  6
CONTINUOUS
 62
    7
 10
13.72667234969839
 20
-11.668226851944382
 11
13.876822666044092
 21
-11.281016783810472
  0
LINE
  8
_0-0_
  6
CONTINUOUS
 62
    7
 10
13.876822666044092
 20
-11.281016783810472
 11
14.238306044461467
 21
-11.476820280453211
  0
LINE
  8
_0-0_
  6
CONTINUOUS
 62
    7
 10
14.238306044461467
 20
-11.476820280453211
 11
15.11189087563676
 21
-10.738791716184423
  0
LINE
  8
_0-0_
  6
CONTINUOUS
 62
    7
 10
15.11189087563676
 20
-10.738791716184423
 11
15.006458223598372
 21
-9.9857013444815692
  0
LINE
  8
_0-0_
  6
CONTINUOUS
 62
    7
 10
15.006458223598372
 20
-9.9857013444815692
 11
15.428188831751953
 21
-9.6694033883663764
  0
LINE
  8
_0-0_
  6
CONTINUOUS
 62
    7
 10
15.428188831751953
 20
-9.6694033883663764
 11
15.563745098658472
 21
-8.0728518003563465
  0
LINE
  8
_0-0_
  6
CONTINUOUS
 62
    7
 10
15.563745098658472
 20
-8.0728518003563465
 11
15.337817987147616
 21
-8.0427281854882295
  0
LINE
  8
_0-0_
  6
CONTINUOUS
 62
    7
 10
15.337817987147616
 20
-8.0427281854882295
 11
15.307694372279514
 21
-7.0486488948404826
  0
LINE
  8
_0-0_
  6
CONTINUOUS
 62
    7
 10
15.307694372279514
 20
-7.0486488948404826
 11
14.84077834182375
 21
-6.5214856346484851
  0
LINE
  8
_0-0_
  6
CONTINUOUS
 62
    7
 10
14.84077834182375
 20
-6.5214856346484851
 11
14.343738696499855
 21
-6.5516092495166021
  0
LINE
  8
_0-0_
  6
CONTINUOUS
 62
    7
 10
14.343738696499855
 20
-6.5516092495166021
 11
14.238306044461467
 21
-6.8829690130658463
  0
LINE
  8
_0-0_
  6
CONTINUOUS
 62
    7
 10
14.238306044461467
 20
-6.8829690130658463
 11
13.891884473478171
 21
-6.4160529826100827
  0
LINE
  8
_0-0_
  6
CONTINUOUS
 62
    7
 10
11.722984202973976
 20
-5.9190133372862022
 11
14.84077834182375
 21
-6.5214856346484851
  0
LINE
  8
_0-0_
  6
CONTINUOUS
 62
    7
 10
13.01829964230285
 20
-7.3197614286535071
 11
9.433589472997312
 21
-6.8679072056317949
  0
LINE
  8
_0-0_
  6
CONTINUOUS
 62
    7
 10
9.4787748952994662
 20
-7.545688540164349
 11
12.74718710848984
 21
-7.9071719185817102
  0
LINE
  8
_0-0_
  6
CONTINUOUS
 62
    7
 10
12.641754456451423
 20
-8.343964334169371
 11
8.8763025979372117
 21
-8.0126045706201126
  0
LINE
  8
_0-0_
  6
CONTINUOUS
 62
    7
 10
12.536321804413035
 20
-10.000763151915635
 11
8.8612407905031603
 21
-9.5187853140258056
  0
LINE
  8
_0-0_
  6
CONTINUOUS
 62
    7
 10
9.4637130878654148
 20
-9.7597742329707131
 11
11.015079253573276
 21
-10.000763151915621
  0
LINE
  8
_0-0_
  6
CONTINUOUS
 62
    7
 10
9.3281568209588954
 20
-10.452617374937333
 11
12.89780518283041
 21
-10.934595212827162
  0
ARC
  8
_0-0_
  6
CONTINUOUS
 62
    7
 10
0.954475356055866
 20
11.143016590949372
 40
9.2609933208446229
 50
129.08737381138369
 51
147.13921894232931
  0
ARC
  8
_0-0_
  6
CONTINUOUS
 62
    7
 10
-0.4198635812331872
 20
13.976503520357895
 40
6.2368289849034388
 50
106.50303635518918
 51
135.71458130190089
  0
ARC
  8
_0-0_
  6
CONTINUOUS
 62
    7
 10
-26.284343615283959
 20
81.198332923321431
 40
65.810616256524312
 50
291.47486520390044
 51
292.37807965799072
  0
ARC
  8
_0-0_
  6
CONTINUOUS
 62
    7
 10
16.618874901429677
 20
17.060029470376804
 40
2.9979262750888265
 50
334.09831971321495
 51
40.513199353406037
  0
ARC
  8
_0-0_
  6
CONTINUOUS
 62
    7
 10
18.159652406672166
 20
16.981056877829118
 40
2.2624401075176865
 50
348.25165404116041
 51
57.465869718570737
  0
ARC
  8
_0-0_
  6
CONTINUOUS
 62
    7
 10
12.222961192844963
 20
17.719639175480211
 40
8.2394777785665223
 50
335.71306939492638
 51
351.63094314354441
  0
ARC
  8
_0-0_
  6
CONTINUOUS
 62
    7
 10
18.814644106015436
 20
17.652390873305919
 40
1.3577264033218108
 50
65.559673497521075
 51
86.477337904826115
  0
ARC
  8
_0-0_
  6
CONTINUOUS
 62
    7
 10
14.422562090142179
 20
15.891658542483938
 40
5.5656520093940589
 50
324.58621305669357
 51
345.77270427232889
  0
ARC
  8
_0-0_
  6
CONTINUOUS
 62
    7
 10
15.385029349892818
 20
11.911960157815614
 40
3.6522642754263468
 50
339.88640916976124
 51
11.922722205111651
  0
ARC
  8
_0-0_
  6
CONTINUOUS
 62
    7
 10
13.145032863936137
 20
-8.5852076576917398
 40
4.6179948450006965
 50
142.13289317116315
 51
179.43621584619842
  0
ARC
  8
_0-0_
  6
CONTINUOUS
 62
    7
 10
13.580341297025029
 20
-8.525706703143868
 40
5.3624930513514295
 50
149.44166393600074
 51
181.09188448682821
  0
ARC
  8
_0-0_
  6
CONTINUOUS
 62
    7
 10
10.609586115862527
 20
-6.9135668038668143
 40
1.6078297657479577
 50
85.212289510221623
 51
133.66778014613067
  0
ARC
  8
_0-0_
  6
CONTINUOUS
 62
    7
 10
10.326179038661195
 20
-6.7987650408064155
 40
1.544928641931528
 50
34.607107838706519
 51
74.317536577343503
  0
ARC
  8
_0-0_
  6
CONTINUOUS
 62
    7
 10
10.124077504769815
 20
-6.4926068928968164
 40
1.3526193379692353
 50
91.6554562260078
 51
149.16670630824274
  0
ARC
  8
_0-0_
  6
CONTINUOUS
 62
    7
 10
10.270149006842246
 20
-6.0476314024194835
 40
0.9257820729249756
 50
47.953365767517965
 51
101.53639682636518
  0
ARC
  8
_0-0_
  6
CONTINUOUS
 62
    7
 10
14.053681090437635
 20
-9.9797515649449906
 40
7.7771557092676975
 50
157.80324319142949
 51
181.72715128172413
  0
ARC
  8
_0-0_
  6
CONTINUOUS
 62
    7
 10
19.99729073060675
 20
-11.489240476679569
 40
14.768391133778943
 50
161.21351662117382
 51
175.9043956412915
  0
ARC
  8
_0-0_
  6
CONTINUOUS
 62
    7
 10
-5.8510388841467886
 20
-19.079899477643067
 40
10.588480137270457
 50
334.27361873273048
 51
350.95144768628654
  0
ARC
  8
_0-0_
  6
CONTINUOUS
 62
    7
 10
1.2634078478718322
 20
-23.202700366437369
 40
2.4702562079853059
 50
300.9493457223391
 51
348.95190765356364
  0
ARC
  8
_0-0_
  6
CONTINUOUS
 62
    7
 10
1.2847508285719584
 20
-21.743521967741373
 40
3.7894946844091439
 50
262.89858830322964
 51
289.24518910063671
  0
ARC
  8
_0-0_
  6
CONTINUOUS
 62
    7
 10
1.8873868025552554
 20
-23.860347001683721
 40
2.2193876415602611
 50
249.90104285538393
 51
315.37210610599703
  0
ARC
  8
_0-0_
  6
CONTINUOUS
 62
    7
 10
-4.5104168446277697
 20
-18.331424464494603
 40
10.671351968172059
 50
318.37808894810303
 51
335.0006494027752
  0
ARC
  8
_0-0_
  6
CONTINUOUS
 62
    7
 10
-11.375609791616625
 20
-18.437996422680754
 40
17.112956523648904
 50
345.08986816214235
 51
352.10287944721227
  0
ARC
  8
_0-0_
  6
CONTINUOUS
 62
    7
 10
1.7067646260820339
 20
-26.956366595919789
 40
0.8053502285868728
 50
20.695450734063723
 51
83.554581963740787
  0
ARC
  8
_0-0_
  6
CONTINUOUS
 62
    7
 10
-54.692019697466208
 20
-12.376458824086484
 40
58.912865273042982
 50
341.0741820852723
 51
345.95691153565645
  0
ARC
  8
_0-0_
  6
CONTINUOUS
 62
    7
 10
-56.350099343574918
 20
-16.590299470993671
 40
59.287418641113923
 50
336.60889229651889
 51
345.45029208650811
  0
ARC
  8
_0-0_
  6
CONTINUOUS
 62
    7
 10
-14.919585326125315
 20
-48.564072089461966
 40
15.484432431993945
 50
33.012874886642528
 51
48.263979823316177
  0
ARC
  8
_0-0_
  6
CONTINUOUS
 62
    7
 10
-15.087559837300873
 20
-49.206571749950371
 40
16.078542312482302
 50
49.341522107774551
 51
62.86614476549763
  0
ARC
  8
_0-0_
  6
CONTINUOUS
 62
    7
 10
-4.3368367185544798
 20
-29.330956268150359
 40
6.5321068887563465
 50
220.19902249664946
 51
238.4510983728274
  0
ARC
  8
_0-0_
  6
CONTINUOUS
 62
    7
 10
-8.2562359314481171
 20
-33.216497604527994
 40
1.1197766754105323
 50
107.31263424371198
 51
197.17028455416792
  0
ARC
  8
_0-0_
  6
CONTINUOUS
 62
    7
 10
-4.6573547185812316
 20
-41.832170073999706
 40
10.452523753464321
 50
92.037801696327094
 51
112.09773622097947
  0
ARC
  8
_0-0_
  6
CONTINUOUS
 62
    7
 10
0.8450787986068348
 20
-62.752362091785713
 40
31.911405113084381
 50
91.024006377125431
 51
100.60724668185719
  0
ARC
  8
_0-0_
  6
CONTINUOUS
 62
    7
 10
-0.1444042066187023
 20
-24.053172616090308
 40
6.8058022439636225
 50
273.53120291687361
 51
281.46051236258535
  0
ARC
  8
_0-0_
  6
CONTINUOUS
 62
    7
 10
3.2963795176938646
 20
-17.113878758935471
 40
13.471077631456787
 50
267.90495297615075
 51
284.45489552221579
  0
ARC
  8
_0-0_
  6
CONTINUOUS
 62
    7
 10
7.5697716594017095
 20
-32.484128168571544
 40
2.4975886938795027
 50
89.488267048088687
 51
111.38668365414671
  0
ARC
  8
_0-0_
  6
CONTINUOUS
 62
    7
 10
4.0193703753922136
 20
-25.904060073379938
 40
0.7718936847521329
 50
254.31232659723977
 51
335.04139974343457
  0
ARC
  8
_0-0_
  6
CONTINUOUS
 62
    7
 10
-3.4022859614978671
 20
-26.103120342396053
 40
7.233432626482057
 50
340.53640027459994
 51
355.68628364614437
  0
ARC
  8
_0-0_
  6
CONTINUOUS
 62
    7
 10
-125.21095884090219
 20
6.9512870392648267
 40
133.42823373549632
 50
339.10195707443683
 51
344.58576403660868
  0
ARC
  8
_0-0_
  6
CONTINUOUS
 62
    7
 10
-4.848077034859287
 20
-37.713360813848112
 40
5.193448661649418
 50
305.43635910092036
 51
325.65495608591112
  0
ARC
  8
_0-0_
  6
CONTINUOUS
 62
    7
 10
-1.8681756321421688
 20
-41.549667837343904
 40
0.396341358113031
 50
223.40252380275146
 51
274.52245414640407
  0
ARC
  8
_0-0_
  6
CONTINUOUS
 62
    7
 10
-44.402528586695524
 20
-74.992292886563462
 40
53.712437739582747
 50
38.137680066813481
 51
44.414203987689859
  0
ARC
  8
_0-0_
  6
CONTINUOUS
 62
    7
 10
5.9914687627330778
 20
-16.410269431588716
 40
24.193262947951688
 50
231.01815320055584
 51
240.18956331918656
  0
ARC
  8
_0-0_
  6
CONTINUOUS
 62
    7
 10
-6.6502431709678405
 20
-31.838721821679968
 40
4.2491865372063113
 50
209.25657681701639
 51
232.65445203462127
  0
ARC
  8
_0-0_
  6
CONTINUOUS
 62
    7
 10
-7.925096100478541
 20
-33.107743242838069
 40
2.5628911286330704
 50
155.60569127672679
 51
198.36873371490663
  0
ARC
  8
_0-0_
  6
CONTINUOUS
 62
    7
 10
-7.268559278149155
 20
-34.412110077713564
 40
3.8114333736985087
 50
99.191521110800977
 51
141.68792765048514
  0
ARC
  8
_0-0_
  6
CONTINUOUS
 62
    7
 10
6.2301303303602822
 20
-116.594881332681
 40
87.09541021521585
 50
94.876663929870986
 51
99.321704407580043
  0
ARC
  8
_0-0_
  6
CONTINUOUS
 62
    7
 10
9.4921784054565705
 20
-110.91530035247432
 40
81.79892724073116
 50
95.518866818481442
 51
97.4923864728854
  0
ARC
  8
_0-0_
  6
CONTINUOUS
 62
    7
 10
2.9865654725322912
 20
-17.263215020545488
 40
12.233739181023791
 50
270.86959499969714
 51
284.12212027976307
  0
ARC
  8
_0-0_
  6
CONTINUOUS
 62
    7
 10
7.4324728760633434
 20
-43.405779498108437
 40
14.353106217159716
 50
89.362861906397711
 51
95.842262498601684
  0
ARC
  8
_0-0_
  6
CONTINUOUS
 62
    7
 10
7.2213025055182243
 20
-25.923538755204717
 40
0.5056142907015016
 50
296.2272890919885
 51
347.45825773327567
  0
ARC
  8
_0-0_
  6
CONTINUOUS
 62
    7
 10
7.0372990307387511
 20
35.484273602900259
 40
61.862714467268063
 50
265.14089463840872
 51
270.37737436316411
  0
LINE
  8
_0-0_
  6
CONTINUOUS
 62
    7
 10
7.4201955289386206
 20
-45.996299741422909
 11
10.391313533119956
 21
-44.866783805949012
  0
ARC
  8
_0-0_
  6
CONTINUOUS
 62
    7
 10
10.127785237629723
 20
-44.310790293216776
 40
0.6152852580099094
 50
295.35988905023532
 51
11.64700867318232
  0
ARC
  8
_0-0_
  6
CONTINUOUS
 62
    7
 10
6.8211903021256433
 20
-45.224059083543622
 40
0.8324067852505289
 50
240.5753743548776
 51
7.7440147364612795
  0
ARC
  8
_0-0_
  6
CONTINUOUS
 62
    7
 10
6.7946940705631675
 20
-45.137747388042065
 40
0.4114963500937137
 50
232.54289477006904
 51
3.602079101637965
  0
LINE
  8
_0-0_
  6
CONTINUOUS
 62
    7
 10
7.1255391979454288
 20
-46.069963824171204
 11
7.4693049174374835
 21
-46.020854435672341
  0
LINE
  8
_0-0_
  6
CONTINUOUS
 62
    7
 10
-15.548453151172254
 20
-38.391069695135307
 11
-2.3857294395385651
 21
-41.570355202794303
  0
LINE
  8
_0-0_
  6
CONTINUOUS
 62
    7
 10
-1.614993558893957
 20
-41.775081921090525
 11
7.2123408241138094
 21
-43.641707882026687
  0
ARC
  8
_0-0_
  6
CONTINUOUS
 62
    7
 10
-15.483363146102747
 20
-37.491697792754508
 40
0.901724197053626
 50
191.09878144824449
 51
265.86056481598359
  0
ARC
  8
_0-0_
  6
CONTINUOUS
 62
    7
 10
-18.661702997461774
 20
-38.635769887029298
 40
0.7084321025767677
 50
172.76388133951508
 51
240.36622101464161
  0
ARC
  8
_0-0_
  6
CONTINUOUS
 62
    7
 10
-18.808258960276788
 20
-38.583764943176902
 40
0.9541575289239158
 50
183.05776743700184
 51
257.67130570919335
  0
ARC
  8
_0-0_
  6
CONTINUOUS
 62
    7
 10
-15.657826912902664
 20
-19.110920521666003
 40
3.6565807779828119
 50
197.80914786581698
 51
246.4759959657467
  0
ARC
  8
_0-0_
  6
CONTINUOUS
 62
    7
 10
-8.825078327207649
 20
-16.339629790397439
 40
11.023165303217144
 50
183.56807107681877
 51
200.6624125280967
  0
ARC
  8
_0-0_
  6
CONTINUOUS
 62
    7
 10
-16.189521819166075
 20
-17.550346316920226
 40
4.5353367582950561
 50
241.53935252075914
 51
260.46195141133376
  0
ARC
  8
_0-0_
  6
CONTINUOUS
 62
    7
 10
-17.604175561795117
 20
-20.485352082976135
 40
1.2902268188486399
 50
203.54849049018549
 51
234.63922728227493
  0
ARC
  8
_0-0_
  6
CONTINUOUS
 62
    7
 10
-10.326619040015743
 20
-6.218654350116438
 40
9.5688471784746412
 50
152.97857931888151
 51
181.23416247623427
  0
LINE
  8
_0-0_
  6
CONTINUOUS
 62
    7
 10
-22.228574991765569
 20
-5.8078740377106755
 11
-22.538924463552789
 21
-5.4744171803937292
  0
LINE
  8
_0-0_
  6
CONTINUOUS
 62
    7
 10
-22.538924463552789
 20
-5.4744171803937292
 11
-22.460864529787955
 21
-4.6743028593042624
  0
LINE
  8
_0-0_
  6
CONTINUOUS
 62
    7
 10
-22.460864529787955
 20
-4.6743028593042624
 11
-22.773104264847262
 21
-4.4986680083333965
  0
LINE
  8
_0-0_
  6
CONTINUOUS
 62
    7
 10
-22.773104264847262
 20
-4.4986680083333965
 11
-22.753589281406065
 21
-3.0350442502428905
  0
LINE
  8
_0-0_
  6
CONTINUOUS
 62
    7
 10
-22.753589281406065
 20
-3.0350442502428905
 11
-22.382804596023135
 21
-2.8008644489484027
  0
LINE
  8
_0-0_
  6
CONTINUOUS
 62
    7
 10
-22.382804596023135
 20
-2.8008644489484027
 11
-22.148624794728647
 21
-2.0592950781825436
  0
LINE
  8
_0-0_
  6
CONTINUOUS
 62
    7
 10
-22.148624794728647
 20
-2.0592950781825436
 11
-21.250935556433134
 21
-1.3372406908578967
  0
LINE
  8
_0-0_
  6
CONTINUOUS
 62
    7
 10
-21.250935556433134
 20
-1.3372406908578967
 11
-20.821605920726583
 21
-1.4153006246227164
  0
LINE
  8
_0-0_
  6
CONTINUOUS
 62
    7
 10
-20.821605920726583
 20
-1.4153006246227164
 11
-20.730439685871232
 21
-1.2694053169131507
  0
LINE
  8
_0-0_
  6
CONTINUOUS
 62
    7
 10
-20.724031003520551
 20
-1.4543305915051405
 11
-19.065257411017981
 21
-1.7665703265644481
  0
LINE
  8
_0-0_
  6
CONTINUOUS
 62
    7
 10
-21.953474960316584
 20
-2.0788100616237557
 11
-19.592161963930565
 21
-2.5666846476539149
  0
LINE
  8
_0-0_
  6
CONTINUOUS
 62
    7
 10
-22.499894496670379
 20
-2.9960142833604664
 11
-20.041006583078314
 21
-3.4253439190670179
  0
LINE
  8
_0-0_
  6
CONTINUOUS
 62
    7
 10
-22.616984397317609
 20
-4.4986680083333965
 11
-20.099551533401936
 21
-4.9865425943635699
  0
LINE
  8
_0-0_
  6
CONTINUOUS
 62
    7
 10
-22.382804596023135
 20
-5.4549021969525313
 11
-20.197126450607968
 21
-5.6305370479233829
  0
LINE
  8
_0-0_
  6
CONTINUOUS
 62
    7
 10
-17.264106735826459
 20
0.6341609721658727
 11
-17.431137562924633
 21
0.216583904420446
  0
LINE
  8
_0-0_
  6
CONTINUOUS
 62
    7
 10
-3.0369095782209428
 20
17.009826926058579
 11
-11.402001015331351
 21
4.5889335800461453
  0
LINE
  8
_0-0_
  6
CONTINUOUS
 62
    7
 10
-10.677750674455993
 20
3.9371082732583176
 11
-2.6385718907394846
 21
16.176939034051912
  0
LINE
  8
_0-0_
  6
CONTINUOUS
 62
    7
 10
0.7654047113746997
 20
18.711815227115679
 11
13.729485813043652
 21
17.951352369196542
  0
LINE
  8
_0-0_
  6
CONTINUOUS
 62
    7
 10
0.8740422625060091
 20
17.734077266933937
 11
13.548423227824827
 21
16.82876434083974
  0
LINE
  8
_0-0_
  6
CONTINUOUS
 62
    7
 10
15.829811801582196
 20
15.41647617613279
 11
7.4285078474280226
 21
1.728144733588465
  0
LINE
  8
_0-0_
  6
CONTINUOUS
 62
    7
 10
3.4089184555697756
 20
0.2434315347939843
 11
-10.206987952887005
 21
1.8005697676760093
  0
LINE
  8
_0-0_
  6
CONTINUOUS
 62
    7
 10
-8.4687871347861403
 20
3.9733207903020826
 11
-0.3933958340258669
 21
15.923451414745543
  0
LINE
  8
_0-0_
  6
CONTINUOUS
 62
    7
 10
-0.3933958340258669
 20
15.923451414745543
 11
12.824172886949469
 21
14.837075903432492
  0
LINE
  8
_0-0_
  6
CONTINUOUS
 62
    7
 10
12.824172886949469
 20
14.837075903432492
 11
5.21954430775817
 21
2.1989074551574532
  0
LINE
  8
_0-0_
  6
CONTINUOUS
 62
    7
 10
5.21954430775817
 20
2.1989074551574532
 11
-8.4687871347861403
 21
3.9733207903020826
  0
LINE
  8
_0-0_
  6
CONTINUOUS
 62
    7
 10
-7.5996867257357081
 20
3.9008957562145525
 11
-0.1036956976757323
 21
15.271626107957715
  0
LINE
  8
_0-0_
  6
CONTINUOUS
 62
    7
 10
-0.1036956976757323
 20
15.271626107957715
 11
-0.2847582828945718
 21
15.851026380657999
  0
LINE
  8
_0-0_
  6
CONTINUOUS
 62
    7
 10
-0.1036956976757323
 20
15.271626107957715
 11
12.389622682424232
 21
14.185250596644678
  0
ARC
  8
_0-0_
  6
CONTINUOUS
 62
    7
 10
0.3422900385475458
 20
14.558811298780313
 40
4.1745020846959209
 50
84.182686698799699
 51
144.04571037981418
  0
ARC
  8
_0-0_
  6
CONTINUOUS
 62
    7
 10
13.638553432429006
 20
15.738435247760847
 40
2.2147846134979998
 50
351.64140332201652
 51
87.646946592273224
  0
ARC
  8
_0-0_
  6
CONTINUOUS
 62
    7
 10
13.843534429940149
 20
15.117202615736602
 40
1.7368172501596051
 50
3.9026731888472748
 51
99.782873636414962
  0
ARC
  8
_0-0_
  6
CONTINUOUS
 62
    7
 10
3.7690318195050168
 20
5.451998569589307
 40
5.2210010717142499
 50
266.04494029535579
 51
314.50043093126385
  0
ARC
  8
_0-0_
  6
CONTINUOUS
 62
    7
 10
-9.9579414913312831
 20
3.5575600993373229
 40
1.7745532298482165
 50
144.46488669551448
 51
261.93229433178209
  0
ARC
  8
_0-0_
  6
CONTINUOUS
 62
    7
 10
-9.327653571628602
 20
3.1144543534596636
 40
1.5809875580860873
 50
148.64481810055756
 51
236.20706763029739
  0
ARC
  8
_0-0_
  6
CONTINUOUS
 62
    7
 10
0.2842602443051305
 20
14.324044646611043
 40
3.4606596626451664
 50
80.187484836695702
 51
147.6278361516494
  0
ARC
  8
_0-0_
  6
CONTINUOUS
 62
    7
 10
2.75069944254615
 20
17.272895701500303
 40
0.8472462600057769
 50
250.23784461576167
 51
319.24928105717953
  0
ARC
  8
_0-0_
  6
CONTINUOUS
 62
    7
 10
3.0988990735450983
 20
17.046993614186334
 40
0.4396053749484561
 50
311.90958753017156
 51
30.406783349446208
  0
ARC
  8
_0-0_
  6
CONTINUOUS
 62
    7
 10
3.2017950622058038
 20
16.677619567536695
 40
0.6531656127706515
 50
64.980292203044684
 51
101.19725355890489
  0
ARC
  8
_0-0_
  6
CONTINUOUS
 62
    7
 10
3.2978739216587485
 20
16.17018511222237
 40
1.16960593687565
 50
100.9872254027667
 51
132.14287695139026
  0
ARC
  8
_0-0_
  6
CONTINUOUS
 62
    7
 10
2.7952456220958766
 20
16.664873961123789
 40
0.467333452304363
 50
127.13945238246193
 51
185.24866058061966
  0
ARC
  8
_0-0_
  6
CONTINUOUS
 62
    7
 10
2.681039677966865
 20
16.80915820872012
 40
0.3978707243275606
 50
208.04015297793904
 51
236.98074117806453
  0
ARC
  8
_0-0_
  6
CONTINUOUS
 62
    7
 10
10.659823279154665
 20
16.632816167737204
 40
0.8472462600057769
 50
250.23784461576167
 51
319.24928105717953
  0
ARC
  8
_0-0_
  6
CONTINUOUS
 62
    7
 10
11.008022910153613
 20
16.406914080423235
 40
0.4396053749484561
 50
311.90958753017156
 51
30.406783349446208
  0
ARC
  8
_0-0_
  6
CONTINUOUS
 62
    7
 10
11.110918898814305
 20
16.037540033773595
 40
0.6531656127706515
 50
64.980292203044684
 51
101.19725355890489
  0
ARC
  8
_0-0_
  6
CONTINUOUS
 62
    7
 10
11.206997758267278
 20
15.530105578459271
 40
1.16960593687565
 50
100.9872254027667
 51
132.14287695139026
  0
ARC
  8
_0-0_
  6
CONTINUOUS
 62
    7
 10
10.704369458704377
 20
16.024794427360689
 40
0.467333452304363
 50
127.13945238246193
 51
185.24866058061966
  0
ARC
  8
_0-0_
  6
CONTINUOUS
 62
    7
 10
10.59016351457538
 20
16.169078674957021
 40
0.3978707243275606
 50
208.04015297793904
 51
236.98074117806453
  0
ARC
  8
_0-0_
  6
CONTINUOUS
 62
    7
 10
12.736294990592938
 20
12.699734455483522
 40
0.8472462600057769
 50
250.23784461576167
 51
319.24928105717953
  0
ARC
  8
_0-0_
  6
CONTINUOUS
 62
    7
 10
13.084494621591887
 20
12.473832368169553
 40
0.4396053749484561
 50
311.90958753017156
 51
30.406783349446208
  0
ARC
  8
_0-0_
  6
CONTINUOUS
 62
    7
 10
13.187390610252578
 20
12.104458321519914
 40
0.6531656127706515
 50
64.980292203044684
 51
101.19725355890489
  0
ARC
  8
_0-0_
  6
CONTINUOUS
 62
    7
 10
13.283469469705551
 20
11.597023866205589
 40
1.16960593687565
 50
100.9872254027667
 51
132.14287695139026
  0
ARC
  8
_0-0_
  6
CONTINUOUS
 62
    7
 10
12.780841170142651
 20
12.091712715107008
 40
0.467333452304363
 50
127.13945238246193
 51
185.24866058061966
  0
ARC
  8
_0-0_
  6
CONTINUOUS
 62
    7
 10
12.666635226013653
 20
12.235996962703339
 40
0.3978707243275606
 50
208.04015297793904
 51
236.98074117806453
  0
ARC
  8
_0-0_
  6
CONTINUOUS
 62
    7
 10
-3.5579006744580681
 20
14.043333798178878
 40
0.8472462600057769
 50
250.23784461576167
 51
319.24928105717953
  0
ARC
  8
_0-0_
  6
CONTINUOUS
 62
    7
 10
-3.2097010434591198
 20
13.817431710864909
 40
0.4396053749484561
 50
311.90958753017156
 51
30.406783349446208
  0
ARC
  8
_0-0_
  6
CONTINUOUS
 62
    7
 10
-3.1068050547984143
 20
13.44805766421527
 40
0.6531656127706515
 50
64.980292203044684
 51
101.19725355890489
  0
ARC
  8
_0-0_
  6
CONTINUOUS
 62
    7
 10
-3.0107261953454696
 20
12.940623208900945
 40
1.16960593687565
 50
100.9872254027667
 51
132.14287695139026
  0
ARC
  8
_0-0_
  6
CONTINUOUS
 62
    7
 10
-3.5133544949083415
 20
13.435312057802363
 40
0.467333452304363
 50
127.13945238246193
 51
185.24866058061966
  0
ARC
  8
_0-0_
  6
CONTINUOUS
 62
    7
 10
-3.627560439037353
 20
13.579596305398695
 40
0.3978707243275606
 50
208.04015297793904
 51
236.98074117806453
  0
ARC
  8
_0-0_
  6
CONTINUOUS
 62
    7
 10
-8.4192873871194678
 20
6.7878973476239253
 40
0.8472462600057769
 50
250.23784461576167
 51
319.24928105717953
  0
ARC
  8
_0-0_
  6
CONTINUOUS
 62
    7
 10
-8.0710877561205194
 20
6.5619952603099563
 40
0.4396053749484561
 50
311.90958753017156
 51
30.406783349446208
  0
ARC
  8
_0-0_
  6
CONTINUOUS
 62
    7
 10
-7.9681917674598139
 20
6.1926212136603169
 40
0.6531656127706515
 50
64.980292203044684
 51
101.19725355890489
  0
ARC
  8
_0-0_
  6
CONTINUOUS
 62
    7
 10
-7.8721129080068692
 20
5.6851867583459921
 40
1.16960593687565
 50
100.9872254027667
 51
132.14287695139026
  0
ARC
  8
_0-0_
  6
CONTINUOUS
 62
    7
 10
-8.3747412075697412
 20
6.1798756072474106
 40
0.467333452304363
 50
127.13945238246193
 51
185.24866058061966
  0
ARC
  8
_0-0_
  6
CONTINUOUS
 62
    7
 10
-8.4889471516987527
 20
6.3241598548437423
 40
0.3978707243275606
 50
208.04015297793904
 51
236.98074117806453
  0
ARC
  8
_0-0_
  6
CONTINUOUS
 62
    7
 10
7.9970536727220463
 20
5.0290036626409176
 40
0.8472462600057769
 50
250.23784461576167
 51
319.24928105717953
  0
ARC
  8
_0-0_
  6
CONTINUOUS
 62
    7
 10
8.3452533037209946
 20
4.8031015753269486
 40
0.4396053749484561
 50
311.90958753017156
 51
30.406783349446208
  0
ARC
  8
_0-0_
  6
CONTINUOUS
 62
    7
 10
8.4481492923816859
 20
4.4337275286773092
 40
0.6531656127706515
 50
64.980292203044684
 51
101.19725355890489
  0
ARC
  8
_0-0_
  6
CONTINUOUS
 62
    7
 10
8.544228151834659
 20
3.9262930733629844
 40
1.16960593687565
 50
100.9872254027667
 51
132.14287695139026
  0
ARC
  8
_0-0_
  6
CONTINUOUS
 62
    7
 10
8.0415998522717587
 20
4.4209819222644029
 40
0.467333452304363
 50
127.13945238246193
 51
185.24866058061966
  0
ARC
  8
_0-0_
  6
CONTINUOUS
 62
    7
 10
7.9273939081427613
 20
4.5652661698607346
 40
0.3978707243275606
 50
208.04015297793904
 51
236.98074117806453
  0
ARC
  8
_0-0_
  6
CONTINUOUS
 62
    7
 10
1.2301988013290384
 20
1.8043652401720323
 40
0.8472462600057769
 50
250.23784461576167
 51
319.24928105717953
  0
ARC
  8
_0-0_
  6
CONTINUOUS
 62
    7
 10
1.5783984323279867
 20
1.5784631528580633
 40
0.4396053749484561
 50
311.90958753017156
 51
30.406783349446208
  0
ARC
  8
_0-0_
  6
CONTINUOUS
 62
    7
 10
1.6812944209886922
 20
1.2090891062084239
 40
0.6531656127706515
 50
64.980292203044684
 51
101.19725355890489
  0
ARC
  8
_0-0_
  6
CONTINUOUS
 62
    7
 10
1.7773732804416369
 20
0.701654650894099
 40
1.16960593687565
 50
100.9872254027667
 51
132.14287695139026
  0
ARC
  8
_0-0_
  6
CONTINUOUS
 62
    7
 10
1.274744980878765
 20
1.1963434997955176
 40
0.467333452304363
 50
127.13945238246193
 51
185.24866058061966
  0
ARC
  8
_0-0_
  6
CONTINUOUS
 62
    7
 10
1.1605390367497534
 20
1.3406277473918493
 40
0.3978707243275606
 50
208.04015297793904
 51
236.98074117806453
  0
ARC
  8
_0-0_
  6
CONTINUOUS
 62
    7
 10
-6.6115355442202599
 20
2.7082411616216433
 40
0.8472462600057769
 50
250.23784461576167
 51
319.24928105717953
  0
ARC
  8
_0-0_
  6
CONTINUOUS
 62
    7
 10
-6.2633359132213116
 20
2.4823390743076743
 40
0.4396053749484561
 50
311.90958753017156
 51
30.406783349446208
  0
ARC
  8
_0-0_
  6
CONTINUOUS
 62
    7
 10
-6.1604399245606061
 20
2.112965027658035
 40
0.6531656127706515
 50
64.980292203044684
 51
101.19725355890489
  0
ARC
  8
_0-0_
  6
CONTINUOUS
 62
    7
 10
-6.0643610651076614
 20
1.6055305723437101
 40
1.16960593687565
 50
100.9872254027667
 51
132.14287695139026
  0
ARC
  8
_0-0_
  6
CONTINUOUS
 62
    7
 10
-6.5669893646705333
 20
2.1002194212451286
 40
0.467333452304363
 50
127.13945238246193
 51
185.24866058061966
  0
ARC
  8
_0-0_
  6
CONTINUOUS
 62
    7
 10
-6.6811953087995448
 20
2.2445036688414604
 40
0.3978707243275606
 50
208.04015297793904
 51
236.98074117806453
  0
ARC
  8
_0-0_
  6
CONTINUOUS
 62
    7
 10
-15.960597272581325
 20
1.5956685900920036
 40
0.3296377968830784
 50
81.961460939071998
 51
139.58304842501877
  0
ARC
  8
_0-0_
  6
CONTINUOUS
 62
    7
 10
-15.999709260606323
 20
1.7428041640907423
 40
0.1984836781912663
 50
355.56005983419107
 51
64.577105809524184
  0
ARC
  8
_0-0_
  6
CONTINUOUS
 62
    7
 10
-16.421559988589991
 20
1.1384308253237947
 40
0.1816617990996181
 50
158.49856567595589
 51
248.49856567594594
  0
ARC
  8
_0-0_
  6
CONTINUOUS
 62
    7
 10
-16.431803604501326
 20
1.3689121833281632
 40
0.4034541465124588
 50
261.97276248956962
 51
303.08485292873348
  0
LINE
  8
_0-0_
  6
CONTINUOUS
 62
    7
 10
-16.590579651126532
 20
1.2050143287472679
 11
-16.211565862408278
 21
1.8093876675142155
  0
LINE
  8
_0-0_
  6
CONTINUOUS
 62
    7
 10
-15.801821225956118
 20
1.727438740223775
 11
-16.211565862408278
 21
1.0308728582550941
  0
ARC
  8
_0-0_
  6
CONTINUOUS
 62
    7
 10
-14.616433096826043
 20
1.458000600496149
 40
0.3296377968830784
 50
81.961460939071998
 51
139.58304842501877
  0
ARC
  8
_0-0_
  6
CONTINUOUS
 62
    7
 10
-14.655545084851042
 20
1.6051361744948878
 40
0.1984836781912663
 50
355.56005983419107
 51
64.577105809524184
  0
ARC
  8
_0-0_
  6
CONTINUOUS
 62
    7
 10
-15.077395812834709
 20
1.0007628357279401
 40
0.1816617990996181
 50
158.49856567595589
 51
248.49856567594594
  0
ARC
  8
_0-0_
  6
CONTINUOUS
 62
    7
 10
-15.087639428746044
 20
1.2312441937323086
 40
0.4034541465124588
 50
261.97276248956962
 51
303.08485292873348
  0
LINE
  8
_0-0_
  6
CONTINUOUS
 62
    7
 10
-15.246415475371251
 20
1.0673463391514133
 11
-14.867401686652997
 21
1.671719677918361
  0
LINE
  8
_0-0_
  6
CONTINUOUS
 62
    7
 10
-14.457657050200837
 20
1.5897707506279204
 11
-14.867401686652997
 21
0.8932048686592395
  0
ARC
  8
_0-0_
  6
CONTINUOUS
 62
    7
 10
-13.223301332888681
 20
1.2223974345361484
 40
0.3296377968830784
 50
81.961460939071998
 51
139.58304842501877
  0
ARC
  8
_0-0_
  6
CONTINUOUS
 62
    7
 10
-13.26241332091368
 20
1.3695330085348871
 40
0.1984836781912663
 50
355.56005983419107
 51
64.577105809524184
  0
ARC
  8
_0-0_
  6
CONTINUOUS
 62
    7
 10
-13.684264048897347
 20
0.7651596697679394
 40
0.1816617990996181
 50
158.49856567595589
 51
248.49856567594594
  0
ARC
  8
_0-0_
  6
CONTINUOUS
 62
    7
 10
-13.694507664808683
 20
0.995641027772308
 40
0.4034541465124588
 50
261.97276248956962
 51
303.08485292873348
  0
LINE
  8
_0-0_
  6
CONTINUOUS
 62
    7
 10
-13.853283711433889
 20
0.8317431731914126
 11
-13.474269922715635
 21
1.4361165119583603
  0
LINE
  8
_0-0_
  6
CONTINUOUS
 62
    7
 10
-13.064525286263475
 20
1.3541675846679198
 11
-13.474269922715635
 21
0.6576017026992389
  0
ARC
  8
_0-0_
  6
CONTINUOUS
 62
    7
 10
-11.69319224739796
 20
1.0827738455390374
 40
0.3626015765713863
 50
81.961460939071998
 51
139.58304842501877
  0
ARC
  8
_0-0_
  6
CONTINUOUS
 62
    7
 10
-11.736215434225457
 20
1.2446229769376487
 40
0.2183320460103929
 50
355.56005983419107
 51
64.577105809524184
  0
ARC
  8
_0-0_
  6
CONTINUOUS
 62
    7
 10
-12.200251235007499
 20
0.5798123042940091
 40
0.1998279790095799
 50
158.49856567595589
 51
248.49856567594594
  0
ARC
  8
_0-0_
  6
CONTINUOUS
 62
    7
 10
-12.21151921250997
 20
0.8333417980988144
 40
0.4437995611637047
 50
261.97276248956962
 51
303.08485292873348
  0
LINE
  8
_0-0_
  6
CONTINUOUS
 62
    7
 10
-12.386172863797697
 20
0.653054158059831
 11
-11.969257696207606
 21
1.3178648307034706
  0
LINE
  8
_0-0_
  6
CONTINUOUS
 62
    7
 10
-11.518538596110233
 20
1.2277210106839931
 11
-11.969257696207606
 21
0.4614985405184342
  0
ARC
  8
_0-0_
  6
CONTINUOUS
 62
    7
 10
-10.228355172081464
 20
0.9291196068694773
 40
0.3626015765713863
 50
81.961460939071998
 51
139.58304842501877
  0
ARC
  8
_0-0_
  6
CONTINUOUS
 62
    7
 10
-10.271378358908962
 20
1.0909687382680886
 40
0.2183320460103929
 50
355.56005983419107
 51
64.577105809524184
  0
ARC
  8
_0-0_
  6
CONTINUOUS
 62
    7
 10
-10.735414159691004
 20
0.426158065624449
 40
0.1998279790095799
 50
158.49856567595589
 51
248.49856567594594
  0
ARC
  8
_0-0_
  6
CONTINUOUS
 62
    7
 10
-10.746682137193474
 20
0.6796875594292544
 40
0.4437995611637047
 50
261.97276248956962
 51
303.08485292873348
  0
LINE
  8
_0-0_
  6
CONTINUOUS
 62
    7
 10
-10.921335788481201
 20
0.4993999193902709
 11
-10.504420620891111
 21
1.1642105920339105
  0
LINE
  8
_0-0_
  6
CONTINUOUS
 62
    7
 10
-10.053701520793737
 20
1.074066772014433
 11
-10.504420620891111
 21
0.3078443018488741
  0
ARC
  8
_0-0_
  6
CONTINUOUS
 62
    7
 10
-8.7737617126762757
 20
0.7037600568207835
 40
0.3626015765713863
 50
81.961460939071998
 51
139.58304842501877
  0
ARC
  8
_0-0_
  6
CONTINUOUS
 62
    7
 10
-8.816784899503773
 20
0.8656091882193948
 40
0.2183320460103929
 50
355.56005983419107
 51
64.577105809524184
  0
ARC
  8
_0-0_
  6
CONTINUOUS
 62
    7
 10
-9.2808207002858154
 20
0.2007985155757552
 40
0.1998279790095799
 50
158.49856567595589
 51
248.49856567594594
  0
ARC
  8
_0-0_
  6
CONTINUOUS
 62
    7
 10
-9.2920886777882856
 20
0.4543280093805606
 40
0.4437995611637047
 50
261.97276248956962
 51
303.08485292873348
  0
LINE
  8
_0-0_
  6
CONTINUOUS
 62
    7
 10
-9.4667423290760127
 20
0.2740403693415771
 11
-9.049827161485922
 21
0.9388510419852167
  0
LINE
  8
_0-0_
  6
CONTINUOUS
 62
    7
 10
-8.5991080613885487
 20
0.8487072219657392
 11
-9.049827161485922
 21
0.0824847518001803
  0
ARC
  8
_0-0_
  6
CONTINUOUS
 62
    7
 10
-7.2538962430968752
 20
0.55389285191238
 40
0.3955653562596941
 50
81.961460939071998
 51
139.58304842501877
  0
ARC
  8
_0-0_
  6
CONTINUOUS
 62
    7
 10
-7.3008306287268709
 20
0.7304555407108637
 40
0.2381804138295196
 50
355.56005983419107
 51
64.577105809524184
  0
ARC
  8
_0-0_
  6
CONTINUOUS
 62
    7
 10
-7.8070515023072744
 20
0.005207534190518
 40
0.2179941589195417
 50
158.49856567595589
 51
248.49856567594594
  0
ARC
  8
_0-0_
  6
CONTINUOUS
 62
    7
 10
-7.8193438414008654
 20
0.2817851637957602
 40
0.4841449758149505
 50
261.97276248956962
 51
303.08485292873348
  0
LINE
  8
_0-0_
  6
CONTINUOUS
 62
    7
 10
-8.009875097351113
 20
0.0851077382986886
 11
-7.5550585508892141
 21
0.8103557448190343
  0
LINE
  8
_0-0_
  6
CONTINUOUS
 62
    7
 10
-7.0633649871466275
 20
0.7120170320705057
 11
-7.5550585508892141
 21
-0.123862026291917
  0
ARC
  8
_0-0_
  6
CONTINUOUS
 62
    7
 10
-5.7788155518690729
 20
0.3490205336862999
 40
0.3955653562596941
 50
81.961460939071998
 51
139.58304842501877
  0
ARC
  8
_0-0_
  6
CONTINUOUS
 62
    7
 10
-5.8257499374990687
 20
0.5255832224847836
 40
0.2381804138295196
 50
355.56005983419107
 51
64.577105809524184
  0
ARC
  8
_0-0_
  6
CONTINUOUS
 62
    7
 10
-6.3319708110794721
 20
-0.199664784035562
 40
0.2179941589195417
 50
158.49856567595589
 51
248.49856567594594
  0
ARC
  8
_0-0_
  6
CONTINUOUS
 62
    7
 10
-6.3442631501730631
 20
0.0769128455696801
 40
0.4841449758149505
 50
261.97276248956962
 51
303.08485292873348
  0
LINE
  8
_0-0_
  6
CONTINUOUS
 62
    7
 10
-6.5347944061233108
 20
-0.1197645799273914
 11
-6.0799778596614118
 21
0.6054834265929542
  0
LINE
  8
_0-0_
  6
CONTINUOUS
 62
    7
 10
-5.5882842959188253
 20
0.5071447138444256
 11
-6.0799778596614118
 21
-0.3287343445179971
  0
ARC
  8
_0-0_
  6
CONTINUOUS
 62
    7
 10
-2.0501393601543612
 20
-0.0914549504997808
 40
0.3955653562596941
 50
81.961460939071998
 51
139.58304842501877
  0
ARC
  8
_0-0_
  6
CONTINUOUS
 62
    7
 10
-2.0970737457843569
 20
0.0851077382987028
 40
0.2381804138295196
 50
355.56005983419107
 51
64.577105809524184
  0
ARC
  8
_0-0_
  6
CONTINUOUS
 62
    7
 10
-2.6032946193647604
 20
-0.6401402682216428
 40
0.2179941589195417
 50
158.49856567595589
 51
248.49856567594594
  0
ARC
  8
_0-0_
  6
CONTINUOUS
 62
    7
 10
-2.6155869584583513
 20
-0.3635626386164005
 40
0.4841449758149505
 50
261.97276248956962
 51
303.08485292873348
  0
LINE
  8
_0-0_
  6
CONTINUOUS
 62
    7
 10
-2.806118214408599
 20
-0.5602400641134721
 11
-2.3513016679467
 21
0.1650079424068735
  0
LINE
  8
_0-0_
  6
CONTINUOUS
 62
    7
 10
-1.8596081042041135
 20
0.0666692296583448
 11
-2.3513016679467
 21
-0.7692098287040778
  0
ARC
  8
_0-0_
  6
CONTINUOUS
 62
    7
 10
-0.4931097416361325
 20
-0.286083652814554
 40
0.3955653562596941
 50
81.961460939071998
 51
139.58304842501877
  0
ARC
  8
_0-0_
  6
CONTINUOUS
 62
    7
 10
-0.5400441272661282
 20
-0.1095209640160703
 40
0.2381804138295196
 50
355.56005983419107
 51
64.577105809524184
  0
ARC
  8
_0-0_
  6
CONTINUOUS
 62
    7
 10
-1.0462650008465317
 20
-0.834768970536416
 40
0.2179941589195417
 50
158.49856567595589
 51
248.49856567594594
  0
ARC
  8
_0-0_
  6
CONTINUOUS
 62
    7
 10
-1.0585573399401227
 20
-0.5581913409311738
 40
0.4841449758149505
 50
261.97276248956962
 51
303.08485292873348
  0
LINE
  8
_0-0_
  6
CONTINUOUS
 62
    7
 10
-1.2490885958903704
 20
-0.7548687664282454
 11
-0.7942720494284714
 21
-0.0296207599078996
  0
LINE
  8
_0-0_
  6
CONTINUOUS
 62
    7
 10
-0.3025784856858848
 20
-0.1279594726564283
 11
-0.7942720494284714
 21
-0.963838531018851
  0
ARC
  8
_0-0_
  6
CONTINUOUS
 62
    7
 10
1.0331890291481756
 20
-0.4602251233067278
 40
0.3955653562596941
 50
81.961460939071998
 51
139.58304842501877
  0
ARC
  8
_0-0_
  6
CONTINUOUS
 62
    7
 10
0.9862546435181798
 20
-0.2836624345082441
 40
0.2381804138295196
 50
355.56005983419107
 51
64.577105809524184
  0
ARC
  8
_0-0_
  6
CONTINUOUS
 62
    7
 10
0.4800337699377763
 20
-1.0089104410285898
 40
0.2179941589195417
 50
158.49856567595589
 51
248.49856567594594
  0
ARC
  8
_0-0_
  6
CONTINUOUS
 62
    7
 10
0.4677414308441854
 20
-0.7323328114233476
 40
0.4841449758149505
 50
261.97276248956962
 51
303.08485292873348
  0
LINE
  8
_0-0_
  6
CONTINUOUS
 62
    7
 10
0.2772101748939377
 20
-0.9290102369204191
 11
0.7320267213558366
 21
-0.2037622304000734
  0
LINE
  8
_0-0_
  6
CONTINUOUS
 62
    7
 10
1.2237202850984232
 20
-0.3021009431486021
 11
0.7320267213558366
 21
-1.1379800015110249
  0
ARC
  8
_0-0_
  6
CONTINUOUS
 62
    7
 10
2.5697314158438047
 20
-0.6650974415328079
 40
0.3955653562596941
 50
81.961460939071998
 51
139.58304842501877
  0
ARC
  8
_0-0_
  6
CONTINUOUS
 62
    7
 10
2.522797030213809
 20
-0.4885347527343242
 40
0.2381804138295196
 50
355.56005983419107
 51
64.577105809524184
  0
ARC
  8
_0-0_
  6
CONTINUOUS
 62
    7
 10
2.0165761566334055
 20
-1.2137827592546699
 40
0.2179941589195417
 50
158.49856567595589
 51
248.49856567594594
  0
ARC
  8
_0-0_
  6
CONTINUOUS
 62
    7
 10
2.0042838175398145
 20
-0.9372051296494277
 40
0.4841449758149505
 50
261.97276248956962
 51
303.08485292873348
  0
LINE
  8
_0-0_
  6
CONTINUOUS
 62
    7
 10
1.8137525615895669
 20
-1.1338825551464993
 11
2.2685691080514658
 21
-0.4086345486261535
  0
LINE
  8
_0-0_
  6
CONTINUOUS
 62
    7
 10
2.7602626717940524
 20
-0.5069732613746822
 11
2.2685691080514658
 21
-1.3428523197371049
  0
ARC
  8
_0-0_
  6
CONTINUOUS
 62
    7
 10
4.17154581271366
 20
-0.8456954941751462
 40
0.428529135948002
 50
81.961460939071998
 51
139.58304842501877
  0
ARC
  8
_0-0_
  6
CONTINUOUS
 62
    7
 10
4.1207002282811658
 20
-0.65441924797679
 40
0.2580287816486462
 50
355.56005983419107
 51
64.577105809524184
  0
ARC
  8
_0-0_
  6
CONTINUOUS
 62
    7
 10
3.5722942819024013
 20
-1.4401045883738135
 40
0.2361603388295035
 50
158.49856567595589
 51
248.49856567594594
  0
ARC
  8
_0-0_
  6
CONTINUOUS
 62
    7
 10
3.5589775812176612
 20
-1.1404788229681344
 40
0.5244903904661965
 50
261.97276248956962
 51
303.08485292873348
  0
LINE
  8
_0-0_
  6
CONTINUOUS
 62
    7
 10
3.3525687206048929
 20
-1.3535460339233083
 11
3.8452866459386144
 21
-0.5678606935262706
  0
LINE
  8
_0-0_
  6
CONTINUOUS
 62
    7
 10
4.3779546733264283
 20
-0.6743942990038505
 11
3.8452866459386144
 21
-1.5799299455631228
  0
ARC
  8
_0-0_
  6
CONTINUOUS
 62
    7
 10
5.810524358522315
 20
-1.0608114283125332
 40
0.428529135948002
 50
81.961460939071998
 51
139.58304842501877
  0
ARC
  8
_0-0_
  6
CONTINUOUS
 62
    7
 10
5.7596787740898208
 20
-0.869535182114177
 40
0.2580287816486462
 50
355.56005983419107
 51
64.577105809524184
  0
ARC
  8
_0-0_
  6
CONTINUOUS
 62
    7
 10
5.2112728277110563
 20
-1.6552205225112004
 40
0.2361603388295035
 50
158.49856567595589
 51
248.49856567594594
  0
ARC
  8
_0-0_
  6
CONTINUOUS
 62
    7
 10
5.1979561270263162
 20
-1.3555947571055214
 40
0.5244903904661965
 50
261.97276248956962
 51
303.08485292873348
  0
LINE
  8
_0-0_
  6
CONTINUOUS
 62
    7
 10
4.9915472664135478
 20
-1.5686619680606952
 11
5.4842651917472693
 21
-0.7829766276636576
  0
LINE
  8
_0-0_
  6
CONTINUOUS
 62
    7
 10
6.0169332191350833
 20
-0.8895102331412374
 11
5.4842651917472693
 21
-1.7950458797005098
  0
ARC
  8
_0-0_
  6
CONTINUOUS
 62
    7
 10
7.357310361129251
 20
-1.2861709783612127
 40
0.428529135948002
 50
81.961460939071998
 51
139.58304842501877
  0
ARC
  8
_0-0_
  6
CONTINUOUS
 62
    7
 10
7.3064647766967568
 20
-1.0948947321628566
 40
0.2580287816486462
 50
355.56005983419107
 51
64.577105809524184
  0
ARC
  8
_0-0_
  6
CONTINUOUS
 62
    7
 10
6.7580588303179923
 20
-1.88058007255988
 40
0.2361603388295035
 50
158.49856567595589
 51
248.49856567594594
  0
ARC
  8
_0-0_
  6
CONTINUOUS
 62
    7
 10
6.7447421296332521
 20
-1.5809543071542009
 40
0.5244903904661965
 50
261.97276248956962
 51
303.08485292873348
  0
LINE
  8
_0-0_
  6
CONTINUOUS
 62
    7
 10
6.5383332690204838
 20
-1.7940215181093748
 11
7.0310511943542053
 21
-1.0083361777123372
  0
LINE
  8
_0-0_
  6
CONTINUOUS
 62
    7
 10
7.5637192217420193
 20
-1.114869783189917
 11
7.0310511943542053
 21
-2.0204054297491894
  0
ARC
  8
_0-0_
  6
CONTINUOUS
 62
    7
 10
8.8631219000909596
 20
-1.3988507533855596
 40
0.428529135948002
 50
81.961460939071998
 51
139.58304842501877
  0
ARC
  8
_0-0_
  6
CONTINUOUS
 62
    7
 10
8.8122763156584369
 20
-1.2075745071872035
 40
0.2580287816486462
 50
355.56005983419107
 51
64.577105809524184
  0
ARC
  8
_0-0_
  6
CONTINUOUS
 62
    7
 10
8.2638703692796867
 20
-1.9932598475842269
 40
0.2361603388295035
 50
158.49856567595589
 51
248.49856567594594
  0
ARC
  8
_0-0_
  6
CONTINUOUS
 62
    7
 10
8.2505536685949323
 20
-1.6936340821785478
 40
0.5244903904661965
 50
261.97276248956962
 51
303.08485292873348
  0
LINE
  8
_0-0_
  6
CONTINUOUS
 62
    7
 10
8.0441448079821782
 20
-1.9067012931337217
 11
8.5368627333158997
 21
-1.1210159527366841
  0
LINE
  8
_0-0_
  6
CONTINUOUS
 62
    7
 10
9.0695307607037137
 20
-1.2275495582142639
 11
8.5368627333158997
 21
-2.1330852047735362
  0
LINE
  8
_0-0_
  6
CONTINUOUS
 62
    7
 10
8.8852931202868888
 20
-1.3149151854335486
 11
8.4653048679234075
 21
-2.0114810674022294
  0
LINE
  8
_0-0_
  6
CONTINUOUS
 62
    7
 10
7.3385071176799528
 20
-1.2329662581431222
 11
6.8570571698486589
 21
-1.9295321401118031
  0
LINE
  8
_0-0_
  6
CONTINUOUS
 62
    7
 10
5.7609902673391105
 20
-1.0588247876509485
 11
5.3922200945321634
 21
-1.5914928150387624
  0
LINE
  8
_0-0_
  6
CONTINUOUS
 62
    7
 10
4.2142042647321887
 20
-0.7720035421344277
 11
3.6917798532556816
 21
-1.4788130400144155
  0
LINE
  8
_0-0_
  6
CONTINUOUS
 62
    7
 10
2.5342512552783063
 20
-0.5671312239083476
 11
2.0528013074470124
 21
-1.3046715695222417
  0
LINE
  8
_0-0_
  6
CONTINUOUS
 62
    7
 10
1.0079524844939982
 20
-0.3725025215935744
 11
0.6289386957757443
 21
-0.9359013967152947
  0
LINE
  8
_0-0_
  6
CONTINUOUS
 62
    7
 10
-0.5900515976694578
 20
-0.1881174351900938
 11
-0.9690653863877116
 21
-0.7822471580457346
  0
LINE
  8
_0-0_
  6
CONTINUOUS
 62
    7
 10
-2.1778120639215928
 20
-0.0447068124318406
 11
-2.5670694685511535
 21
-0.6695673830213877
  0
LINE
  8
_0-0_
  6
CONTINUOUS
 62
    7
 10
-5.8489848151490662
 20
0.376934337615836
 11
-6.3114916855732588
 21
-0.1974693562980718
  0
LINE
  8
_0-0_
  6
CONTINUOUS
 62
    7
 10
-7.3036435205154788
 20
0.600727984595295
 11
-7.7810699674049602
 21
0.0114047142160842
  0
LINE
  8
_0-0_
  6
CONTINUOUS
 62
    7
 10
-8.7881413788124689
 20
0.8319814198073913
 11
-9.2506482492366615
 21
0.1680602671016941
  0
LINE
  8
_0-0_
  6
CONTINUOUS
 62
    7
 10
-10.324857754738005
 20
0.9960967609256385
 11
-10.68292758990512
 21
0.4739115846402626
  0
LINE
  8
_0-0_
  6
CONTINUOUS
 62
    7
 10
-11.757137095406478
 20
1.1602121020439
 11
-12.227103754063307
 21
0.5858084081299921
  0
LINE
  8
_0-0_
  6
CONTINUOUS
 62
    7
 10
-13.256554530168771
 20
1.3317872313948129
 11
-13.696682035895009
 21
0.7723031139461937
  0
LINE
  8
_0-0_
  6
CONTINUOUS
 62
    7
 10
-14.636615353208697
 20
1.5182819372110288
 11
-15.054363494236995
 21
0.9513380315297581
  0
ARC
  8
_0-0_
  6
CONTINUOUS
 62
    7
 10
-13.211957837655874
 20
-4.870848605923868
 40
2.0115516804572016
 50
144.19728091035878
 51
164.94897075046043
  0
ARC
  8
_0-0_
  6
CONTINUOUS
 62
    7
 10
-13.694475940249092
 20
-4.7478787294920153
 40
1.5136678378099697
 50
164.70109281549233
 51
186.826117586392
  0
ARC
  8
_0-0_
  6
CONTINUOUS
 62
    7
 10
-15.01648163036424
 20
-4.9004454810770852
 40
0.1829867676198777
 50
188.59355659003526
 51
325.95773203912074
  0
ARC
  8
_0-0_
  6
CONTINUOUS
 62
    7
 10
-13.719253799243475
 20
-4.952616746972339
 40
1.1467026735178059
 50
158.9954184919134
 51
182.5123560169589
  0
ARC
  8
_0-0_
  6
CONTINUOUS
 62
    7
 10
-13.607616029946143
 20
-4.7225874827699812
 40
1.1959200771080427
 50
143.14013082344138
 51
171.29505771559593
  0
ARC
  8
_0-0_
  6
CONTINUOUS
 62
    7
 10
-14.955273734136171
 20
-3.8691905491603933
 40
0.4137885023271825
 50
340.81009924057804
 51
13.984776354424296
  0
ARC
  8
_0-0_
  6
CONTINUOUS
 62
    7
 10
-14.753940381306407
 20
-3.9452003187020352
 40
0.2665612221537269
 50
41.321958267516749
 51
109.60913157140405
  0
ARC
  8
_0-0_
  6
CONTINUOUS
 62
    7
 10
2.623810803417939
 20
-7.1569479153402398
 40
2.0115516804572016
 50
144.19728091035878
 51
164.94897075046043
  0
ARC
  8
_0-0_
  6
CONTINUOUS
 62
    7
 10
2.1412927008247209
 20
-7.033978038908387
 40
1.5136678378099697
 50
164.70109281549233
 51
186.826117586392
  0
ARC
  8
_0-0_
  6
CONTINUOUS
 62
    7
 10
0.8192870107095728
 20
-7.186544790493457
 40
0.1829867676198777
 50
188.59355659003526
 51
325.95773203912074
  0
ARC
  8
_0-0_
  6
CONTINUOUS
 62
    7
 10
2.1165148418303374
 20
-7.2387160563887107
 40
1.1467026735178059
 50
158.9954184919134
 51
182.5123560169589
  0
ARC
  8
_0-0_
  6
CONTINUOUS
 62
    7
 10
2.228152611127669
 20
-7.0086867921863529
 40
1.1959200771080427
 50
143.14013082344138
 51
171.29505771559593
  0
ARC
  8
_0-0_
  6
CONTINUOUS
 62
    7
 10
0.8804949069376419
 20
-6.155289858576765
 40
0.4137885023271825
 50
340.81009924057804
 51
13.984776354424296
  0
ARC
  8
_0-0_
  6
CONTINUOUS
 62
    7
 10
1.0818282597674056
 20
-6.231299628118407
 40
0.2665612221537269
 50
41.321958267516749
 51
109.60913157140405
  0
ARC
  8
_0-0_
  6
CONTINUOUS
 62
    7
 10
-15.751586655543164
 20
-21.127564434545931
 40
0.1601950807833416
 50
69.641661999561407
 51
171.6596739145464
  0
ARC
  8
_0-0_
  6
CONTINUOUS
 62
    7
 10
-15.746108080328852
 20
-21.196015138660741
 40
0.22433981554378
 50
26.363660865816289
 51
77.056012749700741
  0
ARC
  8
_0-0_
  6
CONTINUOUS
 62
    7
 10
-15.698284038017789
 20
-21.916665362149814
 40
0.2874941499762835
 50
205.53589637276949
 51
252.83393587746821
  0
ARC
  8
_0-0_
  6
CONTINUOUS
 62
    7
 10
-15.732553329583013
 20
-21.972658275905957
 40
0.2244677845857353
 50
256.97692032939671
 51
340.24399900253439
  0
LINE
  8
_0-0_
  6
CONTINUOUS
 62
    7
 10
-15.545101044878621
 20
-21.096393230740205
 11
-15.521297580154254
 21
-22.048531819714881
  0
LINE
  8
_0-0_
  6
CONTINUOUS
 62
    7
 10
-15.910087503985579
 20
-21.104327718981665
 11
-15.957694433434312
 21
-22.040597331473421
  0
ARC
  8
_0-0_
  6
CONTINUOUS
 62
    7
 10
-0.0283559928686116
 20
-24.155494447907003
 40
0.1601950807833416
 50
69.641661999561407
 51
171.6596739145464
  0
ARC
  8
_0-0_
  6
CONTINUOUS
 62
    7
 10
-0.0228774176542998
 20
-24.223945152021813
 40
0.22433981554378
 50
26.363660865816289
 51
77.056012749700741
  0
ARC
  8
_0-0_
  6
CONTINUOUS
 62
    7
 10
0.0249466246567635
 20
-24.944595375510886
 40
0.2874941499762835
 50
205.53589637276949
 51
252.83393587746821
  0
ARC
  8
_0-0_
  6
CONTINUOUS
 62
    7
 10
-0.00932266690846
 20
-25.000588289267029
 40
0.2244677845857353
 50
256.97692032939671
 51
340.24399900253439
  0
LINE
  8
_0-0_
  6
CONTINUOUS
 62
    7
 10
0.1781296177959319
 20
-24.124323244101276
 11
0.2019330825202985
 21
-25.076461833075953
  0
LINE
  8
_0-0_
  6
CONTINUOUS
 62
    7
 10
-0.1868568413110267
 20
-24.132257732342737
 11
-0.2344637707597598
 21
-25.068527344834493
  0
LINE
  8
_0-0_
  6
CONTINUOUS
 62
    7
 10
2.3913908135607898
 20
14.492363977412879
 11
1.8352691026755821
 21
13.777350349131908
  0
LINE
  8
_0-0_
  6
CONTINUOUS
 62
    7
 10
1.8352691026755821
 20
13.777350349131908
 11
1.7823051302103323
 21
13.009372748385672
  0
LINE
  8
_0-0_
  6
CONTINUOUS
 62
    7
 10
1.8352691026755821
 20
13.777350349131908
 11
3.477152249098566
 21
13.644940417968755
  0
LINE
  8
_0-0_
  6
CONTINUOUS
 62
    7
 10
1.7823051302103323
 20
13.009372748385672
 11
3.3712243041680523
 21
12.903444803455159
  0
LINE
  8
_0-0_
  6
CONTINUOUS
 62
    7
 10
3.477152249098566
 20
13.644940417968755
 11
3.4506702628659411
 21
13.088818707083561
  0
LINE
  8
_0-0_
  6
CONTINUOUS
 62
    7
 10
3.477152249098566
 20
13.644940417968755
 11
4.0067919737511488
 21
14.306990073784476
  0
LINE
  8
_0-0_
  6
CONTINUOUS
 62
    7
 10
4.4834677259384534
 20
13.856796307829782
 11
3.53011622156383
 21
12.850480830989895
  0
LINE
  8
_0-0_
  6
CONTINUOUS
 62
    7
 10
2.5767647171891923
 20
14.35995404624974
 11
3.9008640288206209
 21
14.306990073784476
  0
LINE
  8
_0-0_
  6
CONTINUOUS
 62
    7
 10
4.0067919737511488
 20
14.306990073784476
 11
4.4040217672405788
 21
13.883278294062421
  0
LINE
  8
_0-0_
  6
CONTINUOUS
 62
    7
 10
-0.7437821120909688
 20
13.693490726061924
 11
-1.2999038229761766
 21
12.978477097780953
  0
LINE
  8
_0-0_
  6
CONTINUOUS
 62
    7
 10
-1.2999038229761766
 20
12.978477097780953
 11
-1.3528677954414263
 21
12.210499497034718
  0
LINE
  8
_0-0_
  6
CONTINUOUS
 62
    7
 10
-1.2999038229761766
 20
12.978477097780953
 11
0.3419793234468073
 21
12.8460671666178
  0
LINE
  8
_0-0_
  6
CONTINUOUS
 62
    7
 10
-1.3528677954414263
 20
12.210499497034718
 11
0.2360513785162936
 21
12.104571552104204
  0
LINE
  8
_0-0_
  6
CONTINUOUS
 62
    7
 10
0.3419793234468073
 20
12.8460671666178
 11
0.3154973372141824
 21
12.289945455732607
  0
LINE
  8
_0-0_
  6
CONTINUOUS
 62
    7
 10
0.3419793234468073
 20
12.8460671666178
 11
0.8716190480993901
 21
13.508116822433522
  0
LINE
  8
_0-0_
  6
CONTINUOUS
 62
    7
 10
1.3482948002866948
 20
13.057923056478828
 11
0.3949432959120713
 21
12.05160757963894
  0
LINE
  8
_0-0_
  6
CONTINUOUS
 62
    7
 10
-0.5584082084625663
 20
13.561080794898785
 11
0.7656911031688622
 21
13.508116822433522
  0
LINE
  8
_0-0_
  6
CONTINUOUS
 62
    7
 10
0.8716190480993901
 20
13.508116822433522
 11
1.2688488415888202
 21
13.084405042711467
  0
LINE
  8
_0-0_
  6
CONTINUOUS
 62
    7
 10
-1.9354714925592589
 20
11.866233676010538
 11
-2.4915932034444666
 21
11.151220047729566
  0
LINE
  8
_0-0_
  6
CONTINUOUS
 62
    7
 10
-2.4915932034444666
 20
11.151220047729566
 11
-2.5445571759097163
 21
10.383242446983331
  0
LINE
  8
_0-0_
  6
CONTINUOUS
 62
    7
 10
-2.4915932034444666
 20
11.151220047729566
 11
-0.8497100570214826
 21
11.018810116566414
  0
LINE
  8
_0-0_
  6
CONTINUOUS
 62
    7
 10
-2.5445571759097163
 20
10.383242446983331
 11
-0.9556380019519963
 21
10.277314502052818
  0
LINE
  8
_0-0_
  6
CONTINUOUS
 62
    7
 10
-0.8497100570214826
 20
11.018810116566414
 11
-0.8761920432541074
 21
10.46268840568122
  0
LINE
  8
_0-0_
  6
CONTINUOUS
 62
    7
 10
-0.8497100570214826
 20
11.018810116566414
 11
-0.3200703323688998
 21
11.680859772382135
  0
LINE
  8
_0-0_
  6
CONTINUOUS
 62
    7
 10
0.1566054198184048
 20
11.230666006427441
 11
-0.7967460845562186
 21
10.224350529587554
  0
LINE
  8
_0-0_
  6
CONTINUOUS
 62
    7
 10
-1.7500975889308563
 20
11.733823744847399
 11
-0.4259982772994277
 21
11.680859772382135
  0
LINE
  8
_0-0_
  6
CONTINUOUS
 62
    7
 10
-0.3200703323688998
 20
11.680859772382135
 11
0.0771594611205301
 21
11.25714799266008
  0
LINE
  8
_0-0_
  6
CONTINUOUS
 62
    7
 10
-3.0741969005622991
 20
10.171386557122304
 11
-3.6303186114475068
 21
9.4563729288413327
  0
LINE
  8
_0-0_
  6
CONTINUOUS
 62
    7
 10
-3.6303186114475068
 20
9.4563729288413327
 11
-3.6832825839127565
 21
8.6883953280950976
  0
LINE
  8
_0-0_
  6
CONTINUOUS
 62
    7
 10
-3.6303186114475068
 20
9.4563729288413327
 11
-1.9884354650245228
 21
9.3239629976781799
  0
LINE
  8
_0-0_
  6
CONTINUOUS
 62
    7
 10
-3.6832825839127565
 20
8.6883953280950976
 11
-2.0943634099550366
 21
8.5824673831645839
  0
LINE
  8
_0-0_
  6
CONTINUOUS
 62
    7
 10
-1.9884354650245228
 20
9.3239629976781799
 11
-2.0149174512571477
 21
8.7678412867929865
  0
LINE
  8
_0-0_
  6
CONTINUOUS
 62
    7
 10
-1.9884354650245228
 20
9.3239629976781799
 11
-1.45879574037194
 21
9.9860126534939013
  0
LINE
  8
_0-0_
  6
CONTINUOUS
 62
    7
 10
-0.9821199881846354
 20
9.5358188875392074
 11
-1.9354714925592589
 21
8.5295034106993199
  0
LINE
  8
_0-0_
  6
CONTINUOUS
 62
    7
 10
-2.8888229969338965
 20
10.038976625959165
 11
-1.564723685302468
 21
9.9860126534939013
  0
LINE
  8
_0-0_
  6
CONTINUOUS
 62
    7
 10
-1.45879574037194
 20
9.9860126534939013
 11
-1.06156594688251
 21
9.5623008737718465
  0
LINE
  8
_0-0_
  6
CONTINUOUS
 62
    7
 10
-4.292368267263214
 20
8.3441295070709174
 11
-4.8484899781484216
 21
7.6291158787899462
  0
LINE
  8
_0-0_
  6
CONTINUOUS
 62
    7
 10
-4.8484899781484216
 20
7.6291158787899462
 11
-4.9014539506136714
 21
6.8611382780437111
  0
LINE
  8
_0-0_
  6
CONTINUOUS
 62
    7
 10
-4.8484899781484216
 20
7.6291158787899462
 11
-3.2066068317254377
 21
7.4967059476267934
  0
LINE
  8
_0-0_
  6
CONTINUOUS
 62
    7
 10
-4.9014539506136714
 20
6.8611382780437111
 11
-3.3125347766559514
 21
6.7552103331131974
  0
LINE
  8
_0-0_
  6
CONTINUOUS
 62
    7
 10
-3.2066068317254377
 20
7.4967059476267934
 11
-3.2330888179580626
 21
6.9405842367416
  0
LINE
  8
_0-0_
  6
CONTINUOUS
 62
    7
 10
-3.2066068317254377
 20
7.4967059476267934
 11
-2.6769671070728549
 21
8.1587556034425148
  0
LINE
  8
_0-0_
  6
CONTINUOUS
 62
    7
 10
-2.2002913548855503
 20
7.7085618374878209
 11
-3.1536428592601737
 21
6.7022463606479334
  0
LINE
  8
_0-0_
  6
CONTINUOUS
 62
    7
 10
-4.1069943636348114
 20
8.2117195759077788
 11
-2.7828950520033828
 21
8.1587556034425148
  0
LINE
  8
_0-0_
  6
CONTINUOUS
 62
    7
 10
-2.6769671070728549
 20
8.1587556034425148
 11
-2.2797373135834249
 21
7.73504382372046
  0
LINE
  8
_0-0_
  6
CONTINUOUS
 62
    7
 10
-5.3781297028009902
 20
6.5168724570195309
 11
-5.9342514136861979
 21
5.8018588287385597
  0
LINE
  8
_0-0_
  6
CONTINUOUS
 62
    7
 10
-5.9342514136861979
 20
5.8018588287385597
 11
-5.9872153861514477
 21
5.0338812279923246
  0
LINE
  8
_0-0_
  6
CONTINUOUS
 62
    7
 10
-5.9342514136861979
 20
5.8018588287385597
 11
-4.292368267263214
 21
5.6694488975754069
  0
LINE
  8
_0-0_
  6
CONTINUOUS
 62
    7
 10
-5.9872153861514477
 20
5.0338812279923246
 11
-4.3982962121937277
 21
4.9279532830618109
  0
LINE
  8
_0-0_
  6
CONTINUOUS
 62
    7
 10
-4.292368267263214
 20
5.6694488975754069
 11
-4.3188502534958388
 21
5.1133271866902135
  0
LINE
  8
_0-0_
  6
CONTINUOUS
 62
    7
 10
-4.292368267263214
 20
5.6694488975754069
 11
-3.7627285426106312
 21
6.3314985533911283
  0
LINE
  8
_0-0_
  6
CONTINUOUS
 62
    7
 10
-3.2860527904233265
 20
5.8813047874364344
 11
-4.23940429479795
 21
4.8749893105965469
  0
LINE
  8
_0-0_
  6
CONTINUOUS
 62
    7
 10
-5.1927557991725877
 20
6.3844625258563923
 11
-3.8686564875411591
 21
6.3314985533911283
  0
LINE
  8
_0-0_
  6
CONTINUOUS
 62
    7
 10
-3.7627285426106312
 20
6.3314985533911283
 11
-3.3654987491212012
 21
5.9077867736690735
  0
LINE
  8
_0-0_
  6
CONTINUOUS
 62
    7
 10
-2.3856652585139528
 20
7.1259581403700025
 11
-2.9417869693991605
 21
6.4109445120890314
  0
LINE
  8
_0-0_
  6
CONTINUOUS
 62
    7
 10
-2.9417869693991605
 20
6.4109445120890314
 11
-2.9947509418644103
 21
5.6429669113427963
  0
LINE
  8
_0-0_
  6
CONTINUOUS
 62
    7
 10
-2.9417869693991605
 20
6.4109445120890314
 11
-1.2999038229761766
 21
6.2785345809258786
  0
LINE
  8
_0-0_
  6
CONTINUOUS
 62
    7
 10
-2.9947509418644103
 20
5.6429669113427963
 11
-1.4058317679066903
 21
5.5370389664122825
  0
LINE
  8
_0-0_
  6
CONTINUOUS
 62
    7
 10
-1.2999038229761766
 20
6.2785345809258786
 11
-1.3263858092088014
 21
5.7224128700406851
  0
LINE
  8
_0-0_
  6
CONTINUOUS
 62
    7
 10
-1.2999038229761766
 20
6.2785345809258786
 11
-0.7702640983235937
 21
6.9405842367416
  0
LINE
  8
_0-0_
  6
CONTINUOUS
 62
    7
 10
-0.2935883461362891
 20
6.490390470786906
 11
-1.2469398505109126
 21
5.4840749939470186
  0
LINE
  8
_0-0_
  6
CONTINUOUS
 62
    7
 10
-2.2002913548855503
 20
6.9935482092068639
 11
-0.8761920432541217
 21
6.9405842367416
  0
LINE
  8
_0-0_
  6
CONTINUOUS
 62
    7
 10
-0.7702640983235937
 20
6.9405842367416
 11
-0.3730343048341637
 21
6.5168724570195451
  0
LINE
  8
_0-0_
  6
CONTINUOUS
 62
    7
 10
-1.2734218367435375
 20
9.0856251215845276
 11
-1.8295435476287452
 21
8.3706114933035565
  0
LINE
  8
_0-0_
  6
CONTINUOUS
 62
    7
 10
-1.8295435476287452
 20
8.3706114933035565
 11
-1.8825075200939949
 21
7.6026338925573214
  0
LINE
  8
_0-0_
  6
CONTINUOUS
 62
    7
 10
-1.8295435476287452
 20
8.3706114933035565
 11
-0.1876604012057612
 21
8.2382015621404037
  0
LINE
  8
_0-0_
  6
CONTINUOUS
 62
    7
 10
-1.8825075200939949
 20
7.6026338925573214
 11
-0.2935883461362749
 21
7.4967059476268076
  0
LINE
  8
_0-0_
  6
CONTINUOUS
 62
    7
 10
-0.1876604012057612
 20
8.2382015621404037
 11
-0.214142387438386
 21
7.6820798512552102
  0
LINE
  8
_0-0_
  6
CONTINUOUS
 62
    7
 10
-0.1876604012057612
 20
8.2382015621404037
 11
0.3419793234468215
 21
8.9002512179561251
  0
LINE
  8
_0-0_
  6
CONTINUOUS
 62
    7
 10
0.8186550756341262
 20
8.4500574520014311
 11
-0.1346964287404972
 21
7.4437419751615437
  0
LINE
  8
_0-0_
  6
CONTINUOUS
 62
    7
 10
-1.0880479331151349
 20
8.953215190421389
 11
0.2360513785162936
 21
8.9002512179561251
  0
LINE
  8
_0-0_
  6
CONTINUOUS
 62
    7
 10
0.3419793234468215
 20
8.9002512179561251
 11
0.7392091169362515
 21
8.4765394382340702
  0
LINE
  8
_0-0_
  6
CONTINUOUS
 62
    7
 10
-0.0817324562752475
 20
10.886400185403275
 11
-0.6378541671604551
 21
10.171386557122304
  0
LINE
  8
_0-0_
  6
CONTINUOUS
 62
    7
 10
-0.6378541671604551
 20
10.171386557122304
 11
-0.6908181396257049
 21
9.4034089563760688
  0
LINE
  8
_0-0_
  6
CONTINUOUS
 62
    7
 10
-0.6378541671604551
 20
10.171386557122304
 11
1.0040289792625288
 21
10.038976625959151
  0
LINE
  8
_0-0_
  6
CONTINUOUS
 62
    7
 10
-0.6908181396257049
 20
9.4034089563760688
 11
0.898101034332015
 21
9.2974810114455551
  0
LINE
  8
_0-0_
  6
CONTINUOUS
 62
    7
 10
1.0040289792625288
 20
10.038976625959151
 11
0.9775469930299038
 21
9.4828549150739576
  0
LINE
  8
_0-0_
  6
CONTINUOUS
 62
    7
 10
1.0040289792625288
 20
10.038976625959151
 11
1.5336687039151116
 21
10.701026281774872
  0
LINE
  8
_0-0_
  6
CONTINUOUS
 62
    7
 10
2.0103444561024162
 20
10.250832515820179
 11
1.0569929517277927
 21
9.2445170389802911
  0
LINE
  8
_0-0_
  6
CONTINUOUS
 62
    7
 10
0.103641447353155
 20
10.753990254240136
 11
1.4277407589845836
 21
10.701026281774872
  0
LINE
  8
_0-0_
  6
CONTINUOUS
 62
    7
 10
1.5336687039151116
 20
10.701026281774872
 11
1.9308984974045416
 21
10.277314502052818
  0
LINE
  8
_0-0_
  6
CONTINUOUS
 62
    7
 10
1.2423668553561811
 20
12.8460671666178
 11
0.6862451444709734
 21
12.131053538336829
  0
LINE
  8
_0-0_
  6
CONTINUOUS
 62
    7
 10
0.6862451444709734
 20
12.131053538336829
 11
0.6332811720057236
 21
11.363075937590594
  0
LINE
  8
_0-0_
  6
CONTINUOUS
 62
    7
 10
0.6862451444709734
 20
12.131053538336829
 11
2.3281282908939573
 21
11.998643607173676
  0
LINE
  8
_0-0_
  6
CONTINUOUS
 62
    7
 10
0.6332811720057236
 20
11.363075937590594
 11
2.2222003459634436
 21
11.25714799266008
  0
LINE
  8
_0-0_
  6
CONTINUOUS
 62
    7
 10
2.3281282908939573
 20
11.998643607173676
 11
2.3016463046613325
 21
11.442521896288483
  0
LINE
  8
_0-0_
  6
CONTINUOUS
 62
    7
 10
2.3281282908939573
 20
11.998643607173676
 11
2.8577680155465401
 21
12.660693262989398
  0
LINE
  8
_0-0_
  6
CONTINUOUS
 62
    7
 10
3.3344437677338448
 20
12.210499497034704
 11
2.3810922633592213
 21
11.204184020194816
  0
LINE
  8
_0-0_
  6
CONTINUOUS
 62
    7
 10
1.4277407589845836
 20
12.713657235454662
 11
2.7518400706160122
 21
12.660693262989398
  0
LINE
  8
_0-0_
  6
CONTINUOUS
 62
    7
 10
2.8577680155465401
 20
12.660693262989398
 11
3.2549978090359701
 21
12.236981483267343
  0
LINE
  8
_0-0_
  6
CONTINUOUS
 62
    7
 10
4.3142772583411215
 20
13.534598808666146
 11
3.7581555474559138
 21
12.819585180385175
  0
LINE
  8
_0-0_
  6
CONTINUOUS
 62
    7
 10
3.7581555474559138
 20
12.819585180385175
 11
3.7051915749906641
 21
12.05160757963894
  0
LINE
  8
_0-0_
  6
CONTINUOUS
 62
    7
 10
3.7581555474559138
 20
12.819585180385175
 11
5.4000386938788978
 21
12.687175249222022
  0
LINE
  8
_0-0_
  6
CONTINUOUS
 62
    7
 10
3.7051915749906641
 20
12.05160757963894
 11
5.2941107489483841
 21
11.945679634708426
  0
LINE
  8
_0-0_
  6
CONTINUOUS
 62
    7
 10
5.4000386938788978
 20
12.687175249222022
 11
5.3735567076462729
 21
12.131053538336829
  0
LINE
  8
_0-0_
  6
CONTINUOUS
 62
    7
 10
5.4000386938788978
 20
12.687175249222022
 11
5.9296784185314806
 21
13.349224905037744
  0
LINE
  8
_0-0_
  6
CONTINUOUS
 62
    7
 10
6.4063541707187852
 20
12.89903113908305
 11
5.4530026663441618
 21
11.892715662243162
  0
LINE
  8
_0-0_
  6
CONTINUOUS
 62
    7
 10
4.4996511619695241
 20
13.402188877503008
 11
5.8237504736009527
 21
13.349224905037744
  0
LINE
  8
_0-0_
  6
CONTINUOUS
 62
    7
 10
5.9296784185314806
 20
13.349224905037744
 11
6.3269082120209106
 21
12.925513125315689
  0
LINE
  8
_0-0_
  6
CONTINUOUS
 62
    7
 10
7.3067417026281589
 20
13.825900657225063
 11
6.7506199917429512
 21
13.110887028944092
  0
LINE
  8
_0-0_
  6
CONTINUOUS
 62
    7
 10
6.7506199917429512
 20
13.110887028944092
 11
6.6976560192777015
 21
12.342909428197856
  0
LINE
  8
_0-0_
  6
CONTINUOUS
 62
    7
 10
6.7506199917429512
 20
13.110887028944092
 11
8.392503138165921
 21
12.978477097780939
  0
LINE
  8
_0-0_
  6
CONTINUOUS
 62
    7
 10
6.6976560192777015
 20
12.342909428197856
 11
8.2865751932354215
 21
12.236981483267343
  0
LINE
  8
_0-0_
  6
CONTINUOUS
 62
    7
 10
8.392503138165921
 20
12.978477097780939
 11
8.3660211519332961
 21
12.422355386895745
  0
LINE
  8
_0-0_
  6
CONTINUOUS
 62
    7
 10
8.392503138165921
 20
12.978477097780939
 11
8.9221428628185322
 21
13.64052675359666
  0
LINE
  8
_0-0_
  6
CONTINUOUS
 62
    7
 10
9.3988186150058368
 20
13.190332987641966
 11
8.4454671106311991
 21
12.184017510802079
  0
LINE
  8
_0-0_
  6
CONTINUOUS
 62
    7
 10
7.4921156062565615
 20
13.693490726061924
 11
8.8162149178879758
 21
13.64052675359666
  0
LINE
  8
_0-0_
  6
CONTINUOUS
 62
    7
 10
8.9221428628185322
 20
13.64052675359666
 11
9.3193726563079622
 21
13.216814973874605
  0
LINE
  8
_0-0_
  6
CONTINUOUS
 62
    7
 10
8.8956608765858789
 20
12.925513125315689
 11
8.3395391657006712
 21
12.210499497034718
  0
LINE
  8
_0-0_
  6
CONTINUOUS
 62
    7
 10
8.3395391657006712
 20
12.210499497034718
 11
8.2865751932354215
 21
11.442521896288483
  0
LINE
  8
_0-0_
  6
CONTINUOUS
 62
    7
 10
8.3395391657006712
 20
12.210499497034718
 11
9.9814223121236409
 21
12.078089565871565
  0
LINE
  8
_0-0_
  6
CONTINUOUS
 62
    7
 10
8.2865751932354215
 20
11.442521896288483
 11
9.8754943671931414
 21
11.336593951357969
  0
LINE
  8
_0-0_
  6
CONTINUOUS
 62
    7
 10
9.9814223121236409
 20
12.078089565871565
 11
9.9549403258910161
 21
11.521967854986372
  0
LINE
  8
_0-0_
  6
CONTINUOUS
 62
    7
 10
9.9814223121236409
 20
12.078089565871565
 11
10.511062036776252
 21
12.740139221687286
  0
LINE
  8
_0-0_
  6
CONTINUOUS
 62
    7
 10
10.987737788963557
 20
12.289945455732592
 11
10.034386284588919
 21
11.283629978892705
  0
LINE
  8
_0-0_
  6
CONTINUOUS
 62
    7
 10
9.0810347802142815
 20
12.79310319415255
 11
10.405134091845696
 21
12.740139221687286
  0
LINE
  8
_0-0_
  6
CONTINUOUS
 62
    7
 10
10.511062036776252
 20
12.740139221687286
 11
10.908291830265682
 21
12.316427441965232
  0
LINE
  8
_0-0_
  6
CONTINUOUS
 62
    7
 10
5.7178225286704389
 20
12.157535524569454
 11
5.1617008177852313
 21
11.442521896288483
  0
LINE
  8
_0-0_
  6
CONTINUOUS
 62
    7
 10
5.1617008177852313
 20
11.442521896288483
 11
5.1087368453199815
 21
10.674544295542248
  0
LINE
  8
_0-0_
  6
CONTINUOUS
 62
    7
 10
5.1617008177852313
 20
11.442521896288483
 11
6.8035839642082152
 21
11.31011196512533
  0
LINE
  8
_0-0_
  6
CONTINUOUS
 62
    7
 10
5.1087368453199815
 20
10.674544295542248
 11
6.6976560192777015
 21
10.568616350611734
  0
LINE
  8
_0-0_
  6
CONTINUOUS
 62
    7
 10
6.8035839642082152
 20
11.31011196512533
 11
6.7771019779755903
 21
10.753990254240136
  0
LINE
  8
_0-0_
  6
CONTINUOUS
 62
    7
 10
6.8035839642082152
 20
11.31011196512533
 11
7.333223688860798
 21
11.972161620941051
  0
LINE
  8
_0-0_
  6
CONTINUOUS
 62
    7
 10
7.8098994410481026
 20
11.521967854986357
 11
6.8565479366734792
 21
10.51565237814647
  0
LINE
  8
_0-0_
  6
CONTINUOUS
 62
    7
 10
5.9031964322988415
 20
12.025125593406315
 11
7.2272957439302701
 21
11.972161620941051
  0
LINE
  8
_0-0_
  6
CONTINUOUS
 62
    7
 10
7.333223688860798
 20
11.972161620941051
 11
7.730453482350228
 21
11.548449841218996
  0
LINE
  8
_0-0_
  6
CONTINUOUS
 62
    7
 10
2.6988760981507625
 20
11.574931827451621
 11
2.1427543872655548
 21
10.85991819917065
  0
LINE
  8
_0-0_
  6
CONTINUOUS
 62
    7
 10
2.1427543872655548
 20
10.85991819917065
 11
2.089790414800305
 21
10.091940598424415
  0
LINE
  8
_0-0_
  6
CONTINUOUS
 62
    7
 10
2.1427543872655548
 20
10.85991819917065
 11
3.7846375336885387
 21
10.727508268007497
  0
LINE
  8
_0-0_
  6
CONTINUOUS
 62
    7
 10
2.089790414800305
 20
10.091940598424415
 11
3.678709588758025
 21
9.9860126534939013
  0
LINE
  8
_0-0_
  6
CONTINUOUS
 62
    7
 10
3.7846375336885387
 20
10.727508268007497
 11
3.7581555474559138
 21
10.171386557122304
  0
LINE
  8
_0-0_
  6
CONTINUOUS
 62
    7
 10
3.7846375336885387
 20
10.727508268007497
 11
4.3142772583411215
 21
11.389557923823219
  0
LINE
  8
_0-0_
  6
CONTINUOUS
 62
    7
 10
4.7909530105284261
 20
10.939364157868525
 11
3.8376015061538027
 21
9.9330486810286374
  0
LINE
  8
_0-0_
  6
CONTINUOUS
 62
    7
 10
2.884250001779165
 20
11.442521896288483
 11
4.2083493134105936
 21
11.389557923823219
  0
LINE
  8
_0-0_
  6
CONTINUOUS
 62
    7
 10
4.3142772583411215
 20
11.389557923823219
 11
4.7115070518305515
 21
10.965846144101164
  0
LINE
  8
_0-0_
  6
CONTINUOUS
 62
    7
 10
1.7190426075434999
 20
9.7211927911676099
 11
1.1629208966582922
 21
9.0061791628866388
  0
LINE
  8
_0-0_
  6
CONTINUOUS
 62
    7
 10
1.1629208966582922
 20
9.0061791628866388
 11
1.1099569241930425
 21
8.2382015621404037
  0
LINE
  8
_0-0_
  6
CONTINUOUS
 62
    7
 10
1.1629208966582922
 20
9.0061791628866388
 11
2.8048040430812762
 21
8.873769231723486
  0
LINE
  8
_0-0_
  6
CONTINUOUS
 62
    7
 10
1.1099569241930425
 20
8.2382015621404037
 11
2.6988760981507625
 21
8.1322736172098899
  0
LINE
  8
_0-0_
  6
CONTINUOUS
 62
    7
 10
2.8048040430812762
 20
8.873769231723486
 11
2.7783220568486513
 21
8.3176475208382925
  0
LINE
  8
_0-0_
  6
CONTINUOUS
 62
    7
 10
2.8048040430812762
 20
8.873769231723486
 11
3.334443767733859
 21
9.5358188875392074
  0
LINE
  8
_0-0_
  6
CONTINUOUS
 62
    7
 10
3.8111195199211636
 20
9.0856251215845134
 11
2.8577680155465401
 21
8.079309644744626
  0
LINE
  8
_0-0_
  6
CONTINUOUS
 62
    7
 10
1.9044165111719025
 20
9.5887828600044713
 11
3.228515822803331
 21
9.5358188875392074
  0
LINE
  8
_0-0_
  6
CONTINUOUS
 62
    7
 10
3.334443767733859
 20
9.5358188875392074
 11
3.731673561223289
 21
9.1121071078171525
  0
LINE
  8
_0-0_
  6
CONTINUOUS
 62
    7
 10
0.3949432959120713
 20
7.73504382372046
 11
-0.1611784149731363
 21
7.0200301954394888
  0
LINE
  8
_0-0_
  6
CONTINUOUS
 62
    7
 10
-0.1611784149731363
 20
7.0200301954394888
 11
-0.214142387438386
 21
6.2520525946932537
  0
LINE
  8
_0-0_
  6
CONTINUOUS
 62
    7
 10
-0.1611784149731363
 20
7.0200301954394888
 11
1.4807047314498476
 21
6.887620264276336
  0
LINE
  8
_0-0_
  6
CONTINUOUS
 62
    7
 10
-0.214142387438386
 20
6.2520525946932537
 11
1.3747767865193339
 21
6.14612464976274
  0
LINE
  8
_0-0_
  6
CONTINUOUS
 62
    7
 10
1.4807047314498476
 20
6.887620264276336
 11
1.4542227452172227
 21
6.3314985533911425
  0
LINE
  8
_0-0_
  6
CONTINUOUS
 62
    7
 10
1.4807047314498476
 20
6.887620264276336
 11
2.0103444561024304
 21
7.5496699200920574
  0
LINE
  8
_0-0_
  6
CONTINUOUS
 62
    7
 10
2.487020208289735
 20
7.0994761541373634
 11
1.5336687039151116
 21
6.093160677297476
  0
LINE
  8
_0-0_
  6
CONTINUOUS
 62
    7
 10
0.5803171995404738
 20
7.6026338925573214
 11
1.9044165111719025
 21
7.5496699200920574
  0
LINE
  8
_0-0_
  6
CONTINUOUS
 62
    7
 10
2.0103444561024304
 20
7.5496699200920574
 11
2.4075742495918604
 21
7.1259581403700025
  0
LINE
  8
_0-0_
  6
CONTINUOUS
 62
    7
 10
2.3281282908939716
 20
6.5698364294847948
 11
1.7720065800087639
 21
5.8548228012038237
  0
LINE
  8
_0-0_
  6
CONTINUOUS
 62
    7
 10
1.7720065800087639
 20
5.8548228012038237
 11
1.7190426075435141
 21
5.0868452004575886
  0
LINE
  8
_0-0_
  6
CONTINUOUS
 62
    7
 10
1.7720065800087639
 20
5.8548228012038237
 11
3.4138897264317478
 21
5.7224128700406709
  0
LINE
  8
_0-0_
  6
CONTINUOUS
 62
    7
 10
1.7190426075435141
 20
5.0868452004575886
 11
3.3079617815012341
 21
4.9809172555270749
  0
LINE
  8
_0-0_
  6
CONTINUOUS
 62
    7
 10
3.4138897264317478
 20
5.7224128700406709
 11
3.3874077401991229
 21
5.1662911591554774
  0
LINE
  8
_0-0_
  6
CONTINUOUS
 62
    7
 10
3.4138897264317478
 20
5.7224128700406709
 11
3.9435294510843306
 21
6.3844625258563923
  0
LINE
  8
_0-0_
  6
CONTINUOUS
 62
    7
 10
4.4202052032716352
 20
5.9342687599016983
 11
3.4668536988970118
 21
4.9279532830618109
  0
LINE
  8
_0-0_
  6
CONTINUOUS
 62
    7
 10
2.5135021945223741
 20
6.4374264983216563
 11
3.8376015061538027
 21
6.3844625258563923
  0
LINE
  8
_0-0_
  6
CONTINUOUS
 62
    7
 10
3.9435294510843306
 20
6.3844625258563923
 11
4.3407592445737606
 21
5.9607507461343374
  0
LINE
  8
_0-0_
  6
CONTINUOUS
 62
    7
 10
3.4933356851296224
 20
8.3706114933035423
 11
2.9372139742444148
 21
7.6555978650225711
  0
LINE
  8
_0-0_
  6
CONTINUOUS
 62
    7
 10
2.9372139742444148
 20
7.6555978650225711
 11
2.884250001779165
 21
6.887620264276336
  0
LINE
  8
_0-0_
  6
CONTINUOUS
 62
    7
 10
2.9372139742444148
 20
7.6555978650225711
 11
4.5790971206673987
 21
7.5231879338594183
  0
LINE
  8
_0-0_
  6
CONTINUOUS
 62
    7
 10
2.884250001779165
 20
6.887620264276336
 11
4.473169175736885
 21
6.7816923193458223
  0
LINE
  8
_0-0_
  6
CONTINUOUS
 62
    7
 10
4.5790971206673987
 20
7.5231879338594183
 11
4.5526151344347738
 21
6.9670662229742248
  0
LINE
  8
_0-0_
  6
CONTINUOUS
 62
    7
 10
4.5790971206673987
 20
7.5231879338594183
 11
5.1087368453199815
 21
8.1852375896751397
  0
LINE
  8
_0-0_
  6
CONTINUOUS
 62
    7
 10
5.5854125975072861
 20
7.7350438237204457
 11
4.6320610931326627
 21
6.7287283468805583
  0
LINE
  8
_0-0_
  6
CONTINUOUS
 62
    7
 10
3.678709588758025
 20
8.2382015621404037
 11
5.0028089003894536
 21
8.1852375896751397
  0
LINE
  8
_0-0_
  6
CONTINUOUS
 62
    7
 10
5.1087368453199815
 20
8.1852375896751397
 11
5.5059666388094115
 21
7.7615258099530848
  0
LINE
  8
_0-0_
  6
CONTINUOUS
 62
    7
 10
4.7379890380631764
 20
10.330278474518067
 11
4.1818673271779687
 21
9.6152648462370962
  0
LINE
  8
_0-0_
  6
CONTINUOUS
 62
    7
 10
4.1818673271779687
 20
9.6152648462370962
 11
4.128903354712719
 21
8.8472872454908611
  0
LINE
  8
_0-0_
  6
CONTINUOUS
 62
    7
 10
4.1818673271779687
 20
9.6152648462370962
 11
5.8237504736009527
 21
9.4828549150739434
  0
LINE
  8
_0-0_
  6
CONTINUOUS
 62
    7
 10
4.128903354712719
 20
8.8472872454908611
 11
5.7178225286704389
 21
8.7413593005603474
  0
LINE
  8
_0-0_
  6
CONTINUOUS
 62
    7
 10
5.8237504736009527
 20
9.4828549150739434
 11
5.7972684873683278
 21
8.9267332041887499
  0
LINE
  8
_0-0_
  6
CONTINUOUS
 62
    7
 10
5.8237504736009527
 20
9.4828549150739434
 11
6.3533901982535355
 21
10.144904570889665
  0
LINE
  8
_0-0_
  6
CONTINUOUS
 62
    7
 10
6.8300659504408401
 20
9.6947108049349708
 11
5.8767144460662166
 21
8.6883953280950834
  0
LINE
  8
_0-0_
  6
CONTINUOUS
 62
    7
 10
4.923362941691579
 20
10.197868543354929
 11
6.2474622533230075
 21
10.144904570889665
  0
LINE
  8
_0-0_
  6
CONTINUOUS
 62
    7
 10
6.3533901982535355
 20
10.144904570889665
 11
6.7506199917429655
 21
9.7211927911676099
  0
LINE
  8
_0-0_
  6
CONTINUOUS
 62
    7
 10
7.7569354685828387
 20
10.780472240472761
 11
7.200813757697631
 21
10.06545861219179
  0
LINE
  8
_0-0_
  6
CONTINUOUS
 62
    7
 10
7.200813757697631
 20
10.06545861219179
 11
7.1478497852323812
 21
9.2974810114455551
  0
LINE
  8
_0-0_
  6
CONTINUOUS
 62
    7
 10
7.200813757697631
 20
10.06545861219179
 11
8.8426969041206007
 21
9.9330486810286374
  0
LINE
  8
_0-0_
  6
CONTINUOUS
 62
    7
 10
7.1478497852323812
 20
9.2974810114455551
 11
8.7367689591901012
 21
9.1915530665150413
  0
LINE
  8
_0-0_
  6
CONTINUOUS
 62
    7
 10
8.8426969041206007
 20
9.9330486810286374
 11
8.8162149178879758
 21
9.3769269701434439
  0
LINE
  8
_0-0_
  6
CONTINUOUS
 62
    7
 10
8.8426969041206007
 20
9.9330486810286374
 11
9.3723366287732119
 21
10.595098336844359
  0
LINE
  8
_0-0_
  6
CONTINUOUS
 62
    7
 10
9.8490123809605166
 20
10.144904570889665
 11
8.8956608765858789
 21
9.1385890940497774
  0
LINE
  8
_0-0_
  6
CONTINUOUS
 62
    7
 10
7.9423093722112412
 20
10.648062309309623
 11
9.2664086838426556
 21
10.595098336844359
  0
LINE
  8
_0-0_
  6
CONTINUOUS
 62
    7
 10
9.3723366287732119
 20
10.595098336844359
 11
9.7695664222626419
 21
10.171386557122304
  0
LINE
  8
_0-0_
  6
CONTINUOUS
 62
    7
 10
6.5652460881145629
 20
9.1385890940497774
 11
6.0091243772293552
 21
8.4235754657688062
  0
LINE
  8
_0-0_
  6
CONTINUOUS
 62
    7
 10
6.0091243772293552
 20
8.4235754657688062
 11
5.9561604047641055
 21
7.6555978650225711
  0
LINE
  8
_0-0_
  6
CONTINUOUS
 62
    7
 10
6.0091243772293552
 20
8.4235754657688062
 11
7.6510075236523392
 21
8.2911655346056534
  0
LINE
  8
_0-0_
  6
CONTINUOUS
 62
    7
 10
5.9561604047641055
 20
7.6555978650225711
 11
7.5450795787218254
 21
7.5496699200920574
  0
LINE
  8
_0-0_
  6
CONTINUOUS
 62
    7
 10
7.6510075236523392
 20
8.2911655346056534
 11
7.6245255374197143
 21
7.73504382372046
  0
LINE
  8
_0-0_
  6
CONTINUOUS
 62
    7
 10
7.6510075236523392
 20
8.2911655346056534
 11
8.180647248304922
 21
8.9532151904213748
  0
LINE
  8
_0-0_
  6
CONTINUOUS
 62
    7
 10
8.6573230004922266
 20
8.5030214244666809
 11
7.7039714961176031
 21
7.4967059476267934
  0
LINE
  8
_0-0_
  6
CONTINUOUS
 62
    7
 10
6.7506199917429655
 20
9.0061791628866388
 11
8.074719303374394
 21
8.9532151904213748
  0
LINE
  8
_0-0_
  6
CONTINUOUS
 62
    7
 10
8.180647248304922
 20
8.9532151904213748
 11
8.577877041794352
 21
8.5295034106993199
  0
LINE
  8
_0-0_
  6
CONTINUOUS
 62
    7
 10
5.3470747214136338
 20
7.2583680715331411
 11
4.7909530105284261
 21
6.54335444325217
  0
LINE
  8
_0-0_
  6
CONTINUOUS
 62
    7
 10
4.7909530105284261
 20
6.54335444325217
 11
4.7379890380631764
 21
5.7753768425059349
  0
LINE
  8
_0-0_
  6
CONTINUOUS
 62
    7
 10
4.7909530105284261
 20
6.54335444325217
 11
6.4328361569514101
 21
6.4109445120890172
  0
LINE
  8
_0-0_
  6
CONTINUOUS
 62
    7
 10
4.7379890380631764
 20
5.7753768425059349
 11
6.3269082120208964
 21
5.6694488975754211
  0
LINE
  8
_0-0_
  6
CONTINUOUS
 62
    7
 10
6.4328361569514101
 20
6.4109445120890172
 11
6.4063541707187852
 21
5.8548228012038237
  0
LINE
  8
_0-0_
  6
CONTINUOUS
 62
    7
 10
6.4328361569514101
 20
6.4109445120890172
 11
6.9624758816039929
 21
7.0729941679047386
  0
LINE
  8
_0-0_
  6
CONTINUOUS
 62
    7
 10
7.4391516337912975
 20
6.6228004019500446
 11
6.4858001294166741
 21
5.6164849251101572
  0
LINE
  8
_0-0_
  6
CONTINUOUS
 62
    7
 10
5.5324486250420364
 20
7.1259581403700025
 11
6.856547936673465
 21
7.0729941679047386
  0
LINE
  8
_0-0_
  6
CONTINUOUS
 62
    7
 10
6.9624758816039929
 20
7.0729941679047386
 11
7.3597056750934229
 21
6.6492823881826837
  0
LINE
  8
_0-0_
  6
CONTINUOUS
 62
    7
 10
4.1818673271779687
 20
5.3516650627838658
 11
3.625745616292761
 21
4.6366514345028946
  0
LINE
  8
_0-0_
  6
CONTINUOUS
 62
    7
 10
3.625745616292761
 20
4.6366514345028946
 11
3.5727816438275113
 21
3.8686738337566595
  0
LINE
  8
_0-0_
  6
CONTINUOUS
 62
    7
 10
3.625745616292761
 20
4.6366514345028946
 11
5.267628762715745
 21
4.5042415033397418
  0
LINE
  8
_0-0_
  6
CONTINUOUS
 62
    7
 10
3.5727816438275113
 20
3.8686738337566595
 11
5.1617008177852313
 21
3.7627458888261458
  0
LINE
  8
_0-0_
  6
CONTINUOUS
 62
    7
 10
5.267628762715745
 20
4.5042415033397418
 11
5.2411467764831201
 21
3.9481197924545484
  0
LINE
  8
_0-0_
  6
CONTINUOUS
 62
    7
 10
5.267628762715745
 20
4.5042415033397418
 11
5.7972684873683278
 21
5.1662911591554632
  0
LINE
  8
_0-0_
  6
CONTINUOUS
 62
    7
 10
6.2739442395556324
 20
4.7160973932007693
 11
5.3205927351810089
 21
3.7097819163608818
  0
LINE
  8
_0-0_
  6
CONTINUOUS
 62
    7
 10
4.3672412308063713
 20
5.2192551316207272
 11
5.6913405424377999
 21
5.1662911591554632
  0
LINE
  8
_0-0_
  6
CONTINUOUS
 62
    7
 10
5.7972684873683278
 20
5.1662911591554632
 11
6.1944982808577578
 21
4.7425793794334083
  0
ENDBLK
  0
ENDSEC
  0
SECTION
  2
ENTITIES
  0
LINE
  8
_0-0_
  6
CONTINUOUS
 62
    7
 10
-1244.420826261083
 20
-1127.4836411798831
 11
1755.579173738917
 21
-1127.4836411798831
  0
LINE
  8
_0-0_
  6
CONTINUOUS
 62
    7
 10
1755.579173738917
 20
-1127.4836411798831
 11
1755.579173738917
 21
1392.5163588201169
  0
LINE
  8
_0-0_
  6
CONTINUOUS
 62
    7
 10
1755.579173738917
 20
1392.5163588201169
 11
-1244.420826261083
 21
1392.5163588201169
  0
LINE
  8
_0-0_
  6
CONTINUOUS
 62
    7
 10
-1244.420826261083
 20
1392.5163588201169
 11
-1244.420826261083
 21
-1127.4836411798831
  0
INSERT
  2
-002-5
  8
_0-0_
 10
146.4795918367347
 20
114.76530612244898
 41
1
 42
1
 50
0
  0
ENDSEC
  0
EOF
