  0
SECTION
  2
HEADER
  9
$ACADVER
  1
AC1009
  9
$INSBASE
 10
0
 20
0
 30
0
  9
$EXTMIN
 10
0
 20
0
  9
$EXTMAX
 10
297
 20
210
  9
$LIMMIN
 10
0
 20
0
  9
$LIMMAX
 10
297
 20
210
  9
$LTSCALE
 40
1
  0
ENDSEC
  0
SECTION
  2
TABLES
  0
TABLE
  2
LTYPE
 70
     9
  0
LTYPE
  2
CONTINUOUS
 70
    64
  3
実線
 72
    65
 73
     0
 40
0.0
  0
LTYPE
  2
DASHED1
 70
    64
  3
--  --  --  --  --  --  --  --  
 72
    65
 73
     2
 40
2.5
 49
1.25
 49
-1.25
  0
LTYPE
  2
DASHED2
 70
    64
  3
----    ----    ----    ----    
 72
    65
 73
     2
 40
5.0
 49
2.5
 49
-2.5
  0
LTYPE
  2
DASHED3
 70
    64
  3
------  ------  ------  ------  
 72
    65
 73
     2
 40
5.0
 49
3.75
 49
-1.25
  0
LTYPE
  2
CENTER1
 70
    64
  3
----- - ----- - ----- - ----- - 
 72
    65
 73
     4
 40
10.0
 49
6.25
 49
-1.25
 49
1.25
 49
-1.25
  0
LTYPE
  2
CENTER2
 70
    64
  3
----------  --  ----------  --  
 72
    65
 73
     4
 40
20.0
 49
12.5
 49
-2.5
 49
2.5
 49
-2.5
  0
LTYPE
  2
PHANTOM1
 70
    64
  3
--- - - --- - - --- - - --- - - 
 72
    65
 73
     6
 40
10.0
 49
3.25
 49
-1.25
 49
1.25
 49
-1.25
 49
1.25
 49
-1.25
  0
LTYPE
  2
PHANTOM2
 70
    64
  3
--------  -  -  --------  -  -  
 72
    65
 73
     6
 40
20.0
 49
10.0
 49
-2.5
 49
1.25
 49
-2.5
 49
1.25
 49
-2.5
  0
LTYPE
  2
DOT
 70
    64
  3
-   -   -   -   -   -   -   -   
 72
    65
 73
     2
 40
2.5
 49
0.625
 49
-1.875
  0
LTYPE
  2
DUMMY
 70
    64
  3
ダミー
 72
    65
 73
     0
 40
0.0
  0
LTYPE
  2
RAND1
 70
    64
  3
ランダム線1
 72
    65
 73
     4
 40
10.0
 49
1.0
 49
-2.0
 49
3.0
 49
-4.0
  0
LTYPE
  2
RAND2
 70
    64
  3
ランダム線2
 72
    65
 73
     4
 40
14.0
 49
2.0
 49
-3.0
 49
4.0
 49
-5.0
  0
LTYPE
  2
RAND3
 70
    64
  3
ランダム線3
 72
    65
 73
     4
 40
18.0
 49
3.0
 49
-4.0
 49
5.0
 49
-6.0
  0
LTYPE
  2
RAND4
 70
    64
  3
ランダム線4
 72
    65
 73
     4
 40
22.0
 49
4.0
 49
-5.0
 49
6.0
 49
-7.0
  0
LTYPE
  2
RAND5
 70
    64
  3
ランダム線5
 72
    65
 73
     4
 40
26.0
 49
5.0
 49
-6.0
 49
7.0
 49
-8.0
  0
LTYPE
  2
LONG1
 70
    64
  3
----------  --  ----------  --  
 72
    65
 73
     4
 40
40.0
 49
32.5
 49
-2.5
 49
2.5
 49
-2.5
  0
LTYPE
  2
LONG2
 70
    64
  3
--------  -  -  --------  -  -  
 72
    65
 73
     6
 40
40.0
 49
30.0
 49
-2.5
 49
1.25
 49
-2.5
 49
1.25
 49
-2.5
  0
LTYPE
  2
LONG3
 70
    64
  3
+++++++++++++++..+++++++++++++++
 72
    65
 73
     2
 40
40.0
 49
37.5
 49
-2.5
  0
LTYPE
  2
LONG4
 70
    64
  3
+++++++++++++++..+++++++++++++++
 72
    65
 73
     2
 40
80.0
 49
75.0
 49
-5.0
  0
LTYPE
  2
LONG5
 70
    64
  3
----------  --  ----------  --  
 72
    65
 73
     4
 40
60.0
 49
37.5
 49
-7.5
 49
7.5
 49
-7.5
  0
LTYPE
  2
dashed
 70
   64
  3
-------   -------------   ------
 72
   65
 73
    2
 40
7.5
 49
6
 49
-1.5
  0
LTYPE
  2
dashed_spaced
 70
   64
  3
----        --------        ----
 72
   65
 73
    2
 40
12
 49
6
 49
-6
  0
LTYPE
  2
long_dashed_dotted
 70
   64
  3
------------- --- --------------
 72
   65
 73
    4
 40
15.25
 49
12
 49
-1.5
 49
0.25
 49
-1.5
  0
LTYPE
  2
long_dashed_double-dotted
 70
   64
  3
----------- --- --- ------------
 72
   65
 73
    6
 40
17
 49
12
 49
-1.5
 49
0.25
 49
-1.5
 49
0.25
 49
-1.5
  0
LTYPE
  2
long_dashed_triplicate-dotted
 70
   64
  3
--------- --- --- --- ----------
 72
   65
 73
    8
 40
18.75
 49
12
 49
-1.5
 49
0.25
 49
-1.5
 49
0.25
 49
-1.5
 49
0.25
 49
-1.5
  0
LTYPE
  2
dotted
 70
   64
  3
   -       -       -       -    
 72
   65
 73
    2
 40
1.75
 49
0.25
 49
-1.5
  0
LTYPE
  2
chain
 70
   64
  3
-------------- -- --------------
 72
   65
 73
    4
 40
18.5
 49
12
 49
-1.5
 49
3.5
 49
-1.5
  0
LTYPE
  2
chain_double_dash
 70
   64
  3
------------ -- -- -------------
 72
   65
 73
    6
 40
23.5
 49
12
 49
-1.5
 49
3.5
 49
-1.5
 49
3.5
 49
-1.5
  0
LTYPE
  2
dashed_dotted
 70
   64
  3
-----------     -     ----------
 72
   65
 73
    4
 40
9.25
 49
6
 49
-1.5
 49
0.25
 49
-1.5
  0
LTYPE
  2
double-dashed_dotted
 70
   64
  3
------   -----------   -   -----
 72
   65
 73
    6
 40
16.75
 49
6
 49
-1.5
 49
6
 49
-1.5
 49
0.25
 49
-1.5
  0
LTYPE
  2
dashed_double-dotted
 70
   64
  3
---------    -    -    ---------
 72
   65
 73
    6
 40
11
 49
6
 49
-1.5
 49
0.25
 49
-1.5
 49
0.25
 49
-1.5
  0
LTYPE
  2
double-dashed_double-dotted
 70
   64
  3
-----   ---------   -   -   ----
 72
   65
 73
    8
 40
18.5
 49
6
 49
-1.5
 49
6
 49
-1.5
 49
0.25
 49
-1.5
 49
0.25
 49
-1.5
  0
LTYPE
  2
dashed_triplicate-dotted
 70
   64
  3
-------    -    -    -    ------
 72
   65
 73
    8
 40
12.75
 49
6
 49
-1.5
 49
0.25
 49
-1.5
 49
0.25
 49
-1.5
 49
0.25
 49
-1.5
  0
LTYPE
  2
double-dashed_triplicate-dotted
 70
   64
  3
-----  ---------  -  -  -  -----
 72
   65
 73
   10
 40
20.25
 49
6
 49
-1.5
 49
6
 49
-1.5
 49
0.25
 49
-1.5
 49
0.25
 49
-1.5
 49
0.25
 49
-1.5
  0
LTYPE
  2
undefined
 70
   64
  3
--------------------------------
 72
   65
 73
    0
 40
0
  0
LTYPE
  2
_
 70
   64
  3
                                
 72
   65
 73
    0
 40
0
  0
LTYPE
  2
__18
 70
   64
  3
                                
 72
   65
 73
    0
 40
0
  0
LTYPE
  2
__19
 70
   64
  3
                                
 72
   65
 73
    0
 40
0
  0
LTYPE
  2
__20
 70
   64
  3
                                
 72
   65
 73
    0
 40
0
  0
LTYPE
  2
__21
 70
   64
  3
                                
 72
   65
 73
    0
 40
0
  0
LTYPE
  2
__22
 70
   64
  3
                                
 72
   65
 73
    0
 40
0
  0
LTYPE
  2
__23
 70
   64
  3
                                
 72
   65
 73
    0
 40
0
  0
LTYPE
  2
__24
 70
   64
  3
                                
 72
   65
 73
    0
 40
0
  0
LTYPE
  2
__25
 70
   64
  3
                                
 72
   65
 73
    0
 40
0
  0
LTYPE
  2
__26
 70
   64
  3
                                
 72
   65
 73
    0
 40
0
  0
LTYPE
  2
__27
 70
   64
  3
                                
 72
   65
 73
    0
 40
0
  0
LTYPE
  2
__28
 70
   64
  3
                                
 72
   65
 73
    0
 40
0
  0
LTYPE
  2
__29
 70
   64
  3
                                
 72
   65
 73
    0
 40
0
  0
LTYPE
  2
__30
 70
   64
  3
                                
 72
   65
 73
    0
 40
0
  0
LTYPE
  2
__31
 70
   64
  3
                                
 72
   65
 73
    0
 40
0
  0
LTYPE
  2
__32
 70
   64
  3
                                
 72
   65
 73
    0
 40
0
  0
ENDTAB
  0
TABLE
  2
STYLE
  5
3
100
AcDbSymbolTable
 70
     1
  0
STYLE
  5
10
100
AcDbSymbolTableRecord
100
AcDbTextStyleTableRecord
  2
STANDARD
 70
     0
 40
0.0
 41
1.0
 50
0.0
 71
     0
 42
0.2
  3
txt
  4
bigfont.shx
  0
STYLE
  5
26
100
AcDbSymbolTableRecord
100
AcDbTextStyleTableRecord
  2
TATEGAKI
 70
    68
 40
0.0
 41
1.0
 50
0.0
 71
     0
 42
1.0
  3
txt
  4
bigfont.shx
  0
ENDTAB
  0
TABLE
  2
LAYER
 70
    2
  0
LAYER
  2
_0-0_
 70
   64
 62
    7
  6
CONTINUOUS
  0
LAYER
  2
ADD_LINE
 70
   64
 62
    7
  6
CONTINUOUS
  0
ENDTAB
  0
ENDSEC
  0
SECTION
  2
BLOCKS
  0
BLOCK
  2
-000-1
 70
   64
 10
0
 20
0
 30
0
  0
LINE
  8
_0-0_
  6
CONTINUOUS
 62
    7
 10
-21.814354203215778
 20
22.487702505554473
 11
-20.340673729362869
 21
24.382434543365356
  0
LINE
  8
_0-0_
  6
CONTINUOUS
 62
    7
 10
-20.340673729362869
 20
24.382434543365356
 11
-18.095065388253694
 21
24.382434543365356
  0
LINE
  8
_0-0_
  6
CONTINUOUS
 62
    7
 10
-18.095065388253694
 20
24.382434543365356
 11
14.255729775850304
 21
25.014011889302289
  0
LINE
  8
_0-0_
  6
CONTINUOUS
 62
    7
 10
14.255729775850304
 20
25.014011889302289
 11
15.518884467724225
 21
24.031558240067035
  0
LINE
  8
_0-0_
  6
CONTINUOUS
 62
    7
 10
15.518884467724225
 20
24.031558240067035
 11
14.045203993871345
 21
-29.863041946553118
  0
LINE
  8
_0-0_
  6
CONTINUOUS
 62
    7
 10
14.045203993871345
 20
-29.863041946553118
 11
19.518874325324951
 21
-29.02093881863717
  0
LINE
  8
_0-0_
  6
CONTINUOUS
 62
    7
 10
14.045203993871345
 20
-29.863041946553118
 11
12.99257508397641
 21
-31.056021377767358
  0
LINE
  8
_0-0_
  6
CONTINUOUS
 62
    7
 10
12.99257508397641
 20
-31.056021377767358
 11
-20.902075814640177
 21
-26.003402610271728
  0
LINE
  8
_0-0_
  6
CONTINUOUS
 62
    7
 10
-20.902075814640177
 20
-26.003402610271728
 11
-22.305581027833405
 21
-24.670072657738153
  0
LINE
  8
_0-0_
  6
CONTINUOUS
 62
    7
 10
-22.305581027833405
 20
-24.670072657738153
 11
11.097843046165556
 21
-29.582340903914464
  0
LINE
  8
_0-0_
  6
CONTINUOUS
 62
    7
 10
11.097843046165556
 20
-29.582340903914464
 11
12.99257508397641
 21
-31.056021377767358
  0
LINE
  8
_0-0_
  6
CONTINUOUS
 62
    7
 10
11.097843046165556
 20
-29.582340903914464
 11
12.571523520018436
 21
23.049104590831782
  0
LINE
  8
_0-0_
  6
CONTINUOUS
 62
    7
 10
12.571523520018436
 20
23.049104590831782
 11
15.518884467724225
 21
24.031558240067035
  0
LINE
  8
_0-0_
  6
CONTINUOUS
 62
    7
 10
12.571523520018436
 20
23.049104590831782
 11
14.255729775850304
 21
25.014011889302289
  0
LINE
  8
_0-0_
  6
CONTINUOUS
 62
    7
 10
14.255729775850304
 20
25.014011889302289
 11
21.132905320497166
 21
24.80348610732333
  0
LINE
  8
_0-0_
  6
CONTINUOUS
 62
    7
 10
21.132905320497166
 20
24.80348610732333
 11
22.396060012371059
 21
23.329805633470421
  0
LINE
  8
_0-0_
  6
CONTINUOUS
 62
    7
 10
22.396060012371059
 20
23.329805633470421
 11
21.343431102476153
 21
-14.635010383406533
  0
LINE
  8
_0-0_
  6
CONTINUOUS
 62
    7
 10
-21.814354203215778
 20
22.487702505554473
 11
-22.305581027833405
 21
-24.670072657738153
  0
LINE
  8
_0-0_
  6
CONTINUOUS
 62
    7
 10
12.571523520018436
 20
23.049104590831782
 11
-21.814354203215778
 21
22.487702505554473
  0
LINE
  8
_0-0_
  6
CONTINUOUS
 62
    7
 10
-21.744178942556097
 20
21.154372553020899
 11
12.220647216720115
 21
21.50524885631922
  0
LINE
  8
_0-0_
  6
CONTINUOUS
 62
    7
 10
12.220647216720115
 20
21.50524885631922
 11
22.255709491051753
 21
20.943846771041912
  0
LINE
  8
_0-0_
  6
CONTINUOUS
 62
    7
 10
11.308368828144514
 20
21.435073595659539
 11
10.536440960888248
 21
-14.494659862087213
  0
LINE
  8
_0-0_
  6
CONTINUOUS
 62
    7
 10
10.536440960888248
 20
-14.494659862087213
 11
11.518894610123501
 21
-14.635010383406533
  0
LINE
  8
_0-0_
  6
CONTINUOUS
 62
    7
 10
11.518894610123501
 20
-14.635010383406533
 11
14.396080297169638
 21
-14.564835122746866
  0
LINE
  8
_0-0_
  6
CONTINUOUS
 62
    7
 10
14.396080297169638
 20
-14.564835122746866
 11
16.641688638278815
 21
-14.564835122746866
  0
LINE
  8
_0-0_
  6
CONTINUOUS
 62
    7
 10
-22.024879985194765
 20
-11.827999957020063
 11
-20.691550032661191
 21
-11.89817521767973
  0
LINE
  8
_0-0_
  6
CONTINUOUS
 62
    7
 10
-22.095055245854418
 20
-14.564835122746866
 11
-20.691550032661191
 21
-11.89817521767973
  0
LINE
  8
_0-0_
  6
CONTINUOUS
 62
    7
 10
-20.691550032661191
 20
-11.89817521767973
 11
-20.551199511341856
 21
21.154372553020899
  0
LINE
  8
_0-0_
  6
CONTINUOUS
 62
    7
 10
-20.691550032661191
 20
-11.89817521767973
 11
-17.603838563636067
 21
-11.75782469636041
  0
LINE
  8
_0-0_
  6
CONTINUOUS
 62
    7
 10
-20.691550032661191
 20
-11.89817521767973
 11
10.536440960888248
 21
-14.494659862087213
  0
ARC
  8
_0-0_
  6
CONTINUOUS
 62
    7
 10
20.048014595913052
 20
-17.5093798744197
 40
4.2172455337890247
 50
114.91891738011847
 51
189.87312275864343
  0
ARC
  8
_0-0_
  6
CONTINUOUS
 62
    7
 10
19.100932970637182
 20
-15.823209652668476
 40
2.2938205044122602
 50
47.552898147170872
 51
111.20779130051923
  0
ARC
  8
_0-0_
  6
CONTINUOUS
 62
    7
 10
18.720910095435094
 20
-15.598802777020646
 40
2.4235022907413839
 50
7.3245724825189189
 51
37.287837627297236
  0
LINE
  8
_0-0_
  6
CONTINUOUS
 62
    7
 10
21.124636261120052
 20
-15.289830490835863
 11
27.663897811762403
 21
-32.410806187063123
  0
LINE
  8
_0-0_
  6
CONTINUOUS
 62
    7
 10
27.396382566508855
 20
-33.421419335798753
 11
22.373040738969955
 21
-34.758995562066524
  0
LINE
  8
_0-0_
  6
CONTINUOUS
 62
    7
 10
22.373040738969955
 20
-34.758995562066524
 11
15.893227020606153
 21
-18.232498188624923
  0
LINE
  8
_0-0_
  6
CONTINUOUS
 62
    7
 10
22.373040738969955
 20
-34.758995562066524
 11
-13.979308699373698
 21
-28.992555831045529
  0
LINE
  8
_0-0_
  6
CONTINUOUS
 62
    7
 10
-13.979308699373698
 20
-28.992555831045529
 11
-15.495228422477149
 21
-26.733538204459983
  0
LINE
  8
_0-0_
  6
CONTINUOUS
 62
    7
 10
-13.979308699373698
 20
-28.992555831045529
 11
-8.5695559620241202
 21
-28.071114430727739
  0
LINE
  8
_0-0_
  6
CONTINUOUS
 62
    7
 10
-8.5695559620241202
 20
-28.071114430727739
 11
-8.6290037943026707
 21
-27.833323101613466
  0
LINE
  8
_0-0_
  6
CONTINUOUS
 62
    7
 10
-8.5695559620241202
 20
-28.071114430727739
 11
-2.1789139920781593
 21
-28.75476450193127
  0
ARC
  8
_0-0_
  6
CONTINUOUS
 62
    7
 10
26.813429843858863
 20
-32.726395317092972
 40
0.9071340934079087
 50
309.98830670169519
 51
20.358733357593373
  0
LINE
  8
_0-0_
  6
CONTINUOUS
 62
    7
 10
12.99257508397641
 20
-31.056021377767358
 11
19.578992621877312
 21
-30.062616812059723
  0
LINE
  8
_0-0_
  6
CONTINUOUS
 62
    7
 10
19.578992621877312
 20
-30.062616812059723
 11
20.232918776941538
 21
-29.408690656995496
  0
ARC
  8
_0-0_
  6
CONTINUOUS
 62
    7
 10
17.608573483388334
 20
-31.178646175010236
 40
0.962572556494741
 50
339.28744221874103
 51
61.824648220423548
  0
ARC
  8
_0-0_
  6
CONTINUOUS
 62
    7
 10
19.905955699409411
 20
-30.285546183104366
 40
1.8636800605959776
 50
221.44381890574445
 51
274.57392125990094
  0
ARC
  8
_0-0_
  6
CONTINUOUS
 62
    7
 10
21.065188428841473
 20
-28.279181843702652
 40
3.9940803770667936
 50
255.34324888423976
 51
274.26789330029078
  0
ARC
  8
_0-0_
  6
CONTINUOUS
 62
    7
 10
14.903563860956629
 20
-31.041715447298309
 40
0.6336090169976865
 50
278.89265753358757
 51
30.877672694123394
  0
ARC
  8
_0-0_
  6
CONTINUOUS
 62
    7
 10
13.441003939115282
 20
-29.179816502723106
 40
2.9367981259364155
 50
267.38953820020936
 51
302.09758747273264
  0
ARC
  8
_0-0_
  6
CONTINUOUS
 62
    7
 10
12.98028323895638
 20
-31.043506044656077
 40
1.1188991720250667
 50
230.38931175997357
 51
286.99082329198649
  0
ARC
  8
_0-0_
  6
CONTINUOUS
 62
    7
 10
12.415528832309993
 20
-31.878748088169964
 40
0.1510080257165483
 50
53.806792694440396
 51
190.20397372172908
  0
ARC
  8
_0-0_
  6
CONTINUOUS
 62
    7
 10
12.361034986054667
 20
-30.285546183104394
 40
1.4783311868439719
 50
275.57685864992249
 51
314.45692830627621
  0
ARC
  8
_0-0_
  6
CONTINUOUS
 62
    7
 10
13.367173566769329
 20
-31.157128111188506
 40
0.1859313803430252
 50
279.04943056287334
 51
50.440332031014208
  0
ARC
  8
_0-0_
  6
CONTINUOUS
 62
    7
 10
16.235486852470892
 20
-32.532268866483541
 40
0.1033625448469061
 50
116.07385628315036
 51
299.44322491896747
  0
ARC
  8
_0-0_
  6
CONTINUOUS
 62
    7
 10
16.43565509202903
 20
-32.944372487640599
 40
0.5615070533645283
 50
56.171981425554861
 51
115.93764611636657
  0
ARC
  8
_0-0_
  6
CONTINUOUS
 62
    7
 10
21.148012553979065
 20
-33.320020392578321
 40
0.240973615124619
 50
41.221802292828997
 51
101.90830006132478
  0
ARC
  8
_0-0_
  6
CONTINUOUS
 62
    7
 10
21.199340477107022
 20
-33.168098905820095
 40
0.130105537456174
 50
259.34315175308245
 51
3.0286985783366633
  0
ARC
  8
_0-0_
  6
CONTINUOUS
 62
    7
 10
20.953928844651323
 20
-32.872505062806248
 40
0.4778190117323366
 50
260.72739822280005
 51
297.59729586864557
  0
ARC
  8
_0-0_
  6
CONTINUOUS
 62
    7
 10
66.095815581227484
 20
305.6632332492855
 40
341.72302110027073
 50
261.69699555720143
 51
262.43341091117338
  0
ARC
  8
_0-0_
  6
CONTINUOUS
 62
    7
 10
30.186218217778666
 20
40.822086679414845
 40
74.748130748153358
 50
259.28307961043777
 51
262.8456927043984
  0
ARC
  8
_0-0_
  6
CONTINUOUS
 62
    7
 10
19.412230519002684
 20
-16.436905819037399
 40
0.6972957450336481
 50
20.551086656831604
 51
103.09173312325002
  0
ARC
  8
_0-0_
  6
CONTINUOUS
 62
    7
 10
19.757424664040563
 20
-17.446834781051898
 40
1.7624447157566121
 50
106.58742144676697
 51
161.98025866229048
  0
ARC
  8
_0-0_
  6
CONTINUOUS
 62
    7
 10
19.91294458722674
 20
-17.300834533351697
 40
1.8745175828794887
 50
167.70395999878698
 51
216.18439437810582
  0
ARC
  8
_0-0_
  6
CONTINUOUS
 62
    7
 10
19.143824165295818
 20
-17.800611986029828
 40
0.9600222237640557
 50
219.21147877533886
 51
302.50524077761219
  0
ARC
  8
_0-0_
  6
CONTINUOUS
 62
    7
 10
19.277321443269066
 20
-16.733140580351225
 40
0.6659856733708321
 50
50.252427905526389
 51
157.82005903032729
  0
ARC
  8
_0-0_
  6
CONTINUOUS
 62
    7
 10
19.923137380344336
 20
-17.314304043951601
 40
1.512334103390885
 50
146.59667231241258
 51
213.40332768758742
  0
ARC
  8
_0-0_
  6
CONTINUOUS
 62
    7
 10
19.277335397387809
 20
-17.509857064186058
 40
0.8866512319535107
 50
225.92819272649265
 51
285.5427826773489
  0
ARC
  8
_0-0_
  6
CONTINUOUS
 62
    7
 10
19.824233350087688
 20
-17.057436096482455
 40
0.8450697208523383
 50
98.237334282809869
 51
180.23545531530809
  0
ARC
  8
_0-0_
  6
CONTINUOUS
 62
    7
 10
21.949741813172032
 20
-17.348832616316606
 40
2.9844919891440638
 50
174.46387775386731
 51
196.95730852113363
  0
ARC
  8
_0-0_
  6
CONTINUOUS
 62
    7
 10
19.460514061691093
 20
-17.84059183027076
 40
0.5263118326610839
 50
226.01534577463116
 51
275.93344215023114
  0
ARC
  8
_0-0_
  6
CONTINUOUS
 62
    7
 10
21.126593341014136
 20
-17.342070654074995
 40
1.0561175683964039
 50
83.153799810570192
 51
187.5492070691767
  0
ARC
  8
_0-0_
  6
CONTINUOUS
 62
    7
 10
20.990404413890893
 20
-17.595210687512925
 40
0.9179299879273589
 50
172.8413527924013
 51
275.52173628422082
  0
ARC
  8
_0-0_
  6
CONTINUOUS
 62
    7
 10
20.87025329652905
 20
-17.653379409314688
 40
0.8805374868136238
 50
283.69548375988086
 51
353.31157952968891
  0
ARC
  8
_0-0_
  6
CONTINUOUS
 62
    7
 10
21.243388670968322
 20
-16.652932871454233
 40
0.3595645019715025
 50
352.65260830316754
 51
88.549980986838605
  0
ARC
  8
_0-0_
  6
CONTINUOUS
 62
    7
 10
20.693247798058557
 20
-17.361556058292088
 40
1.1230730736087327
 50
339.441650996671
 51
36.158724771693237
  0
LINE
  8
_0-0_
  6
CONTINUOUS
 62
    7
 10
19.703156959633098
 20
-16.221084889885653
 11
21.281446864178626
 21
-16.279003785465314
  0
LINE
  8
_0-0_
  6
CONTINUOUS
 62
    7
 10
19.514920548999235
 20
-18.364084026332797
 11
19.732116407422915
 21
-18.479921817492105
  0
LINE
  8
_0-0_
  6
CONTINUOUS
 62
    7
 10
19.732116407422915
 20
-18.479921817492105
 11
19.978271713636438
 21
-18.552320436966674
  0
LINE
  8
_0-0_
  6
CONTINUOUS
 62
    7
 10
19.978271713636438
 20
-18.552320436966674
 11
21.049771281860011
 21
-18.523360989176844
  0
LINE
  8
_0-0_
  6
CONTINUOUS
 62
    7
 10
19.659717787948345
 20
-18.610239332546321
 11
19.761075855212759
 21
-18.523360989176844
  0
ARC
  8
_0-0_
  6
CONTINUOUS
 62
    7
 10
-17.292470470358502
 20
18.538739988193988
 40
1.8976207287097988
 50
93.864818343230908
 51
176.13518165676899
  0
ARC
  8
_0-0_
  6
CONTINUOUS
 62
    7
 10
-18.01568465763615
 20
11.986578447500397
 40
1.170450945304697
 50
178.57916188515171
 51
277.0519514832709
  0
ARC
  8
_0-0_
  6
CONTINUOUS
 62
    7
 10
9.600073106759103
 20
18.681670266956253
 40
1.8433213347355604
 50
34.815802322263998
 51
83.784752576107607
  0
ARC
  8
_0-0_
  6
CONTINUOUS
 62
    7
 10
10.302687496418647
 20
10.607939358079468
 40
0.6471772174596854
 50
265.44154846177662
 51
357.40578278822846
  0
ARC
  8
_0-0_
  6
CONTINUOUS
 62
    7
 10
-17.767610040587932
 20
7.7986801111140718
 40
1.3855162976635438
 50
92.619548795395119
 51
173.68523067261629
  0
ARC
  8
_0-0_
  6
CONTINUOUS
 62
    7
 10
-17.622721739907611
 20
1.3850739779115226
 40
1.686795139306049
 50
192.75569910653795
 51
268.50566640873365
  0
ARC
  8
_0-0_
  6
CONTINUOUS
 62
    7
 10
9.6422576165199327
 20
6.6441299415419106
 40
1.7152242593857403
 50
38.195740437391855
 51
77.793493146442032
  0
ARC
  8
_0-0_
  6
CONTINUOUS
 62
    7
 10
9.6873385248458614
 20
-4.0674158831784215
 40
1.1590283756877426
 50
36.356529738178743
 51
100.74799760761161
  0
ARC
  8
_0-0_
  6
CONTINUOUS
 62
    7
 10
-17.637638803474182
 20
-3.4644633875926818
 40
1.5625338286914003
 50
103.22681726136405
 51
164.68992938661543
  0
ARC
  8
_0-0_
  6
CONTINUOUS
 62
    7
 10
-18.056740484861486
 20
-10.010850636215588
 40
1.1788814582398726
 50
187.00126755749477
 51
277.00126755749477
  0
ARC
  8
_0-0_
  6
CONTINUOUS
 62
    7
 10
9.892403669319199
 20
-12.717936763012284
 40
0.6624626067744138
 50
254.69363284950697
 51
335.99871903438668
  0
LINE
  8
_0-0_
  6
CONTINUOUS
 62
    7
 10
-19.144719906333741
 20
7.9510737748827918
 11
-19.267887388009861
 21
1.0126389737956512
  0
LINE
  8
_0-0_
  6
CONTINUOUS
 62
    7
 10
-17.666710126220501
 20
-0.3011474974161192
 11
10.702866486508603
 21
-1.1222640419234668
  0
LINE
  8
_0-0_
  6
CONTINUOUS
 62
    7
 10
-17.830933435121985
 20
9.1827485916438203
 11
10.004917423677332
 21
8.3205762199111089
  0
LINE
  8
_0-0_
  6
CONTINUOUS
 62
    7
 10
-17.99515674402344
 20
-1.9433805864308287
 11
9.4711916697475456
 21
-2.9287204398396458
  0
LINE
  8
_0-0_
  6
CONTINUOUS
 62
    7
 10
10.620754832057846
 20
-3.3803345393186905
 11
10.497587350381755
 21
-12.987398110054736
  0
LINE
  8
_0-0_
  6
CONTINUOUS
 62
    7
 10
9.7175266330997569
 20
-13.356900555083053
 11
-17.913045089572712
 21
-11.180941712138557
  0
LINE
  8
_0-0_
  6
CONTINUOUS
 62
    7
 10
-19.226831560784468
 20
-10.154546031504362
 11
-19.144719906333741
 21
-3.0518879215157515
  0
LINE
  8
_0-0_
  6
CONTINUOUS
 62
    7
 10
-19.185775733559105
 20
18.666644680703776
 11
-19.185775733559105
 21
12.015600670194209
  0
LINE
  8
_0-0_
  6
CONTINUOUS
 62
    7
 10
-17.871989262347348
 20
10.824981680658544
 11
10.251252387029544
 21
9.9628093089258183
  0
LINE
  8
_0-0_
  6
CONTINUOUS
 62
    7
 10
9.799638287550513
 20
20.514156905845319
 11
-17.420375162868289
 21
20.432045251394591
  0
LINE
  8
_0-0_
  6
CONTINUOUS
 62
    7
 10
11.113424758762269
 20
19.734096188563349
 11
10.949201449860785
 21
10.578646717306333
  0
LINE
  8
_0-0_
  6
CONTINUOUS
 62
    7
 10
-17.830933435121956
 20
19.241426261858926
 11
10.579699004832483
 21
19.487761225211138
  0
LINE
  8
_0-0_
  6
CONTINUOUS
 62
    7
 10
10.579699004832483
 20
19.487761225211138
 11
10.538643177607119
 21
10.824981680658544
  0
LINE
  8
_0-0_
  6
CONTINUOUS
 62
    7
 10
10.538643177607119
 20
10.824981680658544
 11
-17.789877607896592
 21
11.728209879616633
  0
LINE
  8
_0-0_
  6
CONTINUOUS
 62
    7
 10
-17.789877607896592
 20
11.728209879616633
 11
-17.830933435121956
 21
19.241426261858926
  0
LINE
  8
_0-0_
  6
CONTINUOUS
 62
    7
 10
-17.707765953445865
 20
8.1563529110096393
 11
-17.830933435121956
 21
0.9305273193449235
  0
LINE
  8
_0-0_
  6
CONTINUOUS
 62
    7
 10
-17.830933435121956
 20
0.9305273193449235
 11
10.620754832057875
 21
-0.4243149790922107
  0
LINE
  8
_0-0_
  6
CONTINUOUS
 62
    7
 10
-17.707765953445865
 20
8.1563529110096393
 11
10.374419868705663
 21
7.4173480209530194
  0
LINE
  8
_0-0_
  6
CONTINUOUS
 62
    7
 10
10.374419868705663
 20
7.4173480209530194
 11
10.661810659283239
 21
7.0889014031500803
  0
LINE
  8
_0-0_
  6
CONTINUOUS
 62
    7
 10
10.661810659283239
 20
7.0889014031500803
 11
10.826033968184694
 21
6.8015106125725051
  0
LINE
  8
_0-0_
  6
CONTINUOUS
 62
    7
 10
-17.954100916798048
 20
-2.9287204398396458
 11
9.2659125336207264
 21
-3.8319486387977353
  0
LINE
  8
_0-0_
  6
CONTINUOUS
 62
    7
 10
9.2659125336207264
 20
-3.8319486387977353
 11
9.7175266330997854
 21
-4.1603952566006743
  0
LINE
  8
_0-0_
  6
CONTINUOUS
 62
    7
 10
9.7175266330997854
 20
-4.1603952566006743
 11
10.045973250902724
 21
-4.4888418744036134
  0
LINE
  8
_0-0_
  6
CONTINUOUS
 62
    7
 10
10.045973250902724
 20
-4.4888418744036134
 11
9.9228057692266329
 21
-12.166281565547388
  0
LINE
  8
_0-0_
  6
CONTINUOUS
 62
    7
 10
9.9228057692266329
 20
-12.166281565547388
 11
9.5122474969729378
 21
-12.412616528899585
  0
LINE
  8
_0-0_
  6
CONTINUOUS
 62
    7
 10
9.5122474969729378
 20
-12.412616528899585
 11
-17.87198926234732
 21
-10.277713513180467
  0
LINE
  8
_0-0_
  6
CONTINUOUS
 62
    7
 10
-17.87198926234732
 20
-10.277713513180467
 11
-18.077268398474168
 21
-9.9492668953775283
  0
LINE
  8
_0-0_
  6
CONTINUOUS
 62
    7
 10
-18.077268398474168
 20
-9.9492668953775283
 11
-17.954100916798048
 21
-2.9287204398396458
  0
LINE
  8
_0-0_
  6
CONTINUOUS
 62
    7
 10
-22.095055245854418
 20
-14.564835122746866
 11
11.277648067663753
 21
-17.298259968718348
  0
LINE
  8
_0-0_
  6
CONTINUOUS
 62
    7
 10
11.277648067663753
 20
-17.298259968718348
 11
10.536440960888248
 21
-14.494659862087213
  0
LINE
  8
_0-0_
  6
CONTINUOUS
 62
    7
 10
-21.936516157658737
 20
-0.342203324641483
 11
-20.704841340897708
 21
-0.342203324641483
  0
LINE
  8
_0-0_
  6
CONTINUOUS
 62
    7
 10
10.826033968184694
 20
-0.342203324641483
 11
11.934541303269631
 21
-0.3832591518668468
  0
LINE
  8
_0-0_
  6
CONTINUOUS
 62
    7
 10
11.915437146940567
 20
-0.3825515905213254
 11
14.808449209045355
 21
-0.4243149790922107
  0
LINE
  8
_0-0_
  6
CONTINUOUS
 62
    7
 10
14.808449209045355
 20
-0.4243149790922107
 11
21.623716528456406
 21
-0.3832591518668468
  0
ARC
  8
_0-0_
  6
CONTINUOUS
 62
    7
 10
-16.223837769309462
 20
16.708788488843432
 40
0.4463601997427925
 50
114.10399652655019
 51
307.82351653759849
  0
ARC
  8
_0-0_
  6
CONTINUOUS
 62
    7
 10
-16.862141593707015
 20
15.444181180524913
 40
0.4620313984312035
 50
99.257999343355507
 51
296.75032386846857
  0
ARC
  8
_0-0_
  6
CONTINUOUS
 62
    7
 10
-16.123834932004577
 20
14.076142366193926
 40
0.4620313984312035
 50
99.257999343355507
 51
296.75032386846857
  0
ARC
  8
_0-0_
  6
CONTINUOUS
 62
    7
 10
-16.167264735634127
 20
12.686388650048121
 40
0.4620313984312035
 50
99.257999343355507
 51
296.75032386846857
  0
ARC
  8
_0-0_
  6
CONTINUOUS
 62
    7
 10
-14.603791804970124
 20
12.751533355492461
 40
0.4620313984312035
 50
99.257999343355507
 51
296.75032386846857
  0
ARC
  8
_0-0_
  6
CONTINUOUS
 62
    7
 10
-14.603791804970124
 20
14.076142366193926
 40
0.4620313984312035
 50
99.257999343355507
 51
296.75032386846857
  0
ARC
  8
_0-0_
  6
CONTINUOUS
 62
    7
 10
-15.211809055783911
 20
15.465896082339702
 40
0.4620313984312035
 50
99.257999343355507
 51
296.75032386846857
  0
ARC
  8
_0-0_
  6
CONTINUOUS
 62
    7
 10
-14.473502394081445
 20
16.74707528941159
 40
0.4620313984312035
 50
99.257999343355507
 51
296.75032386846857
  0
ARC
  8
_0-0_
  6
CONTINUOUS
 62
    7
 10
-14.451787492266684
 20
18.071684300113027
 40
0.4620313984312035
 50
99.257999343355507
 51
296.75032386846857
  0
ARC
  8
_0-0_
  6
CONTINUOUS
 62
    7
 10
-12.801454954343578
 20
18.071684300113027
 40
0.4620313984312035
 50
99.257999343355507
 51
296.75032386846857
  0
ARC
  8
_0-0_
  6
CONTINUOUS
 62
    7
 10
-12.888314561602678
 20
16.66021568215249
 40
0.4620313984312035
 50
99.257999343355507
 51
296.75032386846857
  0
ARC
  8
_0-0_
  6
CONTINUOUS
 62
    7
 10
-13.735195732379006
 20
15.444181180524913
 40
0.4620313984312035
 50
99.257999343355507
 51
296.75032386846857
  0
ARC
  8
_0-0_
  6
CONTINUOUS
 62
    7
 10
-12.19343770352979
 20
15.357321573265812
 40
0.4620313984312035
 50
99.257999343355507
 51
296.75032386846857
  0
ARC
  8
_0-0_
  6
CONTINUOUS
 62
    7
 10
-12.844884757973128
 20
14.076142366193926
 40
0.4620313984312035
 50
99.257999343355507
 51
296.75032386846857
  0
ARC
  8
_0-0_
  6
CONTINUOUS
 62
    7
 10
-12.910029463417468
 20
12.642958846418571
 40
0.4620313984312035
 50
99.257999343355507
 51
296.75032386846857
  0
ARC
  8
_0-0_
  6
CONTINUOUS
 62
    7
 10
-11.151122416420444
 20
12.577814140974231
 40
0.4620313984312035
 50
99.257999343355507
 51
296.75032386846857
  0
ARC
  8
_0-0_
  6
CONTINUOUS
 62
    7
 10
-11.194552220049994
 20
13.967567857120036
 40
0.4620313984312035
 50
99.257999343355507
 51
296.75032386846857
  0
ARC
  8
_0-0_
  6
CONTINUOUS
 62
    7
 10
-11.042547907346554
 20
16.70364548578204
 40
0.4620313984312035
 50
99.257999343355507
 51
296.75032386846857
  0
ARC
  8
_0-0_
  6
CONTINUOUS
 62
    7
 10
-11.064262809161344
 20
18.310548220075596
 40
0.4620313984312035
 50
99.257999343355507
 51
296.75032386846857
  0
ARC
  8
_0-0_
  6
CONTINUOUS
 62
    7
 10
-9.3705004676086592
 20
18.071684300113027
 40
0.4620313984312035
 50
99.257999343355507
 51
296.75032386846857
  0
ARC
  8
_0-0_
  6
CONTINUOUS
 62
    7
 10
-9.3487855657938983
 20
16.790505093041141
 40
0.4620313984312035
 50
99.257999343355507
 51
296.75032386846857
  0
ARC
  8
_0-0_
  6
CONTINUOUS
 62
    7
 10
-9.0447769403869902
 20
15.292176867821473
 40
0.4620313984312035
 50
99.257999343355507
 51
296.75032386846857
  0
ARC
  8
_0-0_
  6
CONTINUOUS
 62
    7
 10
-9.4356451730529987
 20
14.097857268008687
 40
0.4620313984312035
 50
99.257999343355507
 51
296.75032386846857
  0
ARC
  8
_0-0_
  6
CONTINUOUS
 62
    7
 10
-9.5659345839416776
 20
12.534384337344681
 40
0.4620313984312035
 50
99.257999343355507
 51
296.75032386846857
  0
ARC
  8
_0-0_
  6
CONTINUOUS
 62
    7
 10
-7.8287424387594431
 20
12.599529042789021
 40
0.4620313984312035
 50
99.257999343355507
 51
296.75032386846857
  0
ARC
  8
_0-0_
  6
CONTINUOUS
 62
    7
 10
-7.8287424387594431
 20
13.945852955305247
 40
0.4620313984312035
 50
99.257999343355507
 51
296.75032386846857
  0
ARC
  8
_0-0_
  6
CONTINUOUS
 62
    7
 10
-5.961260882688558
 20
13.793848642601807
 40
0.4620313984312035
 50
99.257999343355507
 51
296.75032386846857
  0
ARC
  8
_0-0_
  6
CONTINUOUS
 62
    7
 10
-6.0264055881328975
 20
12.534384337344681
 40
0.4620313984312035
 50
99.257999343355507
 51
296.75032386846857
  0
ARC
  8
_0-0_
  6
CONTINUOUS
 62
    7
 10
-7.8070275369446538
 20
16.74707528941159
 40
0.4620313984312035
 50
99.257999343355507
 51
296.75032386846857
  0
ARC
  8
_0-0_
  6
CONTINUOUS
 62
    7
 10
-7.6115934206116638
 20
18.071684300113027
 40
0.4620313984312035
 50
99.257999343355507
 51
296.75032386846857
  0
ARC
  8
_0-0_
  6
CONTINUOUS
 62
    7
 10
-5.8526863736146684
 20
18.028254496483477
 40
0.4620313984312035
 50
99.257999343355507
 51
296.75032386846857
  0
ARC
  8
_0-0_
  6
CONTINUOUS
 62
    7
 10
-4.3109283447654239
 20
18.028254496483477
 40
0.4620313984312035
 50
99.257999343355507
 51
296.75032386846857
  0
ARC
  8
_0-0_
  6
CONTINUOUS
 62
    7
 10
-2.3783020832501989
 20
18.136829005557367
 40
0.4620313984312035
 50
99.257999343355507
 51
296.75032386846857
  0
ARC
  8
_0-0_
  6
CONTINUOUS
 62
    7
 10
-2.5737361995832173
 20
13.728703937157468
 40
0.4620313984312035
 50
99.257999343355507
 51
296.75032386846857
  0
ARC
  8
_0-0_
  6
CONTINUOUS
 62
    7
 10
-2.4868765923240885
 20
12.404094926456017
 40
0.4620313984312035
 50
99.257999343355507
 51
296.75032386846857
  0
ARC
  8
_0-0_
  6
CONTINUOUS
 62
    7
 10
-4.4195028538393135
 20
12.556099239159471
 40
0.4620313984312035
 50
99.257999343355507
 51
296.75032386846857
  0
ARC
  8
_0-0_
  6
CONTINUOUS
 62
    7
 10
-0.7931142507714326
 20
12.447524730085581
 40
0.4620313984312035
 50
99.257999343355507
 51
296.75032386846857
  0
ARC
  8
_0-0_
  6
CONTINUOUS
 62
    7
 10
-0.5976801344384141
 20
13.880708249860907
 40
0.4620313984312035
 50
99.257999343355507
 51
296.75032386846857
  0
ARC
  8
_0-0_
  6
CONTINUOUS
 62
    7
 10
-0.7062546435123038
 20
16.616785878522911
 40
0.4620313984312035
 50
99.257999343355507
 51
296.75032386846857
  0
ARC
  8
_0-0_
  6
CONTINUOUS
 62
    7
 10
-0.6411099380679927
 20
18.071684300113027
 40
0.4620313984312035
 50
99.257999343355507
 51
296.75032386846857
  0
ARC
  8
_0-0_
  6
CONTINUOUS
 62
    7
 10
1.1612269125585812
 20
18.223688612816467
 40
0.4620313984312035
 50
99.257999343355507
 51
296.75032386846857
  0
ARC
  8
_0-0_
  6
CONTINUOUS
 62
    7
 10
1.2046567161881314
 20
16.616785878522911
 40
0.4620313984312035
 50
99.257999343355507
 51
296.75032386846857
  0
ARC
  8
_0-0_
  6
CONTINUOUS
 62
    7
 10
0.6834990726334724
 20
15.205317260562344
 40
0.4620313984312035
 50
99.257999343355507
 51
296.75032386846857
  0
ARC
  8
_0-0_
  6
CONTINUOUS
 62
    7
 10
1.0743673052994525
 20
13.750418838972243
 40
0.4620313984312035
 50
99.257999343355507
 51
296.75032386846857
  0
ARC
  8
_0-0_
  6
CONTINUOUS
 62
    7
 10
1.0743673052994525
 20
12.382380024641241
 40
0.4620313984312035
 50
99.257999343355507
 51
296.75032386846857
  0
ARC
  8
_0-0_
  6
CONTINUOUS
 62
    7
 10
3.1155680758885667
 20
12.447524730085581
 40
0.4620313984312035
 50
99.257999343355507
 51
296.75032386846857
  0
ARC
  8
_0-0_
  6
CONTINUOUS
 62
    7
 10
3.0504233704442556
 20
13.706989035342692
 40
0.4620313984312035
 50
99.257999343355507
 51
296.75032386846857
  0
ARC
  8
_0-0_
  6
CONTINUOUS
 62
    7
 10
3.0938531740738058
 20
16.833934896670691
 40
0.4620313984312035
 50
99.257999343355507
 51
296.75032386846857
  0
ARC
  8
_0-0_
  6
CONTINUOUS
 62
    7
 10
3.1155680758885667
 20
18.071684300113027
 40
0.4620313984312035
 50
99.257999343355507
 51
296.75032386846857
  0
ARC
  8
_0-0_
  6
CONTINUOUS
 62
    7
 10
5.0047645337742406
 20
18.093399201927816
 40
0.4620313984312035
 50
99.257999343355507
 51
296.75032386846857
  0
ARC
  8
_0-0_
  6
CONTINUOUS
 62
    7
 10
5.1133390428481302
 20
16.66021568215249
 40
0.4620313984312035
 50
99.257999343355507
 51
296.75032386846857
  0
ARC
  8
_0-0_
  6
CONTINUOUS
 62
    7
 10
6.0253649190687977
 20
15.183602358747583
 40
0.4620313984312035
 50
99.257999343355507
 51
296.75032386846857
  0
ARC
  8
_0-0_
  6
CONTINUOUS
 62
    7
 10
5.0264794355890299
 20
13.750418838972243
 40
0.4620313984312035
 50
99.257999343355507
 51
296.75032386846857
  0
ARC
  8
_0-0_
  6
CONTINUOUS
 62
    7
 10
4.9830496319594797
 20
12.382380024641241
 40
0.4620313984312035
 50
99.257999343355507
 51
296.75032386846857
  0
ARC
  8
_0-0_
  6
CONTINUOUS
 62
    7
 10
6.7853864825860253
 20
12.273805515567352
 40
0.4620313984312035
 50
99.257999343355507
 51
296.75032386846857
  0
ARC
  8
_0-0_
  6
CONTINUOUS
 62
    7
 10
6.7202417771416858
 20
13.837278446231357
 40
0.4620313984312035
 50
99.257999343355507
 51
296.75032386846857
  0
ARC
  8
_0-0_
  6
CONTINUOUS
 62
    7
 10
7.8928464751397112
 20
15.205317260562344
 40
0.4620313984312035
 50
99.257999343355507
 51
296.75032386846857
  0
ARC
  8
_0-0_
  6
CONTINUOUS
 62
    7
 10
9.6951833257662567
 20
15.270461966006684
 40
0.4620313984312035
 50
99.257999343355507
 51
296.75032386846857
  0
ARC
  8
_0-0_
  6
CONTINUOUS
 62
    7
 10
8.9785915658785793
 20
13.750418838972243
 40
0.4620313984312035
 50
99.257999343355507
 51
296.75032386846857
  0
ARC
  8
_0-0_
  6
CONTINUOUS
 62
    7
 10
8.6745829404716996
 20
12.208660810123012
 40
0.4620313984312035
 50
99.257999343355507
 51
296.75032386846857
  0
ARC
  8
_0-0_
  6
CONTINUOUS
 62
    7
 10
6.9156758934747042
 20
16.66021568215249
 40
0.4620313984312035
 50
99.257999343355507
 51
296.75032386846857
  0
ARC
  8
_0-0_
  6
CONTINUOUS
 62
    7
 10
8.7831574495455893
 20
16.573356074893361
 40
0.4620313984312035
 50
99.257999343355507
 51
296.75032386846857
  0
ARC
  8
_0-0_
  6
CONTINUOUS
 62
    7
 10
6.8071013844008146
 20
18.158543907372156
 40
0.4620313984312035
 50
99.257999343355507
 51
296.75032386846857
  0
ARC
  8
_0-0_
  6
CONTINUOUS
 62
    7
 10
8.7831574495455893
 20
18.136829005557367
 40
0.4620313984312035
 50
99.257999343355507
 51
296.75032386846857
  0
ARC
  8
_0-0_
  6
CONTINUOUS
 62
    7
 10
-16.319269048337567
 20
6.9319396691320119
 40
0.4620313984312035
 50
99.257999343355507
 51
296.75032386846857
  0
ARC
  8
_0-0_
  6
CONTINUOUS
 62
    7
 10
-16.340983950152356
 20
5.5639008548010107
 40
0.4620313984312035
 50
99.257999343355507
 51
296.75032386846857
  0
ARC
  8
_0-0_
  6
CONTINUOUS
 62
    7
 10
-15.407243172116901
 20
4.2392918440995597
 40
0.4620313984312035
 50
99.257999343355507
 51
296.75032386846857
  0
ARC
  8
_0-0_
  6
CONTINUOUS
 62
    7
 10
-17.079290611854795
 20
4.3695812549882245
 40
0.4620313984312035
 50
99.257999343355507
 51
296.75032386846857
  0
ARC
  8
_0-0_
  6
CONTINUOUS
 62
    7
 10
-16.210694539263677
 20
2.9798275388424482
 40
0.4620313984312035
 50
99.257999343355507
 51
296.75032386846857
  0
ARC
  8
_0-0_
  6
CONTINUOUS
 62
    7
 10
-16.167264735634127
 20
1.6335036263262221
 40
0.4620313984312035
 50
99.257999343355507
 51
296.75032386846857
  0
ARC
  8
_0-0_
  6
CONTINUOUS
 62
    7
 10
-14.560362001340573
 20
1.5249291172523325
 40
0.4620313984312035
 50
99.257999343355507
 51
296.75032386846857
  0
ARC
  8
_0-0_
  6
CONTINUOUS
 62
    7
 10
-14.538647099525784
 20
2.9798275388424482
 40
0.4620313984312035
 50
99.257999343355507
 51
296.75032386846857
  0
ARC
  8
_0-0_
  6
CONTINUOUS
 62
    7
 10
-13.843770241452896
 20
4.1307173350256701
 40
0.4620313984312035
 50
99.257999343355507
 51
296.75032386846857
  0
ARC
  8
_0-0_
  6
CONTINUOUS
 62
    7
 10
-14.560362001340573
 20
5.5421859529862214
 40
0.4620313984312035
 50
99.257999343355507
 51
296.75032386846857
  0
ARC
  8
_0-0_
  6
CONTINUOUS
 62
    7
 10
-14.603791804970124
 20
6.7799353564285578
 40
0.4620313984312035
 50
99.257999343355507
 51
296.75032386846857
  0
ARC
  8
_0-0_
  6
CONTINUOUS
 62
    7
 10
-12.910029463417468
 20
6.9102247673172368
 40
0.4620313984312035
 50
99.257999343355507
 51
296.75032386846857
  0
ARC
  8
_0-0_
  6
CONTINUOUS
 62
    7
 10
-12.996889070676568
 20
5.5421859529862214
 40
0.4620313984312035
 50
99.257999343355507
 51
296.75032386846857
  0
ARC
  8
_0-0_
  6
CONTINUOUS
 62
    7
 10
-11.259696925494334
 20
6.7799353564285578
 40
0.4620313984312035
 50
99.257999343355507
 51
296.75032386846857
  0
ARC
  8
_0-0_
  6
CONTINUOUS
 62
    7
 10
-11.216267121864783
 20
5.3901816402827816
 40
0.4620313984312035
 50
99.257999343355507
 51
296.75032386846857
  0
ARC
  8
_0-0_
  6
CONTINUOUS
 62
    7
 10
-12.45401652530712
 20
4.2175769422847846
 40
0.4620313984312035
 50
99.257999343355507
 51
296.75032386846857
  0
ARC
  8
_0-0_
  6
CONTINUOUS
 62
    7
 10
-9.2402110567200086
 20
4.0655726295813306
 40
0.4620313984312035
 50
99.257999343355507
 51
296.75032386846857
  0
ARC
  8
_0-0_
  6
CONTINUOUS
 62
    7
 10
-12.975174168861779
 20
2.7626785206946689
 40
0.4620313984312035
 50
99.257999343355507
 51
296.75032386846857
  0
ARC
  8
_0-0_
  6
CONTINUOUS
 62
    7
 10
-11.216267121864783
 20
2.6975338152503294
 40
0.4620313984312035
 50
99.257999343355507
 51
296.75032386846857
  0
ARC
  8
_0-0_
  6
CONTINUOUS
 62
    7
 10
-12.996889070676568
 20
1.5032142154375574
 40
0.4620313984312035
 50
99.257999343355507
 51
296.75032386846857
  0
ARC
  8
_0-0_
  6
CONTINUOUS
 62
    7
 10
-11.324841630938673
 20
1.3077800991045532
 40
0.4620313984312035
 50
99.257999343355507
 51
296.75032386846857
  0
ARC
  8
_0-0_
  6
CONTINUOUS
 62
    7
 10
-9.6745090930155673
 20
1.1992055900306635
 40
0.4620313984312035
 50
99.257999343355507
 51
296.75032386846857
  0
ARC
  8
_0-0_
  6
CONTINUOUS
 62
    7
 10
-9.5442196821268883
 20
2.6975338152503294
 40
0.4620313984312035
 50
99.257999343355507
 51
296.75032386846857
  0
ARC
  8
_0-0_
  6
CONTINUOUS
 62
    7
 10
-9.6093643875712278
 20
5.303322033023667
 40
0.4620313984312035
 50
99.257999343355507
 51
296.75032386846857
  0
ARC
  8
_0-0_
  6
CONTINUOUS
 62
    7
 10
-9.5225047803121274
 20
6.6713608473546682
 40
0.4620313984312035
 50
99.257999343355507
 51
296.75032386846857
  0
ARC
  8
_0-0_
  6
CONTINUOUS
 62
    7
 10
-7.9373169478333327
 20
6.5410714364660034
 40
0.4620313984312035
 50
99.257999343355507
 51
296.75032386846857
  0
ARC
  8
_0-0_
  6
CONTINUOUS
 62
    7
 10
-7.8504573405742324
 20
5.1730326221350023
 40
0.4620313984312035
 50
99.257999343355507
 51
296.75032386846857
  0
ARC
  8
_0-0_
  6
CONTINUOUS
 62
    7
 10
-6.091550293577237
 20
6.5193565346512283
 40
0.4620313984312035
 50
99.257999343355507
 51
296.75032386846857
  0
ARC
  8
_0-0_
  6
CONTINUOUS
 62
    7
 10
-4.3977879520245526
 20
6.4542118292069031
 40
0.4620313984312035
 50
99.257999343355507
 51
296.75032386846857
  0
ARC
  8
_0-0_
  6
CONTINUOUS
 62
    7
 10
-2.5303063959536671
 20
6.3456373201330134
 40
0.4620313984312035
 50
99.257999343355507
 51
296.75032386846857
  0
ARC
  8
_0-0_
  6
CONTINUOUS
 62
    7
 10
-8.0024616532776722
 20
2.4803847971025501
 40
0.4620313984312035
 50
99.257999343355507
 51
296.75032386846857
  0
ARC
  8
_0-0_
  6
CONTINUOUS
 62
    7
 10
-7.959031849648122
 20
1.1774906882158884
 40
0.4620313984312035
 50
99.257999343355507
 51
296.75032386846857
  0
ARC
  8
_0-0_
  6
CONTINUOUS
 62
    7
 10
-6.156694999021548
 20
1.0906310809567739
 40
0.4620313984312035
 50
99.257999343355507
 51
296.75032386846857
  0
ARC
  8
_0-0_
  6
CONTINUOUS
 62
    7
 10
-6.2218397044658875
 20
2.6323891098060042
 40
0.4620313984312035
 50
99.257999343355507
 51
296.75032386846857
  0
ARC
  8
_0-0_
  6
CONTINUOUS
 62
    7
 10
-4.3543581483950025
 20
0.9820565718828842
 40
0.4620313984312035
 50
99.257999343355507
 51
296.75032386846857
  0
ARC
  8
_0-0_
  6
CONTINUOUS
 62
    7
 10
-2.5954511013980066
 20
2.111231466251331
 40
0.4620313984312035
 50
99.257999343355507
 51
296.75032386846857
  0
ARC
  8
_0-0_
  6
CONTINUOUS
 62
    7
 10
-2.5303063959536671
 20
0.7866224555498799
 40
0.4620313984312035
 50
99.257999343355507
 51
296.75032386846857
  0
ARC
  8
_0-0_
  6
CONTINUOUS
 62
    7
 10
-0.8365440544009827
 20
6.2153479092443344
 40
0.4620313984312035
 50
99.257999343355507
 51
296.75032386846857
  0
ARC
  8
_0-0_
  6
CONTINUOUS
 62
    7
 10
-0.7279695453270931
 20
4.9558836039872229
 40
0.4620313984312035
 50
99.257999343355507
 51
296.75032386846857
  0
ARC
  8
_0-0_
  6
CONTINUOUS
 62
    7
 10
-0.7279695453270931
 20
2.0026569571774413
 40
0.4620313984312035
 50
99.257999343355507
 51
296.75032386846857
  0
ARC
  8
_0-0_
  6
CONTINUOUS
 62
    7
 10
-0.9234036616601115
 20
0.6346181428464401
 40
0.4620313984312035
 50
99.257999343355507
 51
296.75032386846857
  0
ARC
  8
_0-0_
  6
CONTINUOUS
 62
    7
 10
0.8572182871516731
 20
0.8300522591794443
 40
0.4620313984312035
 50
99.257999343355507
 51
296.75032386846857
  0
ARC
  8
_0-0_
  6
CONTINUOUS
 62
    7
 10
0.8789331889664624
 20
1.9592271535478911
 40
0.4620313984312035
 50
99.257999343355507
 51
296.75032386846857
  0
ARC
  8
_0-0_
  6
CONTINUOUS
 62
    7
 10
0.6183543671891329
 20
3.2404063606197777
 40
0.4620313984312035
 50
99.257999343355507
 51
296.75032386846857
  0
ARC
  8
_0-0_
  6
CONTINUOUS
 62
    7
 10
0.9657927962255628
 20
4.8038792912837831
 40
0.4620313984312035
 50
99.257999343355507
 51
296.75032386846857
  0
ARC
  8
_0-0_
  6
CONTINUOUS
 62
    7
 10
1.1829418143733421
 20
6.1502032038000092
 40
0.4620313984312035
 50
99.257999343355507
 51
296.75032386846857
  0
ARC
  8
_0-0_
  6
CONTINUOUS
 62
    7
 10
2.811559450481687
 20
6.1719181056147843
 40
0.4620313984312035
 50
99.257999343355507
 51
296.75032386846857
  0
ARC
  8
_0-0_
  6
CONTINUOUS
 62
    7
 10
2.8549892541112372
 20
4.8690239967281084
 40
0.4620313984312035
 50
99.257999343355507
 51
296.75032386846857
  0
ARC
  8
_0-0_
  6
CONTINUOUS
 62
    7
 10
2.7898445486668977
 20
1.8506526444740015
 40
0.4620313984312035
 50
99.257999343355507
 51
296.75032386846857
  0
ARC
  8
_0-0_
  6
CONTINUOUS
 62
    7
 10
2.7898445486668977
 20
0.4826138301430003
 40
0.4620313984312035
 50
99.257999343355507
 51
296.75032386846857
  0
ARC
  8
_0-0_
  6
CONTINUOUS
 62
    7
 10
4.7441857119969111
 20
0.4391840265134359
 40
0.4620313984312035
 50
99.257999343355507
 51
296.75032386846857
  0
ARC
  8
_0-0_
  6
CONTINUOUS
 62
    7
 10
4.6573261047378107
 20
1.7203632335853367
 40
0.4620313984312035
 50
99.257999343355507
 51
296.75032386846857
  0
ARC
  8
_0-0_
  6
CONTINUOUS
 62
    7
 10
4.7659006138117004
 20
4.6084451749507789
 40
0.4620313984312035
 50
99.257999343355507
 51
296.75032386846857
  0
ARC
  8
_0-0_
  6
CONTINUOUS
 62
    7
 10
4.87447512288559
 20
6.1936330074295594
 40
0.4620313984312035
 50
99.257999343355507
 51
296.75032386846857
  0
ARC
  8
_0-0_
  6
CONTINUOUS
 62
    7
 10
6.7419566789564751
 20
5.954769087467005
 40
0.4620313984312035
 50
99.257999343355507
 51
296.75032386846857
  0
ARC
  8
_0-0_
  6
CONTINUOUS
 62
    7
 10
6.7419566789564751
 20
4.5650153713212287
 40
0.4620313984312035
 50
99.257999343355507
 51
296.75032386846857
  0
ARC
  8
_0-0_
  6
CONTINUOUS
 62
    7
 10
5.721356293661918
 20
3.1535467533606631
 40
0.4620313984312035
 50
99.257999343355507
 51
296.75032386846857
  0
ARC
  8
_0-0_
  6
CONTINUOUS
 62
    7
 10
6.4596629553643563
 20
1.6769334299557723
 40
0.4620313984312035
 50
99.257999343355507
 51
296.75032386846857
  0
ARC
  8
_0-0_
  6
CONTINUOUS
 62
    7
 10
6.6333821698825854
 20
0.4826138301430003
 40
0.4620313984312035
 50
99.257999343355507
 51
296.75032386846857
  0
ARC
  8
_0-0_
  6
CONTINUOUS
 62
    7
 10
8.5225786277682598
 20
0.2003201065508815
 40
0.4620313984312035
 50
99.257999343355507
 51
296.75032386846857
  0
ARC
  8
_0-0_
  6
CONTINUOUS
 62
    7
 10
8.4574339223239203
 20
1.4814993136227681
 40
0.4620313984312035
 50
99.257999343355507
 51
296.75032386846857
  0
ARC
  8
_0-0_
  6
CONTINUOUS
 62
    7
 10
7.5888378497328031
 20
3.2621212624345528
 40
0.4620313984312035
 50
99.257999343355507
 51
296.75032386846857
  0
ARC
  8
_0-0_
  6
CONTINUOUS
 62
    7
 10
8.6528680386569103
 20
4.3695812549882245
 40
0.4620313984312035
 50
99.257999343355507
 51
296.75032386846857
  0
ARC
  8
_0-0_
  6
CONTINUOUS
 62
    7
 10
8.5877233332125993
 20
5.9981988910965693
 40
0.4620313984312035
 50
99.257999343355507
 51
296.75032386846857
  0
ARC
  8
_0-0_
  6
CONTINUOUS
 62
    7
 10
9.5648939148775778
 20
2.8929679315833337
 40
0.4620313984312035
 50
99.257999343355507
 51
296.75032386846857
  0
ARC
  8
_0-0_
  6
CONTINUOUS
 62
    7
 10
-16.30228119997907
 20
-4.1033173844092037
 40
0.4620313984312035
 50
99.257999343355507
 51
296.75032386846857
  0
ARC
  8
_0-0_
  6
CONTINUOUS
 62
    7
 10
-16.315477557544519
 20
-5.3833640682571886
 40
0.4620313984312035
 50
99.257999343355507
 51
296.75032386846857
  0
ARC
  8
_0-0_
  6
CONTINUOUS
 62
    7
 10
-17.001688150947565
 20
-6.5578398915816312
 40
0.4620313984312035
 50
99.257999343355507
 51
296.75032386846857
  0
ARC
  8
_0-0_
  6
CONTINUOUS
 62
    7
 10
-16.341870272675386
 20
-7.9830465086495028
 40
0.4620313984312035
 50
99.257999343355507
 51
296.75032386846857
  0
ARC
  8
_0-0_
  6
CONTINUOUS
 62
    7
 10
-16.473833848329839
 20
-9.3422713378901623
 40
0.4620313984312035
 50
99.257999343355507
 51
296.75032386846857
  0
ARC
  8
_0-0_
  6
CONTINUOUS
 62
    7
 10
-14.652736504298682
 20
-9.4610385559791386
 40
0.4620313984312035
 50
99.257999343355507
 51
296.75032386846857
  0
ARC
  8
_0-0_
  6
CONTINUOUS
 62
    7
 10
-14.692325576994998
 20
-8.1150100843039414
 40
0.4620313984312035
 50
99.257999343355507
 51
296.75032386846857
  0
ARC
  8
_0-0_
  6
CONTINUOUS
 62
    7
 10
-15.365339812832596
 20
-6.7425888974978481
 40
0.4620313984312035
 50
99.257999343355507
 51
296.75032386846857
  0
ARC
  8
_0-0_
  6
CONTINUOUS
 62
    7
 10
-14.599951074036889
 20
-5.4229531409535188
 40
0.4620313984312035
 50
99.257999343355507
 51
296.75032386846857
  0
ARC
  8
_0-0_
  6
CONTINUOUS
 62
    7
 10
-14.626343789167786
 20
-4.208888244932746
 40
0.4620313984312035
 50
99.257999343355507
 51
296.75032386846857
  0
ARC
  8
_0-0_
  6
CONTINUOUS
 62
    7
 10
-13.148351741838136
 20
-4.2880663903254064
 40
0.4620313984312035
 50
99.257999343355507
 51
296.75032386846857
  0
ARC
  8
_0-0_
  6
CONTINUOUS
 62
    7
 10
-13.095566311576372
 20
-5.4361494985189669
 40
0.4620313984312035
 50
99.257999343355507
 51
296.75032386846857
  0
ARC
  8
_0-0_
  6
CONTINUOUS
 62
    7
 10
-13.900544123068395
 20
-6.7821779701941782
 40
0.4620313984312035
 50
99.257999343355507
 51
296.75032386846857
  0
ARC
  8
_0-0_
  6
CONTINUOUS
 62
    7
 10
-12.554515651393197
 20
-7.0856941941993714
 40
0.4620313984312035
 50
99.257999343355507
 51
296.75032386846857
  0
ARC
  8
_0-0_
  6
CONTINUOUS
 62
    7
 10
-13.135155384272688
 20
-8.3261518053510262
 40
0.4620313984312035
 50
99.257999343355507
 51
296.75032386846857
  0
ARC
  8
_0-0_
  6
CONTINUOUS
 62
    7
 10
-13.174744456969032
 20
-9.6061984891990253
 40
0.4620313984312035
 50
99.257999343355507
 51
296.75032386846857
  0
ARC
  8
_0-0_
  6
CONTINUOUS
 62
    7
 10
-11.446021615895981
 20
-9.6325912043299073
 40
0.4620313984312035
 50
99.257999343355507
 51
296.75032386846857
  0
ARC
  8
_0-0_
  6
CONTINUOUS
 62
    7
 10
-11.459217973461401
 20
-8.3657408780473563
 40
0.4620313984312035
 50
99.257999343355507
 51
296.75032386846857
  0
ARC
  8
_0-0_
  6
CONTINUOUS
 62
    7
 10
-9.400586193252261
 20
-7.0856941941993714
 40
0.4620313984312035
 50
99.257999343355507
 51
296.75032386846857
  0
ARC
  8
_0-0_
  6
CONTINUOUS
 62
    7
 10
-11.419628900765085
 20
-5.5945057893042875
 40
0.4620313984312035
 50
99.257999343355507
 51
296.75032386846857
  0
ARC
  8
_0-0_
  6
CONTINUOUS
 62
    7
 10
-11.393236185634189
 20
-4.2352809600636281
 40
0.4620313984312035
 50
99.257999343355507
 51
296.75032386846857
  0
ARC
  8
_0-0_
  6
CONTINUOUS
 62
    7
 10
-9.7172987748229023
 20
-4.4200299659798308
 40
0.4620313984312035
 50
99.257999343355507
 51
296.75032386846857
  0
ARC
  8
_0-0_
  6
CONTINUOUS
 62
    7
 10
-8.0809504367079601
 20
-4.4728153962416091
 40
0.4620313984312035
 50
99.257999343355507
 51
296.75032386846857
  0
ARC
  8
_0-0_
  6
CONTINUOUS
 62
    7
 10
-8.1733249396660401
 20
-5.8848256557440326
 40
0.4620313984312035
 50
99.257999343355507
 51
296.75032386846857
  0
ARC
  8
_0-0_
  6
CONTINUOUS
 62
    7
 10
-9.6777097021265863
 20
-5.7264693649587119
 40
0.4620313984312035
 50
99.257999343355507
 51
296.75032386846857
  0
ARC
  8
_0-0_
  6
CONTINUOUS
 62
    7
 10
-9.8756550656082229
 20
-8.4317226658745685
 40
0.4620313984312035
 50
99.257999343355507
 51
296.75032386846857
  0
ARC
  8
_0-0_
  6
CONTINUOUS
 62
    7
 10
-9.928440495869987
 20
-9.9097147132042185
 40
0.4620313984312035
 50
99.257999343355507
 51
296.75032386846857
  0
ARC
  8
_0-0_
  6
CONTINUOUS
 62
    7
 10
-8.1337358669697242
 20
-8.4977044537017949
 40
0.4620313984312035
 50
99.257999343355507
 51
296.75032386846857
  0
ARC
  8
_0-0_
  6
CONTINUOUS
 62
    7
 10
-8.2393067274932807
 20
-9.790947495115228
 40
0.4620313984312035
 50
99.257999343355507
 51
296.75032386846857
  0
ARC
  8
_0-0_
  6
CONTINUOUS
 62
    7
 10
-6.2598530926767726
 20
-10.015285573727761
 40
0.4620313984312035
 50
99.257999343355507
 51
296.75032386846857
  0
ARC
  8
_0-0_
  6
CONTINUOUS
 62
    7
 10
-6.3390312380694329
 20
-8.4317226658745685
 40
0.4620313984312035
 50
99.257999343355507
 51
296.75032386846857
  0
ARC
  8
_0-0_
  6
CONTINUOUS
 62
    7
 10
-4.6498974696927267
 20
-10.002089216162313
 40
0.4620313984312035
 50
99.257999343355507
 51
296.75032386846857
  0
ARC
  8
_0-0_
  6
CONTINUOUS
 62
    7
 10
-2.9739600588814112
 20
-10.160445506947633
 40
0.4620313984312035
 50
99.257999343355507
 51
296.75032386846857
  0
ARC
  8
_0-0_
  6
CONTINUOUS
 62
    7
 10
-2.9739600588814112
 20
-8.8672024655342003
 40
0.4620313984312035
 50
99.257999343355507
 51
296.75032386846857
  0
ARC
  8
_0-0_
  6
CONTINUOUS
 62
    7
 10
-6.352227595634881
 20
-4.5387971840688213
 40
0.4620313984312035
 50
99.257999343355507
 51
296.75032386846857
  0
ARC
  8
_0-0_
  6
CONTINUOUS
 62
    7
 10
-4.5575229667346182
 20
-4.6839571172886938
 40
0.4620313984312035
 50
99.257999343355507
 51
296.75032386846857
  0
ARC
  8
_0-0_
  6
CONTINUOUS
 62
    7
 10
-2.7892110529652228
 20
-4.7499389051159202
 40
0.4620313984312035
 50
99.257999343355507
 51
296.75032386846857
  0
ARC
  8
_0-0_
  6
CONTINUOUS
 62
    7
 10
-0.9021319211068514
 20
-4.7763316202468022
 40
0.4620313984312035
 50
99.257999343355507
 51
296.75032386846857
  0
ARC
  8
_0-0_
  6
CONTINUOUS
 62
    7
 10
-1.0736845694575918
 20
-6.1619491646183437
 40
0.4620313984312035
 50
99.257999343355507
 51
296.75032386846857
  0
ARC
  8
_0-0_
  6
CONTINUOUS
 62
    7
 10
-1.1792554299811484
 20
-9.051951471450403
 40
0.4620313984312035
 50
99.257999343355507
 51
296.75032386846857
  0
ARC
  8
_0-0_
  6
CONTINUOUS
 62
    7
 10
-1.0736845694575918
 20
-10.358390870429284
 40
0.4620313984312035
 50
99.257999343355507
 51
296.75032386846857
  0
ARC
  8
_0-0_
  6
CONTINUOUS
 62
    7
 10
0.7342164170081191
 20
-10.305605440167506
 40
0.4620313984312035
 50
99.257999343355507
 51
296.75032386846857
  0
ARC
  8
_0-0_
  6
CONTINUOUS
 62
    7
 10
0.7474127745735672
 20
-9.0123623987540729
 40
0.4620313984312035
 50
99.257999343355507
 51
296.75032386846857
  0
ARC
  8
_0-0_
  6
CONTINUOUS
 62
    7
 10
0.2987366173485015
 20
-7.6399412119479795
 40
0.4620313984312035
 50
99.257999343355507
 51
296.75032386846857
  0
ARC
  8
_0-0_
  6
CONTINUOUS
 62
    7
 10
0.6946273443118031
 20
-6.1751455221837777
 40
0.4620313984312035
 50
99.257999343355507
 51
296.75032386846857
  0
ARC
  8
_0-0_
  6
CONTINUOUS
 62
    7
 10
0.7342164170081191
 20
-4.9214915534666748
 40
0.4620313984312035
 50
99.257999343355507
 51
296.75032386846857
  0
ARC
  8
_0-0_
  6
CONTINUOUS
 62
    7
 10
2.5421174034738301
 20
-4.9346879110321229
 40
0.4620313984312035
 50
99.257999343355507
 51
296.75032386846857
  0
ARC
  8
_0-0_
  6
CONTINUOUS
 62
    7
 10
2.5553137610392782
 20
-6.2807163827073342
 40
0.4620313984312035
 50
99.257999343355507
 51
296.75032386846857
  0
ARC
  8
_0-0_
  6
CONTINUOUS
 62
    7
 10
2.6080991913010423
 20
-9.2235041198011718
 40
0.4620313984312035
 50
99.257999343355507
 51
296.75032386846857
  0
ARC
  8
_0-0_
  6
CONTINUOUS
 62
    7
 10
2.5025283307775141
 20
-10.503550803649157
 40
0.4620313984312035
 50
99.257999343355507
 51
296.75032386846857
  0
ARC
  8
_0-0_
  6
CONTINUOUS
 62
    7
 10
4.4291965353322009
 20
-10.688299809565359
 40
0.4620313984312035
 50
99.257999343355507
 51
296.75032386846857
  0
ARC
  8
_0-0_
  6
CONTINUOUS
 62
    7
 10
4.5215710382903094
 20
-9.2235041198011718
 40
0.4620313984312035
 50
99.257999343355507
 51
296.75032386846857
  0
ARC
  8
_0-0_
  6
CONTINUOUS
 62
    7
 10
4.5083746807248612
 20
-6.3466981705345464
 40
0.4620313984312035
 50
99.257999343355507
 51
296.75032386846857
  0
ARC
  8
_0-0_
  6
CONTINUOUS
 62
    7
 10
4.5611601109866537
 20
-5.0666514866865473
 40
0.4620313984312035
 50
99.257999343355507
 51
296.75032386846857
  0
ARC
  8
_0-0_
  6
CONTINUOUS
 62
    7
 10
6.4614356004104732
 20
-5.0006696988593351
 40
0.4620313984312035
 50
99.257999343355507
 51
296.75032386846857
  0
ARC
  8
_0-0_
  6
CONTINUOUS
 62
    7
 10
8.2693365868761841
 20
-5.1590259896446558
 40
0.4620313984312035
 50
99.257999343355507
 51
296.75032386846857
  0
ARC
  8
_0-0_
  6
CONTINUOUS
 62
    7
 10
8.2429438717452879
 20
-6.6634107521051877
 40
0.4620313984312035
 50
99.257999343355507
 51
296.75032386846857
  0
ARC
  8
_0-0_
  6
CONTINUOUS
 62
    7
 10
6.4350428852795769
 20
-6.4654653886235369
 40
0.4620313984312035
 50
99.257999343355507
 51
296.75032386846857
  0
ARC
  8
_0-0_
  6
CONTINUOUS
 62
    7
 10
5.5376905708294455
 20
-7.9434574359531727
 40
0.4620313984312035
 50
99.257999343355507
 51
296.75032386846857
  0
ARC
  8
_0-0_
  6
CONTINUOUS
 62
    7
 10
7.4247697026878168
 20
-8.022635581345833
 40
0.4620313984312035
 50
99.257999343355507
 51
296.75032386846857
  0
ARC
  8
_0-0_
  6
CONTINUOUS
 62
    7
 10
8.8367799621902545
 20
-8.0622246540421632
 40
0.4620313984312035
 50
99.257999343355507
 51
296.75032386846857
  0
ARC
  8
_0-0_
  6
CONTINUOUS
 62
    7
 10
8.1769620839180757
 20
-9.3950567681519264
 40
0.4620313984312035
 50
99.257999343355507
 51
296.75032386846857
  0
ARC
  8
_0-0_
  6
CONTINUOUS
 62
    7
 10
6.2107048066670441
 20
-9.3554676954555962
 40
0.4620313984312035
 50
99.257999343355507
 51
296.75032386846857
  0
ARC
  8
_0-0_
  6
CONTINUOUS
 62
    7
 10
6.1183303037089356
 20
-10.754281597392586
 40
0.4620313984312035
 50
99.257999343355507
 51
296.75032386846857
  0
ARC
  8
_0-0_
  6
CONTINUOUS
 62
    7
 10
8.0977839385254153
 20
-10.859852457916128
 40
0.4620313984312035
 50
99.257999343355507
 51
296.75032386846857
  0
ENDBLK
  0
ENDSEC
  0
SECTION
  2
ENTITIES
  0
INSERT
  2
-000-1
  8
_0-0_
 10
146.98469387755097
 20
114.09183673469389
 41
1
 42
1
 50
0
  0
ENDSEC
  0
EOF
