  0
SECTION
  2
HEADER
  9
$ACADVER
  1
AC1009
  9
$INSBASE
 10
0
 20
0
 30
0
  9
$EXTMIN
 10
0
 20
0
  9
$EXTMAX
 10
297
 20
210
  9
$LIMMIN
 10
0
 20
0
  9
$LIMMAX
 10
297
 20
210
  9
$LTSCALE
 40
1
  0
ENDSEC
  0
SECTION
  2
TABLES
  0
TABLE
  2
LTYPE
 70
     9
  0
LTYPE
  2
CONTINUOUS
 70
    64
  3
実線
 72
    65
 73
     0
 40
0.0
  0
LTYPE
  2
DASHED1
 70
    64
  3
--  --  --  --  --  --  --  --  
 72
    65
 73
     2
 40
2.5
 49
1.25
 49
-1.25
  0
LTYPE
  2
DASHED2
 70
    64
  3
----    ----    ----    ----    
 72
    65
 73
     2
 40
5.0
 49
2.5
 49
-2.5
  0
LTYPE
  2
DASHED3
 70
    64
  3
------  ------  ------  ------  
 72
    65
 73
     2
 40
5.0
 49
3.75
 49
-1.25
  0
LTYPE
  2
CENTER1
 70
    64
  3
----- - ----- - ----- - ----- - 
 72
    65
 73
     4
 40
10.0
 49
6.25
 49
-1.25
 49
1.25
 49
-1.25
  0
LTYPE
  2
CENTER2
 70
    64
  3
----------  --  ----------  --  
 72
    65
 73
     4
 40
20.0
 49
12.5
 49
-2.5
 49
2.5
 49
-2.5
  0
LTYPE
  2
PHANTOM1
 70
    64
  3
--- - - --- - - --- - - --- - - 
 72
    65
 73
     6
 40
10.0
 49
3.25
 49
-1.25
 49
1.25
 49
-1.25
 49
1.25
 49
-1.25
  0
LTYPE
  2
PHANTOM2
 70
    64
  3
--------  -  -  --------  -  -  
 72
    65
 73
     6
 40
20.0
 49
10.0
 49
-2.5
 49
1.25
 49
-2.5
 49
1.25
 49
-2.5
  0
LTYPE
  2
DOT
 70
    64
  3
-   -   -   -   -   -   -   -   
 72
    65
 73
     2
 40
2.5
 49
0.625
 49
-1.875
  0
LTYPE
  2
DUMMY
 70
    64
  3
ダミー
 72
    65
 73
     0
 40
0.0
  0
LTYPE
  2
RAND1
 70
    64
  3
ランダム線1
 72
    65
 73
     4
 40
10.0
 49
1.0
 49
-2.0
 49
3.0
 49
-4.0
  0
LTYPE
  2
RAND2
 70
    64
  3
ランダム線2
 72
    65
 73
     4
 40
14.0
 49
2.0
 49
-3.0
 49
4.0
 49
-5.0
  0
LTYPE
  2
RAND3
 70
    64
  3
ランダム線3
 72
    65
 73
     4
 40
18.0
 49
3.0
 49
-4.0
 49
5.0
 49
-6.0
  0
LTYPE
  2
RAND4
 70
    64
  3
ランダム線4
 72
    65
 73
     4
 40
22.0
 49
4.0
 49
-5.0
 49
6.0
 49
-7.0
  0
LTYPE
  2
RAND5
 70
    64
  3
ランダム線5
 72
    65
 73
     4
 40
26.0
 49
5.0
 49
-6.0
 49
7.0
 49
-8.0
  0
LTYPE
  2
LONG1
 70
    64
  3
----------  --  ----------  --  
 72
    65
 73
     4
 40
40.0
 49
32.5
 49
-2.5
 49
2.5
 49
-2.5
  0
LTYPE
  2
LONG2
 70
    64
  3
--------  -  -  --------  -  -  
 72
    65
 73
     6
 40
40.0
 49
30.0
 49
-2.5
 49
1.25
 49
-2.5
 49
1.25
 49
-2.5
  0
LTYPE
  2
LONG3
 70
    64
  3
+++++++++++++++..+++++++++++++++
 72
    65
 73
     2
 40
40.0
 49
37.5
 49
-2.5
  0
LTYPE
  2
LONG4
 70
    64
  3
+++++++++++++++..+++++++++++++++
 72
    65
 73
     2
 40
80.0
 49
75.0
 49
-5.0
  0
LTYPE
  2
LONG5
 70
    64
  3
----------  --  ----------  --  
 72
    65
 73
     4
 40
60.0
 49
37.5
 49
-7.5
 49
7.5
 49
-7.5
  0
LTYPE
  2
dashed
 70
   64
  3
-------   -------------   ------
 72
   65
 73
    2
 40
7.5
 49
6
 49
-1.5
  0
LTYPE
  2
dashed_spaced
 70
   64
  3
----        --------        ----
 72
   65
 73
    2
 40
12
 49
6
 49
-6
  0
LTYPE
  2
long_dashed_dotted
 70
   64
  3
------------- --- --------------
 72
   65
 73
    4
 40
15.25
 49
12
 49
-1.5
 49
0.25
 49
-1.5
  0
LTYPE
  2
long_dashed_double-dotted
 70
   64
  3
----------- --- --- ------------
 72
   65
 73
    6
 40
17
 49
12
 49
-1.5
 49
0.25
 49
-1.5
 49
0.25
 49
-1.5
  0
LTYPE
  2
long_dashed_triplicate-dotted
 70
   64
  3
--------- --- --- --- ----------
 72
   65
 73
    8
 40
18.75
 49
12
 49
-1.5
 49
0.25
 49
-1.5
 49
0.25
 49
-1.5
 49
0.25
 49
-1.5
  0
LTYPE
  2
dotted
 70
   64
  3
   -       -       -       -    
 72
   65
 73
    2
 40
1.75
 49
0.25
 49
-1.5
  0
LTYPE
  2
chain
 70
   64
  3
-------------- -- --------------
 72
   65
 73
    4
 40
18.5
 49
12
 49
-1.5
 49
3.5
 49
-1.5
  0
LTYPE
  2
chain_double_dash
 70
   64
  3
------------ -- -- -------------
 72
   65
 73
    6
 40
23.5
 49
12
 49
-1.5
 49
3.5
 49
-1.5
 49
3.5
 49
-1.5
  0
LTYPE
  2
dashed_dotted
 70
   64
  3
-----------     -     ----------
 72
   65
 73
    4
 40
9.25
 49
6
 49
-1.5
 49
0.25
 49
-1.5
  0
LTYPE
  2
double-dashed_dotted
 70
   64
  3
------   -----------   -   -----
 72
   65
 73
    6
 40
16.75
 49
6
 49
-1.5
 49
6
 49
-1.5
 49
0.25
 49
-1.5
  0
LTYPE
  2
dashed_double-dotted
 70
   64
  3
---------    -    -    ---------
 72
   65
 73
    6
 40
11
 49
6
 49
-1.5
 49
0.25
 49
-1.5
 49
0.25
 49
-1.5
  0
LTYPE
  2
double-dashed_double-dotted
 70
   64
  3
-----   ---------   -   -   ----
 72
   65
 73
    8
 40
18.5
 49
6
 49
-1.5
 49
6
 49
-1.5
 49
0.25
 49
-1.5
 49
0.25
 49
-1.5
  0
LTYPE
  2
dashed_triplicate-dotted
 70
   64
  3
-------    -    -    -    ------
 72
   65
 73
    8
 40
12.75
 49
6
 49
-1.5
 49
0.25
 49
-1.5
 49
0.25
 49
-1.5
 49
0.25
 49
-1.5
  0
LTYPE
  2
double-dashed_triplicate-dotted
 70
   64
  3
-----  ---------  -  -  -  -----
 72
   65
 73
   10
 40
20.25
 49
6
 49
-1.5
 49
6
 49
-1.5
 49
0.25
 49
-1.5
 49
0.25
 49
-1.5
 49
0.25
 49
-1.5
  0
LTYPE
  2
undefined
 70
   64
  3
--------------------------------
 72
   65
 73
    0
 40
0
  0
LTYPE
  2
_
 70
   64
  3
                                
 72
   65
 73
    0
 40
0
  0
LTYPE
  2
__18
 70
   64
  3
                                
 72
   65
 73
    0
 40
0
  0
LTYPE
  2
__19
 70
   64
  3
                                
 72
   65
 73
    0
 40
0
  0
LTYPE
  2
__20
 70
   64
  3
                                
 72
   65
 73
    0
 40
0
  0
LTYPE
  2
__21
 70
   64
  3
                                
 72
   65
 73
    0
 40
0
  0
LTYPE
  2
__22
 70
   64
  3
                                
 72
   65
 73
    0
 40
0
  0
LTYPE
  2
__23
 70
   64
  3
                                
 72
   65
 73
    0
 40
0
  0
LTYPE
  2
__24
 70
   64
  3
                                
 72
   65
 73
    0
 40
0
  0
LTYPE
  2
__25
 70
   64
  3
                                
 72
   65
 73
    0
 40
0
  0
LTYPE
  2
__26
 70
   64
  3
                                
 72
   65
 73
    0
 40
0
  0
LTYPE
  2
__27
 70
   64
  3
                                
 72
   65
 73
    0
 40
0
  0
LTYPE
  2
__28
 70
   64
  3
                                
 72
   65
 73
    0
 40
0
  0
LTYPE
  2
__29
 70
   64
  3
                                
 72
   65
 73
    0
 40
0
  0
LTYPE
  2
__30
 70
   64
  3
                                
 72
   65
 73
    0
 40
0
  0
LTYPE
  2
__31
 70
   64
  3
                                
 72
   65
 73
    0
 40
0
  0
LTYPE
  2
__32
 70
   64
  3
                                
 72
   65
 73
    0
 40
0
  0
ENDTAB
  0
TABLE
  2
STYLE
  5
3
100
AcDbSymbolTable
 70
     1
  0
STYLE
  5
10
100
AcDbSymbolTableRecord
100
AcDbTextStyleTableRecord
  2
STANDARD
 70
     0
 40
0.0
 41
1.0
 50
0.0
 71
     0
 42
0.2
  3
txt
  4
bigfont.shx
  0
STYLE
  5
26
100
AcDbSymbolTableRecord
100
AcDbTextStyleTableRecord
  2
TATEGAKI
 70
    68
 40
0.0
 41
1.0
 50
0.0
 71
     0
 42
1.0
  3
txt
  4
bigfont.shx
  0
ENDTAB
  0
TABLE
  2
LAYER
 70
    2
  0
LAYER
  2
_0-0_
 70
   64
 62
    7
  6
CONTINUOUS
  0
LAYER
  2
ADD_LINE
 70
   64
 62
    7
  6
CONTINUOUS
  0
ENDTAB
  0
ENDSEC
  0
SECTION
  2
BLOCKS
  0
BLOCK
  2
-001-3
 70
   64
 10
0
 20
0
 30
0
  0
LINE
  8
_0-0_
  6
CONTINUOUS
 62
    7
 10
-21.803596120748779
 20
16.165278123823541
 11
13.606094507094696
 21
22.0005829463895
  0
LINE
  8
_0-0_
  6
CONTINUOUS
 62
    7
 10
14.667059020288519
 20
22.133203510538735
 11
17.584711431571492
 21
22.796306331284867
  0
LINE
  8
_0-0_
  6
CONTINUOUS
 62
    7
 10
17.584711431571492
 20
22.796306331284867
 11
17.651021713646116
 21
22.663685767135632
  0
LINE
  8
_0-0_
  6
CONTINUOUS
 62
    7
 10
17.651021713646116
 20
22.663685767135632
 11
15.860644097631564
 21
20.475446458673403
  0
LINE
  8
_0-0_
  6
CONTINUOUS
 62
    7
 10
17.651021713646116
 20
22.663685767135632
 11
19.57401989380989
 21
21.204859561494146
  0
LINE
  8
_0-0_
  6
CONTINUOUS
 62
    7
 10
17.584711431571492
 20
22.796306331284867
 11
24.348360203182068
 21
18.817689406808071
  0
ARC
  8
_0-0_
  6
CONTINUOUS
 62
    7
 10
13.720995983032566
 20
22.736851706803421
 40
1.1222416920234071
 50
278.95440596529647
 51
327.45954289726001
  0
LINE
  8
_0-0_
  6
CONTINUOUS
 62
    7
 10
13.606094507094696
 20
22.0005829463895
 11
13.885942270819868
 21
21.890967309521272
  0
LINE
  8
_0-0_
  6
CONTINUOUS
 62
    7
 10
-26.909487840494009
 20
-20.239066735139161
 11
14.79967958443774
 21
-24.947096762436701
  0
LINE
  8
_0-0_
  6
CONTINUOUS
 62
    7
 10
14.79967958443774
 20
-24.947096762436701
 11
17.186849739123829
 21
-23.024098582272913
  0
LINE
  8
_0-0_
  6
CONTINUOUS
 62
    7
 10
17.186849739123829
 20
-23.024098582272913
 11
19.57401989380989
 21
21.204859561494146
  0
LINE
  8
_0-0_
  6
CONTINUOUS
 62
    7
 10
17.186849739123829
 20
-23.024098582272913
 11
22.955844279615178
 21
-23.355649992645979
  0
LINE
  8
_0-0_
  6
CONTINUOUS
 62
    7
 10
22.955844279615178
 20
-23.355649992645979
 11
22.756913433391333
 21
-22.29468547945217
  0
LINE
  8
_0-0_
  6
CONTINUOUS
 62
    7
 10
22.955844279615178
 20
-23.355649992645979
 11
20.634984407003714
 21
-25.344958454884377
  0
LINE
  8
_0-0_
  6
CONTINUOUS
 62
    7
 10
20.634984407003714
 20
-25.344958454884377
 11
14.79967958443774
 21
-24.947096762436701
  0
LINE
  8
_0-0_
  6
CONTINUOUS
 62
    7
 10
16.523746918377697
 20
-23.223029428496758
 11
13.141922532572408
 21
-22.626236889825236
  0
LINE
  8
_0-0_
  6
CONTINUOUS
 62
    7
 10
13.141922532572408
 20
-22.626236889825236
 11
14.79967958443774
 21
-24.947096762436701
  0
LINE
  8
_0-0_
  6
CONTINUOUS
 62
    7
 10
13.141922532572408
 20
-22.626236889825236
 11
14.733369302363144
 21
-0.147051266531335
  0
LINE
  8
_0-0_
  6
CONTINUOUS
 62
    7
 10
14.79967958443774
 20
0.3171207079909521
 11
15.860644097631564
 21
20.475446458673403
  0
LINE
  8
_0-0_
  6
CONTINUOUS
 62
    7
 10
-28.368314046135495
 20
-18.183447990826139
 11
-25.516971916927133
 21
14.374900507808974
  0
LINE
  8
_0-0_
  6
CONTINUOUS
 62
    7
 10
-25.516971916927133
 20
14.374900507808974
 11
-23.660284018837956
 21
16.032657559674306
  0
LINE
  8
_0-0_
  6
CONTINUOUS
 62
    7
 10
-23.660284018837956
 20
16.032657559674306
 11
-22.135147531121845
 21
16.231588405898151
  0
LINE
  8
_0-0_
  6
CONTINUOUS
 62
    7
 10
-22.135147531121845
 20
16.231588405898151
 11
-21.803596120748779
 21
16.165278123823541
  0
LINE
  8
_0-0_
  6
CONTINUOUS
 62
    7
 10
19.57401989380989
 20
21.204859561494146
 11
15.966293566452094
 21
20.604573587231826
  0
LINE
  8
_0-0_
  6
CONTINUOUS
 62
    7
 10
24.348360203182068
 20
18.817689406808071
 11
25.077773306002797
 21
17.690414611539637
  0
LINE
  8
_0-0_
  6
CONTINUOUS
 62
    7
 10
25.077773306002797
 20
17.690414611539637
 11
19.57401989380989
 21
21.204859561494146
  0
LINE
  8
_0-0_
  6
CONTINUOUS
 62
    7
 10
25.077773306002797
 20
17.690414611539637
 11
24.746221895629731
 21
14.573831354032819
  0
LINE
  8
_0-0_
  6
CONTINUOUS
 62
    7
 10
24.679911613555134
 20
14.109659379510518
 11
24.016808792809002
 21
-0.5449129589790118
  0
LINE
  8
_0-0_
  6
CONTINUOUS
 62
    7
 10
-26.909487840494009
 20
-1.2080157797251445
 11
-25.450661634852509
 21
-1.2080157797251445
  0
LINE
  8
_0-0_
  6
CONTINUOUS
 62
    7
 10
-25.450661634852509
 20
-1.2080157797251445
 11
-21.670975556599558
 21
-0.9427746514266885
  0
LINE
  8
_0-0_
  6
CONTINUOUS
 62
    7
 10
-25.450661634852509
 20
-1.2080157797251445
 11
-27.174728968792465
 21
-4.4572196013811975
  0
LINE
  8
_0-0_
  6
CONTINUOUS
 62
    7
 10
-25.450661634852509
 20
-1.2080157797251445
 11
-24.190766275434854
 21
12.717143455943642
  0
LINE
  8
_0-0_
  6
CONTINUOUS
 62
    7
 10
-24.190766275434854
 20
12.717143455943642
 11
-25.516971916927133
 21
12.650833173869032
  0
LINE
  8
_0-0_
  6
CONTINUOUS
 62
    7
 10
-24.190766275434854
 20
12.717143455943642
 11
14.003956199542387
 21
17.955655739838093
  0
LINE
  8
_0-0_
  6
CONTINUOUS
 62
    7
 10
14.003956199542387
 20
17.955655739838093
 11
15.860644097631564
 21
20.475446458673403
  0
LINE
  8
_0-0_
  6
CONTINUOUS
 62
    7
 10
14.003956199542387
 20
17.955655739838093
 11
15.661713251407718
 21
18.486137996435005
  0
LINE
  8
_0-0_
  6
CONTINUOUS
 62
    7
 10
15.661713251407718
 20
18.486137996435005
 11
19.308778765511448
 21
17.823035175688872
  0
LINE
  8
_0-0_
  6
CONTINUOUS
 62
    7
 10
19.308778765511448
 20
17.823035175688872
 11
24.61360133148051
 21
14.374900507808974
  0
LINE
  8
_0-0_
  6
CONTINUOUS
 62
    7
 10
14.003956199542387
 20
17.955655739838093
 11
12.876681404273967
 21
-0.0807409844567246
  0
LINE
  8
_0-0_
  6
CONTINUOUS
 62
    7
 10
12.876681404273967
 20
-0.0807409844567246
 11
14.667059020288519
 21
-0.0144307023821141
  0
LINE
  8
_0-0_
  6
CONTINUOUS
 62
    7
 10
14.667059020288519
 20
-0.0144307023821141
 11
18.380434816466874
 21
-0.4786026769044013
  0
LINE
  8
_0-0_
  6
CONTINUOUS
 62
    7
 10
18.380434816466874
 20
-0.4786026769044013
 11
20.369743278705272
 21
-1.0090849335013132
  0
LINE
  8
_0-0_
  6
CONTINUOUS
 62
    7
 10
12.876681404273967
 20
-0.0807409844567246
 11
-25.450661634852509
 21
-1.2080157797251445
  0
LINE
  8
_0-0_
  6
CONTINUOUS
 62
    7
 10
-27.04210840464323
 20
-4.4572196013811975
 11
13.606094507094696
 21
-4.1256681910081312
  0
LINE
  8
_0-0_
  6
CONTINUOUS
 62
    7
 10
13.606094507094696
 20
-4.1256681910081312
 11
15.728023533482343
 21
19.81234363792727
  0
LINE
  8
_0-0_
  6
CONTINUOUS
 62
    7
 10
-25.450661634852509
 20
13.778107969137452
 11
-24.986489660330221
 21
14.175969661585142
  0
LINE
  8
_0-0_
  6
CONTINUOUS
 62
    7
 10
-24.986489660330221
 20
14.175969661585142
 11
-24.058145711285633
 21
14.374900507808974
  0
LINE
  8
_0-0_
  6
CONTINUOUS
 62
    7
 10
-22.665629787718757
 20
14.64014163610743
 11
11.285234634483231
 21
19.944964202076491
  0
LINE
  8
_0-0_
  6
CONTINUOUS
 62
    7
 10
13.937645917467762
 20
20.276515612449558
 11
15.966293566452094
 21
20.604573587231826
  0
LINE
  8
_0-0_
  6
CONTINUOUS
 62
    7
 10
-28.368314046135495
 20
-18.183447990826139
 11
-27.04210840464323
 21
-18.249758272900763
  0
LINE
  8
_0-0_
  6
CONTINUOUS
 62
    7
 10
-25.715902763150964
 20
-18.514999401199205
 11
8.5002027873494796
 21
-22.095754633228324
  0
LINE
  8
_0-0_
  6
CONTINUOUS
 62
    7
 10
10.887372942035569
 20
-22.493616325676008
 11
13.141922532572408
 21
-22.626236889825236
  0
LINE
  8
_0-0_
  6
CONTINUOUS
 62
    7
 10
-19.602124828561912
 20
-21.130722002038155
 11
-18.116533928568302
 21
-24.29737628886663
  0
LINE
  8
_0-0_
  6
CONTINUOUS
 62
    7
 10
-18.116533928568302
 20
-24.29737628886663
 11
-17.725588954885779
 21
-24.37556528360313
  0
LINE
  8
_0-0_
  6
CONTINUOUS
 62
    7
 10
-17.725588954885779
 20
-24.37556528360313
 11
-17.530116468044511
 21
-24.062809304657108
  0
LINE
  8
_0-0_
  6
CONTINUOUS
 62
    7
 10
-17.530116468044511
 20
-24.062809304657108
 11
23.558200265989086
 21
-29.966078407263268
  0
LINE
  8
_0-0_
  6
CONTINUOUS
 62
    7
 10
23.558200265989086
 20
-29.966078407263268
 11
24.770129684404935
 21
-30.513401370418812
  0
LINE
  8
_0-0_
  6
CONTINUOUS
 62
    7
 10
24.770129684404935
 20
-30.513401370418812
 11
19.805128518636849
 21
-7.8385928968322247
  0
LINE
  8
_0-0_
  6
CONTINUOUS
 62
    7
 10
20.391545979160639
 20
-7.8776873942004784
 11
25.278358150192219
 21
-29.926983909895021
  0
LINE
  8
_0-0_
  6
CONTINUOUS
 62
    7
 10
24.92650767387795
 20
-30.591590365155312
 11
29.578752860700007
 21
-28.285015020428403
  0
LINE
  8
_0-0_
  6
CONTINUOUS
 62
    7
 10
29.578752860700007
 20
-28.285015020428403
 11
25.395641642296994
 21
-7.0957974468354195
  0
LINE
  8
_0-0_
  6
CONTINUOUS
 62
    7
 10
24.574657197563681
 20
-2.1307962810673331
 11
24.809224181773203
 21
-3.5772926836926757
  0
LINE
  8
_0-0_
  6
CONTINUOUS
 62
    7
 10
-13.642247557791933
 20
-21.704522979334826
 11
-12.770382164254514
 21
-22.425488593221537
  0
LINE
  8
_0-0_
  6
CONTINUOUS
 62
    7
 10
-12.770382164254514
 20
-22.425488593221537
 11
-12.300916183118972
 21
-22.794354721256603
  0
LINE
  8
_0-0_
  6
CONTINUOUS
 62
    7
 10
-12.300916183118972
 20
-22.794354721256603
 11
-5.9295921534224192
 21
-23.565620261693553
  0
LINE
  8
_0-0_
  6
CONTINUOUS
 62
    7
 10
-13.223081503206629
 20
-22.794354721256603
 11
-17.615941755260579
 21
-23.817119894444737
  0
LINE
  8
_0-0_
  6
CONTINUOUS
 62
    7
 10
17.795206536105553
 20
-26.399182790690176
 11
23.942975336689955
 21
-27.136915046760308
  0
LINE
  8
_0-0_
  6
CONTINUOUS
 62
    7
 10
-24.190766275434854
 20
12.717143455943642
 11
-20.392107366306575
 21
11.760807694830476
  0
LINE
  8
_0-0_
  6
CONTINUOUS
 62
    7
 10
-21.50354691240274
 20
13.050077568302029
 11
-18.636032883474627
 21
11.894180440362021
  0
LINE
  8
_0-0_
  6
CONTINUOUS
 62
    7
 10
-20.503251320916192
 20
13.227907895677419
 11
-17.502364546456533
 21
12.027553185893566
  0
LINE
  8
_0-0_
  6
CONTINUOUS
 62
    7
 10
-17.324534219081144
 20
12.494357795253947
 11
-16.746585655111133
 21
13.094535150145887
  0
LINE
  8
_0-0_
  6
CONTINUOUS
 62
    7
 10
-16.746585655111133
 20
13.094535150145887
 11
-15.546230945327267
 21
13.227907895677419
  0
LINE
  8
_0-0_
  6
CONTINUOUS
 62
    7
 10
-16.946644773408451
 20
12.22761230419087
 11
-16.502068954969971
 21
12.850018450004725
  0
LINE
  8
_0-0_
  6
CONTINUOUS
 62
    7
 10
-16.502068954969971
 20
12.850018450004725
 11
-15.27948545426419
 21
13.005619986458186
  0
LINE
  8
_0-0_
  6
CONTINUOUS
 62
    7
 10
-16.857729609720749
 20
13.716941295959742
 11
-14.079130744480324
 21
12.472129004332032
  0
LINE
  8
_0-0_
  6
CONTINUOUS
 62
    7
 10
-15.7685188545465
 20
13.80585645964743
 11
-13.234436689447236
 21
12.627730540785493
  0
LINE
  8
_0-0_
  6
CONTINUOUS
 62
    7
 10
-15.257256663342261
 20
13.872542832413203
 11
-13.034377571149932
 21
12.894476031848569
  0
LINE
  8
_0-0_
  6
CONTINUOUS
 62
    7
 10
-14.012444371714551
 20
13.983686787022819
 11
-13.012148780228003
 21
13.294594268443191
  0
LINE
  8
_0-0_
  6
CONTINUOUS
 62
    7
 10
-13.012148780228003
 20
13.294594268443191
 11
-2.5423882560020843
 21
14.672779305602447
  0
LINE
  8
_0-0_
  6
CONTINUOUS
 62
    7
 10
-2.5423882560020843
 20
14.672779305602447
 11
-2.4312443013924678
 21
14.89506721482168
  0
LINE
  8
_0-0_
  6
CONTINUOUS
 62
    7
 10
-3.5426838474886466
 20
15.295185451416302
 11
-1.4754062917497635
 21
14.361576232695512
  0
LINE
  8
_0-0_
  6
CONTINUOUS
 62
    7
 10
-3.0536504472063228
 20
15.561930942479378
 11
-0.8974577277797521
 21
14.517177769148972
  0
LINE
  8
_0-0_
  6
CONTINUOUS
 62
    7
 10
-2.2756427649390076
 20
15.717532478932839
 11
-0.0083060909028205
 21
14.606092932836674
  0
LINE
  8
_0-0_
  6
CONTINUOUS
 62
    7
 10
-1.0308304733112976
 20
15.784218851698611
 11
0.0361514909410232
 21
15.05066875127514
  0
LINE
  8
_0-0_
  6
CONTINUOUS
 62
    7
 10
0.0361514909410232
 20
15.05066875127514
 11
13.395654835016984
 21
16.784514443185174
  0
LINE
  8
_0-0_
  6
CONTINUOUS
 62
    7
 10
13.395654835016984
 20
16.784514443185174
 11
12.128613752467345
 21
17.718123661905949
  0
LINE
  8
_0-0_
  6
CONTINUOUS
 62
    7
 10
12.928850225656589
 20
17.673666080062105
 11
13.79577307161162
 21
17.006802352404407
  0
LINE
  8
_0-0_
  6
CONTINUOUS
 62
    7
 10
13.729086698845833
 20
17.762581243749793
 11
13.84023065345545
 21
17.562522125452489
  0
LINE
  8
_0-0_
  6
CONTINUOUS
 62
    7
 10
-21.001584521482158
 20
11.596360006887693
 11
11.980951069914568
 21
15.750648840918572
  0
LINE
  8
_0-0_
  6
CONTINUOUS
 62
    7
 10
12.232726150764933
 20
15.196743663047798
 11
11.552933432468961
 21
4.219350137972242
  0
LINE
  8
_0-0_
  6
CONTINUOUS
 62
    7
 10
9.6142653099212225
 20
3.2122498145708107
 11
-21.555489699352947
 21
1.5253567728734225
  0
LINE
  8
_0-0_
  6
CONTINUOUS
 62
    7
 10
-21.177827078077414
 20
2.1547944749993206
 11
10.042282947366829
 21
3.7157999762715264
  0
LINE
  8
_0-0_
  6
CONTINUOUS
 62
    7
 10
11.04938327076826
 20
12.125087676673445
 11
10.495478092897457
 21
4.2445276460572785
  0
LINE
  8
_0-0_
  6
CONTINUOUS
 62
    7
 10
11.024205762683209
 20
4.1438176137171325
 11
11.477400908213866
 21
12.830057903054438
  0
LINE
  8
_0-0_
  6
CONTINUOUS
 62
    7
 10
13.416069030761605
 20
14.08893330730622
 11
12.660743788210539
 21
2.5828121124449268
  0
LINE
  8
_0-0_
  6
CONTINUOUS
 62
    7
 10
11.729175989064203
 20
14.869436057942337
 11
-21.20300458616245
 21
11.067632337101941
  0
LINE
  8
_0-0_
  6
CONTINUOUS
 62
    7
 10
-22.487057498499269
 20
9.8087569328501587
 11
-23.242382741050335
 21
1.1225166435128529
  0
LINE
  8
_0-0_
  6
CONTINUOUS
 62
    7
 10
-22.184927401478845
 20
9.7584019166800857
 11
-22.889897627859838
 21
1.7267768375537003
  0
LINE
  8
_0-0_
  6
CONTINUOUS
 62
    7
 10
-20.976407013397136
 20
8.8771891337038227
 11
-21.505134683182888
 21
2.7086996528700951
  0
LINE
  8
_0-0_
  6
CONTINUOUS
 62
    7
 10
-22.310814941904027
 20
2.4821020801047666
 11
-21.807264780203312
 21
9.1793192307242606
  0
LINE
  8
_0-0_
  6
CONTINUOUS
 62
    7
 10
-20.195904262761033
 20
9.0030766741290051
 11
10.268880520132114
 21
12.099910168588394
  0
LINE
  8
_0-0_
  6
CONTINUOUS
 62
    7
 10
9.966750423111705
 20
13.258075540500045
 11
-20.749809440631822
 21
9.884289457105254
  0
LINE
  8
_0-0_
  6
CONTINUOUS
 62
    7
 10
-21.832442288288348
 20
-0.5140213820144907
 11
11.049383270768232
 21
0.56861146564205
  0
ARC
  8
_0-0_
  6
CONTINUOUS
 62
    7
 10
-20.439219984053238
 20
9.6180378990194697
 40
2.0566993546548855
 50
105.86850994945934
 51
174.67928196524394
  0
ARC
  8
_0-0_
  6
CONTINUOUS
 62
    7
 10
-19.931540427868157
 20
9.09119795242664
 40
2.3500880797863313
 50
122.75366714031942
 51
163.50653756799232
  0
ARC
  8
_0-0_
  6
CONTINUOUS
 62
    7
 10
-20.767324228864908
 20
8.7649850215857583
 40
1.1194414621499653
 50
89.10351329068547
 51
158.27662176127359
  0
ARC
  8
_0-0_
  6
CONTINUOUS
 62
    7
 10
-20.321791803186215
 20
7.3010771275806405
 40
1.7066488008038243
 50
85.76984929197036
 51
112.55484479947324
  0
ARC
  8
_0-0_
  6
CONTINUOUS
 62
    7
 10
-20.80667588130683
 20
2.747768199898502
 40
0.6995506052352874
 50
183.20152410115023
 51
237.95692964383005
  0
ARC
  8
_0-0_
  6
CONTINUOUS
 62
    7
 10
-21.314947660571363
 20
2.4917857370605105
 40
0.9959143613990786
 50
180.55711759805254
 51
256.02320878643428
  0
ARC
  8
_0-0_
  6
CONTINUOUS
 62
    7
 10
-21.868330669978633
 20
0.8806873738673175
 40
1.3951704159971792
 50
170.01832824227358
 51
271.47399888548682
  0
ARC
  8
_0-0_
  6
CONTINUOUS
 62
    7
 10
8.242091119287096
 20
5.7174118690315225
 40
2.6920514087073704
 50
311.96729738382282
 51
326.83011332617031
  0
ARC
  8
_0-0_
  6
CONTINUOUS
 62
    7
 10
9.8444072891645362
 20
4.3966926827847885
 40
1.2065944797955017
 50
259.00421343329106
 51
347.90240547485433
  0
ARC
  8
_0-0_
  6
CONTINUOUS
 62
    7
 10
10.00162467417536
 20
3.058462873294701
 40
2.7013252504880185
 50
292.8219274425789
 51
349.85845604924111
  0
ARC
  8
_0-0_
  6
CONTINUOUS
 62
    7
 10
10.448435906738553
 20
11.667254569127067
 40
0.4684346321576055
 50
16.179164055834754
 51
112.53882429555625
  0
ARC
  8
_0-0_
  6
CONTINUOUS
 62
    7
 10
9.973663322730232
 20
10.402611393780006
 40
2.8554725145560003
 50
58.222902887096502
 51
90.138709217903127
  0
ARC
  8
_0-0_
  6
CONTINUOUS
 62
    7
 10
11.793302595226947
 20
14.138020999243693
 40
1.62350870210097
 50
358.26736605996319
 51
83.362801689799795
  0
ARC
  8
_0-0_
  6
CONTINUOUS
 62
    7
 10
-23.614058354033915
 20
14.740347407394225
 40
0.5927157517528685
 50
196.21427536097838
 51
279.92436043158398
  0
ARC
  8
_0-0_
  6
CONTINUOUS
 62
    7
 10
-23.632860250861015
 20
15.01375451049806
 40
0.8657446479052866
 50
278.03120196692907
 51
333.20577771157548
  0
ARC
  8
_0-0_
  6
CONTINUOUS
 62
    7
 10
-23.609193909796261
 20
14.769420946207489
 40
0.7632063426215818
 50
348.97654403625148
 51
17.049030972119212
  0
ARC
  8
_0-0_
  6
CONTINUOUS
 62
    7
 10
-23.182794969626457
 20
14.262074613651919
 40
0.7915138971557866
 50
67.471129026156845
 51
108.50976334779935
  0
ARC
  8
_0-0_
  6
CONTINUOUS
 62
    7
 10
-23.091046728802766
 20
13.565867980871801
 40
1.4868846846252504
 50
103.33840168396431
 51
137.26695975701276
  0
ARC
  8
_0-0_
  6
CONTINUOUS
 62
    7
 10
12.701420071619339
 20
19.099857304955904
 40
1.4742269222539413
 50
98.442361227896725
 51
143.14410653658211
  0
ARC
  8
_0-0_
  6
CONTINUOUS
 62
    7
 10
13.03089416422003
 20
18.447361589232287
 40
2.1802011023506758
 50
82.07758760296791
 51
104.5008977540159
  0
ARC
  8
_0-0_
  6
CONTINUOUS
 62
    7
 10
13.098226600670102
 20
20.343101153232723
 40
0.3519668096546414
 50
335.67837855712361
 51
48.511135596898832
  0
ARC
  8
_0-0_
  6
CONTINUOUS
 62
    7
 10
12.308754593227832
 20
20.5135589853559
 40
1.1541382127481588
 50
299.33235572854812
 51
344.13966669969307
  0
ARC
  8
_0-0_
  6
CONTINUOUS
 62
    7
 10
12.446066776597945
 20
20.690260323630056
 40
1.2579459172223881
 50
250.10523005401626
 51
289.89476994598641
  0
ARC
  8
_0-0_
  6
CONTINUOUS
 62
    7
 10
12.215143348279355
 20
20.209154550971917
 40
0.7289315477808332
 50
197.98323546385109
 51
254.30829021249903
  0
ARC
  8
_0-0_
  6
CONTINUOUS
 62
    7
 10
13.649968403020154
 20
22.165126527668875
 40
0.5903949344027213
 50
207.66918566693676
 51
294.59281542294286
  0
ARC
  8
_0-0_
  6
CONTINUOUS
 62
    7
 10
14.095113373021036
 20
21.934747307656409
 40
0.2137036224137624
 50
191.82148834060933
 51
281.82148834060933
  0
LINE
  8
_0-0_
  6
CONTINUOUS
 62
    7
 10
24.746221895629731
 20
14.573831354032819
 11
24.679911613555134
 21
14.109659379510518
  0
LINE
  8
_0-0_
  6
CONTINUOUS
 62
    7
 10
23.950694283710362
 20
-3.6956375736860281
 11
25.846980647851467
 21
-3.6956375736860281
  0
LINE
  8
_0-0_
  6
CONTINUOUS
 62
    7
 10
25.654137966752359
 20
-6.909682258670955
 11
23.565008921512174
 21
-6.909682258670955
  0
ARC
  8
_0-0_
  6
CONTINUOUS
 62
    7
 10
29.969709371199571
 20
-5.7352658128719867
 40
10.379917568574692
 50
150.20825094853527
 51
191.69104676940904
  0
ARC
  8
_0-0_
  6
CONTINUOUS
 62
    7
 10
28.4829078831971
 20
-5.637146389928759
 40
8.3958419145381349
 50
146.17637194300613
 51
195.47769222161057
  0
ARC
  8
_0-0_
  6
CONTINUOUS
 62
    7
 10
23.089056772416484
 20
-1.9614211223834701
 40
1.8695252090541472
 50
71.134263960068026
 51
147.74580569628367
  0
ARC
  8
_0-0_
  6
CONTINUOUS
 62
    7
 10
22.630289102537745
 20
-2.5383924256395005
 40
2.5743925057353518
 50
73.996806074163416
 51
130.40413138059799
  0
ARC
  8
_0-0_
  6
CONTINUOUS
 62
    7
 10
21.855260659417809
 20
-2.3528493386580038
 40
2.728447377551023
 50
4.6681456256691325
 51
57.031388536790359
  0
ARC
  8
_0-0_
  6
CONTINUOUS
 62
    7
 10
26.551279218820696
 20
-4.8933489673218844
 40
1.3894419957358624
 50
120.45710188717047
 51
169.416437534887
  0
ARC
  8
_0-0_
  6
CONTINUOUS
 62
    7
 10
28.038402061876212
 20
-5.0311254844045834
 40
2.8798655760826821
 50
172.15718854471751
 51
205.41340889105089
  0
ARC
  8
_0-0_
  6
CONTINUOUS
 62
    7
 10
26.21683803415425
 20
-6.0689553842382935
 40
0.8043942346750179
 50
194.25368371251653
 51
251.03972255526605
  0
ARC
  8
_0-0_
  6
CONTINUOUS
 62
    7
 10
25.627210973309246
 20
-5.7815738358528108
 40
1.0983363335457241
 50
287.39026423531169
 51
359.39558613947264
  0
ARC
  8
_0-0_
  6
CONTINUOUS
 62
    7
 10
24.098170945650793
 20
-5.4425004163937842
 40
2.6506126748847616
 50
352.39783878787296
 51
20.716054208454008
  0
ARC
  8
_0-0_
  6
CONTINUOUS
 62
    7
 10
25.572215926341727
 20
-4.6779073398874971
 40
1.0199752672392572
 50
9.766770938030394
 51
74.372402698916758
  0
ARC
  8
_0-0_
  6
CONTINUOUS
 62
    7
 10
25.933268535413333
 20
-7.3537189639302056
 40
0.5244830502299296
 50
87.572813911534269
 51
122.15430977394628
  0
ARC
  8
_0-0_
  6
CONTINUOUS
 62
    7
 10
26.89937894281374
 20
-5.8731724380579493
 40
3.491758303087694
 50
178.68697177279049
 51
197.2681845248442
  0
ARC
  8
_0-0_
  6
CONTINUOUS
 62
    7
 10
29.886459336827983
 20
-5.6307677036339783
 40
6.4799569996195352
 50
170.39274356398755
 51
181.43602287606373
  0
ARC
  8
_0-0_
  6
CONTINUOUS
 62
    7
 10
24.506397972451197
 20
-4.5379152304056305
 40
1.0090779160645789
 50
123.4153539315366
 51
180.64668430648641
  0
ARC
  8
_0-0_
  6
CONTINUOUS
 62
    7
 10
23.183356704192875
 20
-3.8454227859600394
 40
0.6086346221253404
 50
25.146117667308115
 51
79.901523209971003
  0
ARC
  8
_0-0_
  6
CONTINUOUS
 62
    7
 10
23.738594958068461
 20
-4.8039415418443525
 40
1.6210105366294671
 50
106.0628450678735
 51
166.1547791876456
  0
ARC
  8
_0-0_
  6
CONTINUOUS
 62
    7
 10
26.028932831319707
 20
-5.6917045161840747
 40
4.0693699742981684
 50
161.73085675712201
 51
189.60451527650082
  0
ARC
  8
_0-0_
  6
CONTINUOUS
 62
    7
 10
23.909041356412189
 20
-5.9738152260451045
 40
1.9336002039664351
 50
191.84346140979659
 51
226.55151068233204
  0
ARC
  8
_0-0_
  6
CONTINUOUS
 62
    7
 10
22.938389625736278
 20
-6.9666786668054783
 40
0.545708362524214
 50
228.85063882390648
 51
323.82974466791268
  0
ARC
  8
_0-0_
  6
CONTINUOUS
 62
    7
 10
22.649193160441399
 20
-6.4210109890723146
 40
1.1337867178755816
 50
310.06234644523909
 51
334.80046949710402
  0
ARC
  8
_0-0_
  6
CONTINUOUS
 62
    7
 10
23.327969075510623
 20
-6.3532271606443942
 40
0.6155189910136457
 50
178.86630253144139
 51
293.29883639461889
  0
ARC
  8
_0-0_
  6
CONTINUOUS
 62
    7
 10
26.325964951687268
 20
-5.5970599514222101
 40
3.6891921053190013
 50
158.6365043689816
 51
191.63446675549832
  0
ARC
  8
_0-0_
  6
CONTINUOUS
 62
    7
 10
23.61031992586345
 20
-4.4914286367021674
 40
0.7584575084544454
 50
94.060360278907439
 51
161.68960702328698
  0
ARC
  8
_0-0_
  6
CONTINUOUS
 62
    7
 10
24.022016211232938
 20
-5.1476267156605076
 40
1.7704266321967641
 50
118.16252737432522
 51
182.68179526315279
  0
ARC
  8
_0-0_
  6
CONTINUOUS
 62
    7
 10
23.624797770948049
 20
-5.8880976561895295
 40
1.4157194629701892
 50
180.35278813399606
 51
243.53671741841129
  0
ARC
  8
_0-0_
  6
CONTINUOUS
 62
    7
 10
-11.970351561744934
 20
-23.826130515452519
 40
0.1450004516904827
 50
81.027373385105648
 51
278.97262661489435
  0
ARC
  8
_0-0_
  6
CONTINUOUS
 62
    7
 10
-11.440459422480643
 20
-24.826052502097859
 40
1.2506470129686582
 50
93.211381897081168
 51
113.92948687324285
  0
ARC
  8
_0-0_
  6
CONTINUOUS
 62
    7
 10
-11.202731342811703
 20
-25.320485721951044
 40
1.7700815057210462
 50
75.405050363309229
 51
100.01372955141264
  0
ARC
  8
_0-0_
  6
CONTINUOUS
 62
    7
 10
-7.5179273187726636
 20
-24.149386891622896
 40
0.1534274001005659
 50
323.46128814257281
 51
77.650802296595231
  0
ARC
  8
_0-0_
  6
CONTINUOUS
 62
    7
 10
-7.91479214274041
 20
-22.039573671021209
 40
2.2617784305029396
 50
269.04515874612775
 51
283.2951914439318
  0
LINE
  8
_0-0_
  6
CONTINUOUS
 62
    7
 10
-11.947736918144543
 20
-23.969356591588365
 11
-7.9524832154077387
 21
-24.301038031060855
  0
LINE
  8
_0-0_
  6
CONTINUOUS
 62
    7
 10
-7.4851139143328709
 20
-23.999509449722225
 11
-10.75669902185696
 21
-23.607522293982015
  0
ARC
  8
_0-0_
  6
CONTINUOUS
 62
    7
 10
-0.0529603062799708
 20
-37.598623775408896
 40
13.685056321965307
 50
94.420659485309741
 51
107.43454482663481
  0
ARC
  8
_0-0_
  6
CONTINUOUS
 62
    7
 10
8.193702251761664
 20
-163.28075416226858
 40
139.63661415076263
 50
91.800196537726876
 51
93.8194197344137
  0
ARC
  8
_0-0_
  6
CONTINUOUS
 62
    7
 10
-3.9647677272044035
 20
-23.564805744959202
 40
1.27787992224233
 50
261.5193716660836
 51
287.5086052499197
  0
ARC
  8
_0-0_
  6
CONTINUOUS
 62
    7
 10
-0.1961445659920144
 20
-34.486203234745801
 40
10.275962258281426
 50
89.534955831023339
 51
109.22806449047322
  0
ARC
  8
_0-0_
  6
CONTINUOUS
 62
    7
 10
2.4174228597225635
 20
-41.265754613324155
 40
17.241830651944277
 50
82.656413796336807
 51
98.438376705418634
  0
ARC
  8
_0-0_
  6
CONTINUOUS
 62
    7
 10
5.2881414818672141
 20
-41.392549175336889
 40
17.240102039461284
 50
80.447551376871914
 51
92.216872512065123
  0
ARC
  8
_0-0_
  6
CONTINUOUS
 62
    7
 10
6.7279437771729391
 20
-36.66157950096914
 40
12.352114862377624
 50
73.822650272599404
 51
83.393078064295977
  0
ARC
  8
_0-0_
  6
CONTINUOUS
 62
    7
 10
9.3358228940853678
 20
-28.556006781395851
 40
3.8487958992960523
 50
57.466946311815839
 51
77.491922482390478
  0
ARC
  8
_0-0_
  6
CONTINUOUS
 62
    7
 10
11.031002444218757
 20
-25.876524868555173
 40
0.6782336511004349
 50
355.5378009250519
 51
56.468890763966776
  0
ARC
  8
_0-0_
  6
CONTINUOUS
 62
    7
 10
10.652907140975998
 20
-25.403771128527858
 40
1.1779916993790016
 50
294.92512917781949
 51
333.50522161619773
  0
ARC
  8
_0-0_
  6
CONTINUOUS
 62
    7
 10
9.6592986729461074
 20
-24.476929703508858
 40
2.4901286053321812
 50
290.86732193238072
 51
306.75426555356523
  0
ARC
  8
_0-0_
  6
CONTINUOUS
 62
    7
 10
10.877976689189467
 20
-26.653499409397391
 40
0.3641158913443943
 50
204.36682184761375
 51
277.13552547928731
  0
ARC
  8
_0-0_
  6
CONTINUOUS
 62
    7
 10
11.581871127437552
 20
-24.255480995402372
 40
2.8368389113889911
 50
256.57438460208391
 51
278.65372733713826
  0
ARC
  8
_0-0_
  6
CONTINUOUS
 62
    7
 10
10.788355694179785
 20
-21.392962379926338
 40
5.7969695112869131
 50
282.15257609922969
 51
297.23146637824306
  0
ARC
  8
_0-0_
  6
CONTINUOUS
 62
    7
 10
13.126184189187569
 20
-25.853910224954781
 40
0.7616127307765733
 50
294.41320541719136
 51
9.1119035064738281
  0
ARC
  8
_0-0_
  6
CONTINUOUS
 62
    7
 10
11.899496687919623
 20
-27.409448372769042
 40
2.5932005515096175
 50
40.267965657763419
 51
62.94170533574453
  0
ARC
  8
_0-0_
  6
CONTINUOUS
 62
    7
 10
10.374608567689535
 20
-31.238964541881749
 40
6.7082233673994214
 50
66.223757408008723
 51
80.767519828481227
  0
ARC
  8
_0-0_
  6
CONTINUOUS
 62
    7
 10
2.5121972993324704
 20
-25.561667849925492
 40
0.2636360553278671
 50
133.82469460513488
 51
276.20909235106473
  0
ARC
  8
_0-0_
  6
CONTINUOUS
 62
    7
 10
3.0487520132690662
 20
-26.30743024816578
 40
1.1803185814496837
 50
94.173530870021338
 51
127.53538520913521
  0
ARC
  8
_0-0_
  6
CONTINUOUS
 62
    7
 10
3.2443063379797934
 20
-28.164245930902709
 40
3.0470311723416308
 50
76.164235124722282
 51
95.299978274696073
  0
ARC
  8
_0-0_
  6
CONTINUOUS
 62
    7
 10
3.7802981793767998
 20
-25.491453505964934
 40
0.344705532651434
 50
325.22269317855978
 51
56.01661737375278
  0
ARC
  8
_0-0_
  6
CONTINUOUS
 62
    7
 10
3.4377589446588672
 20
-24.76589459395786
 40
1.114393007932736
 50
261.83335697508824
 51
304.15587660874382
  0
ARC
  8
_0-0_
  6
CONTINUOUS
 62
    7
 10
3.1285499183238699
 20
-22.278094157296678
 40
3.5940620057473041
 50
260.58650930452137
 51
272.40642740591056
  0
ARC
  8
_0-0_
  6
CONTINUOUS
 62
    7
 10
16.057836600584352
 20
-27.548556178423055
 40
0.1940077210412091
 50
74.556792028911502
 51
228.22228863915436
  0
ARC
  8
_0-0_
  6
CONTINUOUS
 62
    7
 10
16.444091506865931
 20
-28.676628921622509
 40
1.3569736299358863
 50
73.338170923926199
 51
104.27485022810825
  0
ARC
  8
_0-0_
  6
CONTINUOUS
 62
    7
 10
21.853617049915471
 20
-28.371673879132288
 40
0.3957383144700732
 50
17.744671625055641
 51
72.255328374947609
  0
ARC
  8
_0-0_
  6
CONTINUOUS
 62
    7
 10
21.815925977248128
 20
-27.87415171992356
 40
0.5603180774326911
 50
264.59620863974828
 51
317.72631099390475
  0
LINE
  8
_0-0_
  6
CONTINUOUS
 62
    7
 10
15.928580426611433
 20
-27.693234571120392
 11
21.763158475513848
 21
-28.43197959540003
  0
LINE
  8
_0-0_
  6
CONTINUOUS
 62
    7
 10
21.974228482450883
 20
-27.994763152459022
 11
16.833166170627322
 21
-27.376629560714846
  0
ARC
  8
_0-0_
  6
CONTINUOUS
 62
    7
 10
14.772981009758638
 20
-28.447910511851056
 40
3.6511823300892554
 50
34.132839183716086
 51
66.479080339204231
  0
ARC
  8
_0-0_
  6
CONTINUOUS
 62
    7
 10
-26.472027045137182
 20
-18.576233564530554
 40
0.656946628350451
 50
90.207349021290909
 51
150.20101273387831
  0
ARC
  8
_0-0_
  6
CONTINUOUS
 62
    7
 10
-26.565713139539113
 20
-18.816298099927167
 40
0.9016421583267547
 50
19.521867584027838
 51
84.187733543166956
  0
ARC
  8
_0-0_
  6
CONTINUOUS
 62
    7
 10
-26.50109639905412
 20
-18.324916910056189
 40
0.5462076628267118
 50
172.09095869778955
 51
262.09738216318368
  0
ARC
  8
_0-0_
  6
CONTINUOUS
 62
    7
 10
-26.321579546561068
 20
-18.084909947621796
 40
0.8214818925179953
 50
251.94403775642223
 51
310.10287417106406
  0
ARC
  8
_0-0_
  6
CONTINUOUS
 62
    7
 10
-26.119485205240935
 20
-18.473139510388179
 40
0.405747505256674
 50
323.71662562757473
 51
354.07841057856257
  0
ARC
  8
_0-0_
  6
CONTINUOUS
 62
    7
 10
9.7130510986158072
 20
-23.004491105125091
 40
1.2701435060386987
 50
93.267617987488507
 51
140.37634441567505
  0
ARC
  8
_0-0_
  6
CONTINUOUS
 62
    7
 10
9.503835590127693
 20
-23.169554571510695
 40
1.4396579241814409
 50
30.036020387919368
 51
84.54667713781329
  0
ARC
  8
_0-0_
  6
CONTINUOUS
 62
    7
 10
10.046957309215173
 20
-22.609152280612236
 40
0.7056283653515222
 50
267.58920551959869
 51
4.7490731362165368
  0
ARC
  8
_0-0_
  6
CONTINUOUS
 62
    7
 10
9.9664921315943502
 20
-22.022814911663438
 40
1.2923393813968003
 50
206.10405679712201
 51
272.25207203229058
  0
ARC
  8
_0-0_
  6
CONTINUOUS
 62
    7
 10
9.2250110904285805
 20
-22.277595595738184
 40
0.5425878200144412
 50
184.12390756031121
 51
207.76688424152945
  0
LINE
  8
_0-0_
  6
CONTINUOUS
 62
    7
 10
-20.363190931692088
 20
8.6241637249148368
 11
-20.90030132151827
 21
2.7290496902371046
  0
LINE
  8
_0-0_
  6
CONTINUOUS
 62
    7
 10
-19.983283582790634
 20
8.7682665124291788
 11
10.30450230204255
 21
11.873026570692801
  0
LINE
  8
_0-0_
  6
CONTINUOUS
 62
    7
 10
9.0992789882862155
 20
3.9866740176350248
 11
-20.7692987874143
 21
2.4146436083876353
  0
ARC
  8
_0-0_
  6
CONTINUOUS
 62
    7
 10
-20.338627956547626
 20
2.7785850234451885
 40
0.5638534545016892
 50
185.04001352138832
 51
220.19971637470107
  0
ARC
  8
_0-0_
  6
CONTINUOUS
 62
    7
 10
-20.068435229958226
 20
8.4199188649255348
 40
0.3586040804796756
 50
76.263731694372041
 51
145.28077766971697
  0
ARC
  8
_0-0_
  6
CONTINUOUS
 62
    7
 10
9.2936272630518602
 20
5.5461555871998911
 40
1.5277535375715372
 50
269.38899352072258
 51
319.79124081166862
  0
ARC
  8
_0-0_
  6
CONTINUOUS
 62
    7
 10
9.1874940450533416
 20
7.5318669720228968
 40
4.4825633411370722
 50
68.34899303261929
 51
75.570436717033715
  0
LINE
  8
_0-0_
  6
CONTINUOUS
 62
    7
 10
-20.105593535862354
 20
8.0299754782366364
 11
-19.73718869323524
 21
8.0615530361761074
  0
LINE
  8
_0-0_
  6
CONTINUOUS
 62
    7
 10
-19.73718869323524
 20
8.0615530361761074
 11
-19.695085282649288
 21
8.5667939632075729
  0
LINE
  8
_0-0_
  6
CONTINUOUS
 62
    7
 10
-18.750390007626891
 20
8.1326025415398959
 11
-18.381985164999776
 21
8.164180099479367
  0
LINE
  8
_0-0_
  6
CONTINUOUS
 62
    7
 10
-18.381985164999776
 20
8.164180099479367
 11
-18.339881754413824
 21
8.6694210265108325
  0
LINE
  8
_0-0_
  6
CONTINUOUS
 62
    7
 10
-17.487287690048205
 20
8.2694386259442467
 11
-17.118882847421091
 21
8.3010161838837178
  0
LINE
  8
_0-0_
  6
CONTINUOUS
 62
    7
 10
-17.118882847421091
 20
8.3010161838837178
 11
-17.076779436835139
 21
8.8062571109151833
  0
LINE
  8
_0-0_
  6
CONTINUOUS
 62
    7
 10
-16.034720024832708
 20
8.3746971524091407
 11
-15.666315182205594
 21
8.4062747103486117
  0
LINE
  8
_0-0_
  6
CONTINUOUS
 62
    7
 10
-15.666315182205594
 20
8.4062747103486117
 11
-15.624211771619642
 21
8.9115156373800772
  0
LINE
  8
_0-0_
  6
CONTINUOUS
 62
    7
 10
-14.729514296668071
 20
8.4799556788740347
 11
-14.361109454040957
 21
8.5115332368135057
  0
LINE
  8
_0-0_
  6
CONTINUOUS
 62
    7
 10
-14.361109454040957
 20
8.5115332368135057
 11
-14.319006043455005
 21
9.0167741638449712
  0
LINE
  8
_0-0_
  6
CONTINUOUS
 62
    7
 10
-13.340101747331502
 20
8.6799468791573275
 11
-12.971696904704388
 21
8.7115244370967986
  0
LINE
  8
_0-0_
  6
CONTINUOUS
 62
    7
 10
-12.971696904704388
 20
8.7115244370967986
 11
-12.929593494118436
 21
9.2167653641282641
  0
LINE
  8
_0-0_
  6
CONTINUOUS
 62
    7
 10
-11.845430671530053
 20
8.7220502897432794
 11
-11.477025828902939
 21
8.7536278476827505
  0
LINE
  8
_0-0_
  6
CONTINUOUS
 62
    7
 10
-11.477025828902939
 20
8.7536278476827505
 11
-11.434922418316987
 21
9.258868774714216
  0
LINE
  8
_0-0_
  6
CONTINUOUS
 62
    7
 10
-10.319182037789147
 20
8.8904639320871013
 11
-9.9507771951620327
 21
8.9220414900265723
  0
LINE
  8
_0-0_
  6
CONTINUOUS
 62
    7
 10
-9.9507771951620327
 20
8.9220414900265723
 11
-9.9086737845760808
 21
9.4272824170580378
  0
LINE
  8
_0-0_
  6
CONTINUOUS
 62
    7
 10
-8.8139851093412034
 20
9.0483517217844422
 11
-8.4455802667140887
 21
9.0799292797239133
  0
LINE
  8
_0-0_
  6
CONTINUOUS
 62
    7
 10
-8.4455802667140887
 20
9.0799292797239133
 11
-8.4034768561281368
 21
9.5851702067553788
  0
LINE
  8
_0-0_
  6
CONTINUOUS
 62
    7
 10
-6.603556053578501
 20
9.2693946273607111
 11
-6.2351512109513862
 21
9.3009721853001821
  0
LINE
  8
_0-0_
  6
CONTINUOUS
 62
    7
 10
-6.2351512109513862
 20
9.3009721853001821
 11
-6.1930478003654343
 21
9.8062131123316476
  0
LINE
  8
_0-0_
  6
CONTINUOUS
 62
    7
 10
-4.1720840922395155
 20
9.4904375329369799
 11
-3.8036792496124008
 21
9.5220150908764509
  0
LINE
  8
_0-0_
  6
CONTINUOUS
 62
    7
 10
-3.8036792496124008
 20
9.5220150908764509
 11
-3.7615758390264489
 21
10.027256017907916
  0
LINE
  8
_0-0_
  6
CONTINUOUS
 62
    7
 10
-5.5404449362830945
 20
7.4063187089321474
 11
-5.1720400936559798
 21
7.4378962668716184
  0
LINE
  8
_0-0_
  6
CONTINUOUS
 62
    7
 10
-5.1720400936559798
 20
7.4378962668716184
 11
-5.1299366830700279
 21
7.9431371939030839
  0
LINE
  8
_0-0_
  6
CONTINUOUS
 62
    7
 10
-7.9087617817431379
 20
7.3115860351137485
 11
-7.5403569391160232
 21
7.3431635930532195
  0
LINE
  8
_0-0_
  6
CONTINUOUS
 62
    7
 10
-7.5403569391160232
 20
7.3431635930532195
 11
-7.4982535285300713
 21
7.848404520084685
  0
LINE
  8
_0-0_
  6
CONTINUOUS
 62
    7
 10
-11.445448270963468
 20
6.9431811924866338
 11
-11.077043428336353
 21
6.9747587504261048
  0
LINE
  8
_0-0_
  6
CONTINUOUS
 62
    7
 10
-11.077043428336353
 20
6.9747587504261048
 11
-11.034940017750401
 21
7.4799996774575703
  0
LINE
  8
_0-0_
  6
CONTINUOUS
 62
    7
 10
-12.898015936178965
 20
6.8589743713147158
 11
-12.52961109355185
 21
6.8905519292541868
  0
LINE
  8
_0-0_
  6
CONTINUOUS
 62
    7
 10
-12.52961109355185
 20
6.8905519292541868
 11
-12.487507682965898
 21
7.3957928562856523
  0
LINE
  8
_0-0_
  6
CONTINUOUS
 62
    7
 10
-14.350583601394462
 20
6.7010865816173748
 11
-13.982178758767347
 21
6.7326641395568458
  0
LINE
  8
_0-0_
  6
CONTINUOUS
 62
    7
 10
-13.982178758767347
 20
6.7326641395568458
 11
-13.940075348181395
 21
7.2379050665883113
  0
LINE
  8
_0-0_
  6
CONTINUOUS
 62
    7
 10
-17.392555016229807
 20
6.5010953813340819
 11
-17.024150173602692
 21
6.532672939273553
  0
LINE
  8
_0-0_
  6
CONTINUOUS
 62
    7
 10
-17.024150173602692
 20
6.532672939273553
 11
-16.98204676301674
 21
7.0379138663050185
  0
LINE
  8
_0-0_
  6
CONTINUOUS
 62
    7
 10
-18.750390007626891
 20
6.395836854869188
 11
-18.381985164999776
 21
6.427414412808659
  0
LINE
  8
_0-0_
  6
CONTINUOUS
 62
    7
 10
-18.381985164999776
 20
6.427414412808659
 11
-18.339881754413824
 21
6.9326553398401245
  0
LINE
  8
_0-0_
  6
CONTINUOUS
 62
    7
 10
-20.045069883145047
 20
6.2379490651718612
 11
-19.676665040517932
 21
6.2695266231113322
  0
LINE
  8
_0-0_
  6
CONTINUOUS
 62
    7
 10
-19.676665040517932
 20
6.2695266231113322
 11
-19.63456162993198
 21
6.7747675501427977
  0
LINE
  8
_0-0_
  6
CONTINUOUS
 62
    7
 10
-20.192431820195893
 20
4.4485541152687205
 11
-19.824026977568778
 21
4.4801316732081915
  0
LINE
  8
_0-0_
  6
CONTINUOUS
 62
    7
 10
-19.824026977568778
 20
4.4801316732081915
 11
-19.781923566982826
 21
4.985372600239657
  0
LINE
  8
_0-0_
  6
CONTINUOUS
 62
    7
 10
-18.908277797324232
 20
4.6380194629055183
 11
-18.539872954697117
 21
4.6695970208449893
  0
LINE
  8
_0-0_
  6
CONTINUOUS
 62
    7
 10
-18.539872954697117
 20
4.6695970208449893
 11
-18.497769544111165
 21
5.1748379478764548
  0
LINE
  8
_0-0_
  6
CONTINUOUS
 62
    7
 10
-17.571494511220124
 20
4.6064419049660472
 11
-17.203089668593009
 21
4.6380194629055183
  0
LINE
  8
_0-0_
  6
CONTINUOUS
 62
    7
 10
-17.203089668593009
 20
4.6380194629055183
 11
-17.160986258007057
 21
5.1432603899369838
  0
LINE
  8
_0-0_
  6
CONTINUOUS
 62
    7
 10
-14.424264569919885
 20
4.827484810542316
 11
-14.05585972729277
 21
4.8590623684817871
  0
LINE
  8
_0-0_
  6
CONTINUOUS
 62
    7
 10
-14.05585972729277
 20
4.8590623684817871
 11
-14.013756316706818
 21
5.3643032955132526
  0
LINE
  8
_0-0_
  6
CONTINUOUS
 62
    7
 10
-12.971696904704388
 20
4.9643208949466811
 11
-12.603292062077273
 21
4.9958984528861521
  0
LINE
  8
_0-0_
  6
CONTINUOUS
 62
    7
 10
-12.603292062077273
 20
4.9958984528861521
 11
-12.561188651491321
 21
5.5011393799176176
  0
LINE
  8
_0-0_
  6
CONTINUOUS
 62
    7
 10
-11.603336060660808
 20
5.0801052740580559
 11
-11.234931218033694
 21
5.1116828319975269
  0
LINE
  8
_0-0_
  6
CONTINUOUS
 62
    7
 10
-11.234931218033694
 20
5.1116828319975269
 11
-11.192827807447742
 21
5.6169237590289924
  0
LINE
  8
_0-0_
  6
CONTINUOUS
 62
    7
 10
-11.171776102154752
 20
3.2486069135689633
 11
-10.803371259527637
 21
3.2801844715084343
  0
LINE
  8
_0-0_
  6
CONTINUOUS
 62
    7
 10
-10.803371259527637
 20
3.2801844715084343
 11
-10.761267848941685
 21
3.7854253985398998
  0
LINE
  8
_0-0_
  6
CONTINUOUS
 62
    7
 10
-12.540136946198331
 20
3.1328225344575742
 11
-12.171732103571216
 21
3.1644000923970452
  0
LINE
  8
_0-0_
  6
CONTINUOUS
 62
    7
 10
-12.171732103571216
 20
3.1644000923970452
 11
-12.129628692985264
 21
3.6696410194285107
  0
LINE
  8
_0-0_
  6
CONTINUOUS
 62
    7
 10
-13.9295494955349
 20
3.1222966818110933
 11
-13.561144652907785
 21
3.1538742397505644
  0
LINE
  8
_0-0_
  6
CONTINUOUS
 62
    7
 10
-13.561144652907785
 20
3.1538742397505644
 11
-13.519041242321833
 21
3.6591151667820299
  0
LINE
  8
_0-0_
  6
CONTINUOUS
 62
    7
 10
-15.287384486931984
 20
2.9749347447602474
 11
-14.918979644304869
 21
3.0065123026997185
  0
LINE
  8
_0-0_
  6
CONTINUOUS
 62
    7
 10
-14.918979644304869
 20
3.0065123026997185
 11
-14.876876233718917
 21
3.511753229731184
  0
LINE
  8
_0-0_
  6
CONTINUOUS
 62
    7
 10
-16.539960951864188
 20
2.9854605974067283
 11
-16.171556109237073
 21
3.0170381553461993
  0
LINE
  8
_0-0_
  6
CONTINUOUS
 62
    7
 10
-16.171556109237073
 20
3.0170381553461993
 11
-16.129452698651122
 21
3.5222790823776648
  0
LINE
  8
_0-0_
  6
CONTINUOUS
 62
    7
 10
-18.003054469726166
 20
2.9117796288813054
 11
-17.634649627099051
 21
2.9433571868207764
  0
LINE
  8
_0-0_
  6
CONTINUOUS
 62
    7
 10
-17.634649627099051
 20
2.9433571868207764
 11
-17.592546216513099
 21
3.4485981138522419
  0
LINE
  8
_0-0_
  6
CONTINUOUS
 62
    7
 10
-19.25563093465837
 20
2.8802020709418485
 11
-18.887226092031256
 21
2.9117796288813196
  0
LINE
  8
_0-0_
  6
CONTINUOUS
 62
    7
 10
-18.887226092031256
 20
2.9117796288813196
 11
-18.845122681445304
 21
3.4170205559127851
  0
LINE
  8
_0-0_
  6
CONTINUOUS
 62
    7
 10
-20.52925910488355
 20
2.7959952497699305
 11
-20.160854262256436
 21
2.8275728077094016
  0
LINE
  8
_0-0_
  6
CONTINUOUS
 62
    7
 10
-20.160854262256436
 20
2.8275728077094016
 11
-20.118750851670484
 21
3.3328137347408671
  0
LINE
  8
_0-0_
  6
CONTINUOUS
 62
    7
 10
-9.6771050263533027
 20
3.4170205559127851
 11
-9.308700183726188
 21
3.4485981138522561
  0
LINE
  8
_0-0_
  6
CONTINUOUS
 62
    7
 10
-9.308700183726188
 20
3.4485981138522561
 11
-9.2665967731402361
 21
3.9538390408837216
  0
LINE
  8
_0-0_
  6
CONTINUOUS
 62
    7
 10
-4.3299718819368564
 20
3.6696410194285249
 11
-3.9615670393097417
 21
3.701218577367996
  0
LINE
  8
_0-0_
  6
CONTINUOUS
 62
    7
 10
-3.9615670393097417
 20
3.701218577367996
 11
-3.9194636287237898
 21
4.2064595043994615
  0
LINE
  8
_0-0_
  6
CONTINUOUS
 62
    7
 10
-2.6745184069602743
 20
9.6122742773200969
 11
-2.2692730800704481
 21
9.6470095910535179
  0
LINE
  8
_0-0_
  6
CONTINUOUS
 62
    7
 10
-2.2692730800704481
 20
9.6470095910535179
 11
-2.222959328425901
 21
10.202774610788126
  0
LINE
  8
_0-0_
  6
CONTINUOUS
 62
    7
 10
-0.9693302782290373
 20
9.7806879196639187
 11
-0.5640849513392112
 21
9.8154232333973397
  0
LINE
  8
_0-0_
  6
CONTINUOUS
 62
    7
 10
-0.5640849513392112
 20
9.8154232333973397
 11
-0.5177711996946641
 21
10.371188253131947
  0
LINE
  8
_0-0_
  6
CONTINUOUS
 62
    7
 10
0.7674354084416563
 20
9.9596274146542356
 11
1.1726807353314825
 21
9.9943627283876566
  0
LINE
  8
_0-0_
  6
CONTINUOUS
 62
    7
 10
1.1726807353314825
 20
9.9943627283876566
 11
1.2189944869760296
 21
10.550127748122264
  0
LINE
  8
_0-0_
  6
CONTINUOUS
 62
    7
 10
2.4831493898193742
 20
10.117515204351577
 11
2.8883947167092003
 21
10.152250518084998
  0
LINE
  8
_0-0_
  6
CONTINUOUS
 62
    7
 10
2.8883947167092003
 20
10.152250518084998
 11
2.9347084683537474
 21
10.708015537819605
  0
LINE
  8
_0-0_
  6
CONTINUOUS
 62
    7
 10
4.2725443397225149
 20
10.296454699341894
 11
4.6777896666123411
 21
10.331190013075314
  0
LINE
  8
_0-0_
  6
CONTINUOUS
 62
    7
 10
4.6777896666123411
 20
10.331190013075314
 11
4.7241034182568882
 21
10.886955032809922
  0
LINE
  8
_0-0_
  6
CONTINUOUS
 62
    7
 10
1.6621328833932267
 20
8.022870527700249
 11
2.0673782102830529
 21
8.05760584143367
  0
LINE
  8
_0-0_
  6
CONTINUOUS
 62
    7
 10
2.0673782102830529
 20
8.05760584143367
 11
2.1136919619276
 21
8.6133708611682778
  0
LINE
  8
_0-0_
  6
CONTINUOUS
 62
    7
 10
-0.0851586559239621
 20
7.886034443295884
 11
0.320086670965864
 21
7.920769757029305
  0
LINE
  8
_0-0_
  6
CONTINUOUS
 62
    7
 10
0.320086670965864
 20
7.920769757029305
 11
0.3664004226104111
 21
8.4765347767639128
  0
LINE
  8
_0-0_
  6
CONTINUOUS
 62
    7
 10
-1.8745536058271028
 20
7.7491983588915332
 11
-1.4693082789372767
 21
7.7839336726249542
  0
LINE
  8
_0-0_
  6
CONTINUOUS
 62
    7
 10
-1.4693082789372767
 20
7.7839336726249542
 11
-1.4229945272927296
 21
8.339698692359562
  0
LINE
  8
_0-0_
  6
CONTINUOUS
 62
    7
 10
-1.8745536058271028
 20
5.6966570928261575
 11
-1.4693082789372767
 21
5.7313924065595785
  0
LINE
  8
_0-0_
  6
CONTINUOUS
 62
    7
 10
-1.4693082789372767
 20
5.7313924065595785
 11
-1.4229945272927296
 21
6.2871574262941863
  0
LINE
  8
_0-0_
  6
CONTINUOUS
 62
    7
 10
-2.8850354598900481
 20
3.770426058518666
 11
-2.4797901330002219
 21
3.8051613722520869
  0
LINE
  8
_0-0_
  6
CONTINUOUS
 62
    7
 10
-2.4797901330002219
 20
3.8051613722520869
 11
-2.4334763813556748
 21
4.3609263919866947
  0
LINE
  8
_0-0_
  6
CONTINUOUS
 62
    7
 10
-1.1166922152798833
 20
3.8967362902765217
 11
-0.7114468883900571
 21
3.9314716040099427
  0
LINE
  8
_0-0_
  6
CONTINUOUS
 62
    7
 10
-0.7114468883900571
 20
3.9314716040099427
 11
-0.66513313674551
 21
4.4872366237445505
  0
LINE
  8
_0-0_
  6
CONTINUOUS
 62
    7
 10
0.5148149449259165
 20
3.9598914061554638
 11
0.9200602718157426
 21
3.9946267198888847
  0
LINE
  8
_0-0_
  6
CONTINUOUS
 62
    7
 10
0.9200602718157426
 20
3.9946267198888847
 11
0.9663740234602897
 21
4.5503917396234925
  0
LINE
  8
_0-0_
  6
CONTINUOUS
 62
    7
 10
-0.2746240035607598
 20
5.9492775563418974
 11
0.1306213233290662
 21
5.9840128700753183
  0
LINE
  8
_0-0_
  6
CONTINUOUS
 62
    7
 10
0.1306213233290662
 20
5.9840128700753183
 11
0.1769350749736133
 21
6.5397778898099261
  0
LINE
  8
_0-0_
  6
CONTINUOUS
 62
    7
 10
1.3884607145845109
 20
5.9598034089883924
 11
1.7937060414743371
 21
5.9945387227218134
  0
LINE
  8
_0-0_
  6
CONTINUOUS
 62
    7
 10
1.7937060414743371
 20
5.9945387227218134
 11
1.8400197931188842
 21
6.5503037424564212
  0
LINE
  8
_0-0_
  6
CONTINUOUS
 62
    7
 10
2.1357962524852354
 20
4.0440982273273818
 11
2.5410415793750616
 21
4.0788335410608028
  0
LINE
  8
_0-0_
  6
CONTINUOUS
 62
    7
 10
2.5410415793750616
 20
4.0788335410608028
 11
2.5873553310196087
 21
4.6345985607954105
  0
LINE
  8
_0-0_
  6
CONTINUOUS
 62
    7
 10
3.8515102338629532
 20
4.0651499326203577
 11
4.2567555607527794
 21
4.0998852463537787
  0
LINE
  8
_0-0_
  6
CONTINUOUS
 62
    7
 10
4.2567555607527794
 20
4.0998852463537787
 11
4.3030693123973265
 21
4.6556502660883865
  0
LINE
  8
_0-0_
  6
CONTINUOUS
 62
    7
 10
6.0016787832245058
 20
10.491972412250419
 11
6.4437645943770434
 21
10.52986548177779
  0
LINE
  8
_0-0_
  6
CONTINUOUS
 62
    7
 10
6.4437645943770434
 20
10.52986548177779
 11
6.4942886870801857
 21
11.13615459421554
  0
LINE
  8
_0-0_
  6
CONTINUOUS
 62
    7
 10
5.654325645890367
 20
8.3762760303061157
 11
6.0964114570429047
 21
8.4141690998334866
  0
LINE
  8
_0-0_
  6
CONTINUOUS
 62
    7
 10
6.0964114570429047
 20
8.4141690998334866
 11
6.1469355497460469
 21
9.0204582122712367
  0
LINE
  8
_0-0_
  6
CONTINUOUS
 62
    7
 10
5.4753861509000501
 20
6.1342694166039422
 11
5.9174719620525877
 21
6.1721624861313131
  0
LINE
  8
_0-0_
  6
CONTINUOUS
 62
    7
 10
5.9174719620525877
 20
6.1721624861313131
 11
5.96799605475573
 21
6.7784515985690632
  0
LINE
  8
_0-0_
  6
CONTINUOUS
 62
    7
 10
5.6437997932438719
 20
4.2711934981753785
 11
6.0858856043964096
 21
4.3090865677027494
  0
LINE
  8
_0-0_
  6
CONTINUOUS
 62
    7
 10
6.0858856043964096
 20
4.3090865677027494
 11
6.1364096970995519
 21
4.9153756801404995
  0
LINE
  8
_0-0_
  6
CONTINUOUS
 62
    7
 10
7.5174015643189307
 20
4.3869778772867534
 11
7.9594873754714683
 21
4.4248709468141243
  0
LINE
  8
_0-0_
  6
CONTINUOUS
 62
    7
 10
7.9594873754714683
 20
4.4248709468141243
 11
8.0100114681746106
 21
5.0311600592518744
  0
LINE
  8
_0-0_
  6
CONTINUOUS
 62
    7
 10
7.3068845113891427
 20
6.492148406584576
 11
7.7489703225416804
 21
6.530041476111947
  0
LINE
  8
_0-0_
  6
CONTINUOUS
 62
    7
 10
7.7489703225416804
 20
6.530041476111947
 11
7.7994944152448227
 21
7.136330588549697
  0
LINE
  8
_0-0_
  6
CONTINUOUS
 62
    7
 10
7.5279274169654116
 20
8.5025862620639856
 11
7.9700132281179492
 21
8.5404793315913565
  0
LINE
  8
_0-0_
  6
CONTINUOUS
 62
    7
 10
7.9700132281179492
 20
8.5404793315913565
 11
8.0205373208210915
 21
9.1467684440291066
  0
LINE
  8
_0-0_
  6
CONTINUOUS
 62
    7
 10
7.8858064069460454
 20
10.681437759887231
 11
8.327892218098583
 21
10.719330829414602
  0
LINE
  8
_0-0_
  6
CONTINUOUS
 62
    7
 10
8.327892218098583
 20
10.719330829414602
 11
8.3784163108017253
 21
11.325619941852352
  0
LINE
  8
_0-0_
  6
CONTINUOUS
 62
    7
 10
9.8330891465465413
 20
10.891954812817005
 11
10.275174957699079
 21
10.929847882344376
  0
LINE
  8
_0-0_
  6
CONTINUOUS
 62
    7
 10
10.275174957699079
 20
10.929847882344376
 11
10.325699050402221
 21
11.536136994782126
  0
LINE
  8
_0-0_
  6
CONTINUOUS
 62
    7
 10
9.3910033353939752
 20
8.6815257570543025
 11
9.8330891465465129
 21
8.7194188265816734
  0
LINE
  8
_0-0_
  6
CONTINUOUS
 62
    7
 10
9.8330891465465129
 20
8.7194188265816734
 11
9.8836132392496552
 21
9.3257079390194235
  0
LINE
  8
_0-0_
  6
CONTINUOUS
 62
    7
 10
9.2436413983431294
 20
6.5763552277564798
 11
9.685727209495667
 21
6.6142482972838508
  0
LINE
  8
_0-0_
  6
CONTINUOUS
 62
    7
 10
9.685727209495667
 20
6.6142482972838508
 11
9.7362513021988093
 21
7.2205374097216009
  0
LINE
  8
_0-0_
  6
CONTINUOUS
 62
    7
 10
9.3488999248080233
 20
4.4185554352262244
 11
9.790985735960561
 21
4.4564485047535953
  0
LINE
  8
_0-0_
  6
CONTINUOUS
 62
    7
 10
9.790985735960561
 20
4.4564485047535953
 11
9.8415098286637033
 21
5.0627376171913454
  0
LINE
  8
_0-0_
  6
CONTINUOUS
 62
    7
 10
-28.368314046135495
 20
-18.183447990826139
 11
-26.909487840494009
 21
-20.239066735139161
  0
ENDBLK
  0
ENDSEC
  0
SECTION
  2
ENTITIES
  0
LINE
  8
_0-0_
  6
CONTINUOUS
 62
    7
 10
-1244.420826261083
 20
-1127.4836411798831
 11
1755.579173738917
 21
-1127.4836411798831
  0
LINE
  8
_0-0_
  6
CONTINUOUS
 62
    7
 10
1755.579173738917
 20
-1127.4836411798831
 11
1755.579173738917
 21
1392.5163588201169
  0
LINE
  8
_0-0_
  6
CONTINUOUS
 62
    7
 10
1755.579173738917
 20
1392.5163588201169
 11
-1244.420826261083
 21
1392.5163588201169
  0
LINE
  8
_0-0_
  6
CONTINUOUS
 62
    7
 10
-1244.420826261083
 20
1392.5163588201169
 11
-1244.420826261083
 21
-1127.4836411798831
  0
INSERT
  2
-001-3
  8
_0-0_
 10
140.58673469387756
 20
107.52551020408163
 41
1
 42
1
 50
0
  0
ENDSEC
  0
EOF
