  0
SECTION
  2
HEADER
  9
$ACADVER
  1
AC1009
  9
$INSBASE
 10
0
 20
0
 30
0
  9
$EXTMIN
 10
0
 20
0
  9
$EXTMAX
 10
297
 20
210
  9
$LIMMIN
 10
0
 20
0
  9
$LIMMAX
 10
297
 20
210
  9
$LTSCALE
 40
1
  0
ENDSEC
  0
SECTION
  2
TABLES
  0
TABLE
  2
LTYPE
 70
     9
  0
LTYPE
  2
CONTINUOUS
 70
    64
  3
実線
 72
    65
 73
     0
 40
0.0
  0
LTYPE
  2
DASHED1
 70
    64
  3
--  --  --  --  --  --  --  --  
 72
    65
 73
     2
 40
2.5
 49
1.25
 49
-1.25
  0
LTYPE
  2
DASHED2
 70
    64
  3
----    ----    ----    ----    
 72
    65
 73
     2
 40
5.0
 49
2.5
 49
-2.5
  0
LTYPE
  2
DASHED3
 70
    64
  3
------  ------  ------  ------  
 72
    65
 73
     2
 40
5.0
 49
3.75
 49
-1.25
  0
LTYPE
  2
CENTER1
 70
    64
  3
----- - ----- - ----- - ----- - 
 72
    65
 73
     4
 40
10.0
 49
6.25
 49
-1.25
 49
1.25
 49
-1.25
  0
LTYPE
  2
CENTER2
 70
    64
  3
----------  --  ----------  --  
 72
    65
 73
     4
 40
20.0
 49
12.5
 49
-2.5
 49
2.5
 49
-2.5
  0
LTYPE
  2
PHANTOM1
 70
    64
  3
--- - - --- - - --- - - --- - - 
 72
    65
 73
     6
 40
10.0
 49
3.25
 49
-1.25
 49
1.25
 49
-1.25
 49
1.25
 49
-1.25
  0
LTYPE
  2
PHANTOM2
 70
    64
  3
--------  -  -  --------  -  -  
 72
    65
 73
     6
 40
20.0
 49
10.0
 49
-2.5
 49
1.25
 49
-2.5
 49
1.25
 49
-2.5
  0
LTYPE
  2
DOT
 70
    64
  3
-   -   -   -   -   -   -   -   
 72
    65
 73
     2
 40
2.5
 49
0.625
 49
-1.875
  0
LTYPE
  2
DUMMY
 70
    64
  3
ダミー
 72
    65
 73
     0
 40
0.0
  0
LTYPE
  2
RAND1
 70
    64
  3
ランダム線1
 72
    65
 73
     4
 40
10.0
 49
1.0
 49
-2.0
 49
3.0
 49
-4.0
  0
LTYPE
  2
RAND2
 70
    64
  3
ランダム線2
 72
    65
 73
     4
 40
14.0
 49
2.0
 49
-3.0
 49
4.0
 49
-5.0
  0
LTYPE
  2
RAND3
 70
    64
  3
ランダム線3
 72
    65
 73
     4
 40
18.0
 49
3.0
 49
-4.0
 49
5.0
 49
-6.0
  0
LTYPE
  2
RAND4
 70
    64
  3
ランダム線4
 72
    65
 73
     4
 40
22.0
 49
4.0
 49
-5.0
 49
6.0
 49
-7.0
  0
LTYPE
  2
RAND5
 70
    64
  3
ランダム線5
 72
    65
 73
     4
 40
26.0
 49
5.0
 49
-6.0
 49
7.0
 49
-8.0
  0
LTYPE
  2
LONG1
 70
    64
  3
----------  --  ----------  --  
 72
    65
 73
     4
 40
40.0
 49
32.5
 49
-2.5
 49
2.5
 49
-2.5
  0
LTYPE
  2
LONG2
 70
    64
  3
--------  -  -  --------  -  -  
 72
    65
 73
     6
 40
40.0
 49
30.0
 49
-2.5
 49
1.25
 49
-2.5
 49
1.25
 49
-2.5
  0
LTYPE
  2
LONG3
 70
    64
  3
+++++++++++++++..+++++++++++++++
 72
    65
 73
     2
 40
40.0
 49
37.5
 49
-2.5
  0
LTYPE
  2
LONG4
 70
    64
  3
+++++++++++++++..+++++++++++++++
 72
    65
 73
     2
 40
80.0
 49
75.0
 49
-5.0
  0
LTYPE
  2
LONG5
 70
    64
  3
----------  --  ----------  --  
 72
    65
 73
     4
 40
60.0
 49
37.5
 49
-7.5
 49
7.5
 49
-7.5
  0
LTYPE
  2
dashed
 70
   64
  3
-------   -------------   ------
 72
   65
 73
    2
 40
7.5
 49
6
 49
-1.5
  0
LTYPE
  2
dashed_spaced
 70
   64
  3
----        --------        ----
 72
   65
 73
    2
 40
12
 49
6
 49
-6
  0
LTYPE
  2
long_dashed_dotted
 70
   64
  3
------------- --- --------------
 72
   65
 73
    4
 40
15.25
 49
12
 49
-1.5
 49
0.25
 49
-1.5
  0
LTYPE
  2
long_dashed_double-dotted
 70
   64
  3
----------- --- --- ------------
 72
   65
 73
    6
 40
17
 49
12
 49
-1.5
 49
0.25
 49
-1.5
 49
0.25
 49
-1.5
  0
LTYPE
  2
long_dashed_triplicate-dotted
 70
   64
  3
--------- --- --- --- ----------
 72
   65
 73
    8
 40
18.75
 49
12
 49
-1.5
 49
0.25
 49
-1.5
 49
0.25
 49
-1.5
 49
0.25
 49
-1.5
  0
LTYPE
  2
dotted
 70
   64
  3
   -       -       -       -    
 72
   65
 73
    2
 40
1.75
 49
0.25
 49
-1.5
  0
LTYPE
  2
chain
 70
   64
  3
-------------- -- --------------
 72
   65
 73
    4
 40
18.5
 49
12
 49
-1.5
 49
3.5
 49
-1.5
  0
LTYPE
  2
chain_double_dash
 70
   64
  3
------------ -- -- -------------
 72
   65
 73
    6
 40
23.5
 49
12
 49
-1.5
 49
3.5
 49
-1.5
 49
3.5
 49
-1.5
  0
LTYPE
  2
dashed_dotted
 70
   64
  3
-----------     -     ----------
 72
   65
 73
    4
 40
9.25
 49
6
 49
-1.5
 49
0.25
 49
-1.5
  0
LTYPE
  2
double-dashed_dotted
 70
   64
  3
------   -----------   -   -----
 72
   65
 73
    6
 40
16.75
 49
6
 49
-1.5
 49
6
 49
-1.5
 49
0.25
 49
-1.5
  0
LTYPE
  2
dashed_double-dotted
 70
   64
  3
---------    -    -    ---------
 72
   65
 73
    6
 40
11
 49
6
 49
-1.5
 49
0.25
 49
-1.5
 49
0.25
 49
-1.5
  0
LTYPE
  2
double-dashed_double-dotted
 70
   64
  3
-----   ---------   -   -   ----
 72
   65
 73
    8
 40
18.5
 49
6
 49
-1.5
 49
6
 49
-1.5
 49
0.25
 49
-1.5
 49
0.25
 49
-1.5
  0
LTYPE
  2
dashed_triplicate-dotted
 70
   64
  3
-------    -    -    -    ------
 72
   65
 73
    8
 40
12.75
 49
6
 49
-1.5
 49
0.25
 49
-1.5
 49
0.25
 49
-1.5
 49
0.25
 49
-1.5
  0
LTYPE
  2
double-dashed_triplicate-dotted
 70
   64
  3
-----  ---------  -  -  -  -----
 72
   65
 73
   10
 40
20.25
 49
6
 49
-1.5
 49
6
 49
-1.5
 49
0.25
 49
-1.5
 49
0.25
 49
-1.5
 49
0.25
 49
-1.5
  0
LTYPE
  2
undefined
 70
   64
  3
--------------------------------
 72
   65
 73
    0
 40
0
  0
LTYPE
  2
_
 70
   64
  3
                                
 72
   65
 73
    0
 40
0
  0
LTYPE
  2
__18
 70
   64
  3
                                
 72
   65
 73
    0
 40
0
  0
LTYPE
  2
__19
 70
   64
  3
                                
 72
   65
 73
    0
 40
0
  0
LTYPE
  2
__20
 70
   64
  3
                                
 72
   65
 73
    0
 40
0
  0
LTYPE
  2
__21
 70
   64
  3
                                
 72
   65
 73
    0
 40
0
  0
LTYPE
  2
__22
 70
   64
  3
                                
 72
   65
 73
    0
 40
0
  0
LTYPE
  2
__23
 70
   64
  3
                                
 72
   65
 73
    0
 40
0
  0
LTYPE
  2
__24
 70
   64
  3
                                
 72
   65
 73
    0
 40
0
  0
LTYPE
  2
__25
 70
   64
  3
                                
 72
   65
 73
    0
 40
0
  0
LTYPE
  2
__26
 70
   64
  3
                                
 72
   65
 73
    0
 40
0
  0
LTYPE
  2
__27
 70
   64
  3
                                
 72
   65
 73
    0
 40
0
  0
LTYPE
  2
__28
 70
   64
  3
                                
 72
   65
 73
    0
 40
0
  0
LTYPE
  2
__29
 70
   64
  3
                                
 72
   65
 73
    0
 40
0
  0
LTYPE
  2
__30
 70
   64
  3
                                
 72
   65
 73
    0
 40
0
  0
LTYPE
  2
__31
 70
   64
  3
                                
 72
   65
 73
    0
 40
0
  0
LTYPE
  2
__32
 70
   64
  3
                                
 72
   65
 73
    0
 40
0
  0
ENDTAB
  0
TABLE
  2
STYLE
  5
3
100
AcDbSymbolTable
 70
     1
  0
STYLE
  5
10
100
AcDbSymbolTableRecord
100
AcDbTextStyleTableRecord
  2
STANDARD
 70
     0
 40
0.0
 41
1.0
 50
0.0
 71
     0
 42
0.2
  3
txt
  4
bigfont.shx
  0
STYLE
  5
26
100
AcDbSymbolTableRecord
100
AcDbTextStyleTableRecord
  2
TATEGAKI
 70
    68
 40
0.0
 41
1.0
 50
0.0
 71
     0
 42
1.0
  3
txt
  4
bigfont.shx
  0
ENDTAB
  0
TABLE
  2
LAYER
 70
    2
  0
LAYER
  2
_0-0_
 70
   64
 62
    7
  6
CONTINUOUS
  0
LAYER
  2
ADD_LINE
 70
   64
 62
    7
  6
CONTINUOUS
  0
ENDTAB
  0
ENDSEC
  0
SECTION
  2
BLOCKS
  0
BLOCK
  2
-000-1
 70
   64
 10
0
 20
0
 30
0
  0
LINE
  8
_0-0_
  6
CONTINUOUS
 62
    7
 10
-30.943067732957598
 20
-6.7599058103897232
 11
-30.496562726539349
 21
-8.2126315190962327
  0
LINE
  8
_0-0_
  6
CONTINUOUS
 62
    7
 10
-30.496562726539349
 20
-8.2126315190962327
 11
-29.126768730891211
 21
-9.6354243399875497
  0
LINE
  8
_0-0_
  6
CONTINUOUS
 62
    7
 10
-29.126768730891211
 20
-9.6354243399875497
 11
-26.875306243421729
 21
-10.985053433168828
  0
LINE
  8
_0-0_
  6
CONTINUOUS
 62
    7
 10
-26.875306243421729
 20
-10.985053433168828
 11
-23.810584812517657
 21
-12.220511001589015
  0
LINE
  8
_0-0_
  6
CONTINUOUS
 62
    7
 10
-23.810584812517657
 20
-12.220511001589015
 11
-20.025724448033156
 21
-13.304258292203356
  0
LINE
  8
_0-0_
  6
CONTINUOUS
 62
    7
 10
-20.025724448033156
 20
-13.304258292203356
 11
-15.635726216911317
 21
-14.203366191989131
  0
LINE
  8
_0-0_
  6
CONTINUOUS
 62
    7
 10
-15.635726216911317
 20
-14.203366191989131
 11
-10.773977993958519
 21
-14.890515762381893
  0
LINE
  8
_0-0_
  6
CONTINUOUS
 62
    7
 10
-10.773977993958519
 20
-14.890515762381893
 11
-5.588201538765853
 21
-15.344828311399736
  0
LINE
  8
_0-0_
  6
CONTINUOUS
 62
    7
 10
-5.588201538765853
 20
-15.344828311399736
 11
-0.2359640447948356
 21
-15.552499782133962
  0
LINE
  8
_0-0_
  6
CONTINUOUS
 62
    7
 10
-0.2359640447948356
 20
-15.552499782133962
 11
5.1201094600630679
 21
-15.507220182033178
  0
LINE
  8
_0-0_
  6
CONTINUOUS
 62
    7
 10
5.1201094600630679
 20
-15.507220182033178
 11
10.317277392666702
 21
-15.210365308833842
  0
LINE
  8
_0-0_
  6
CONTINUOUS
 62
    7
 10
10.317277392666702
 20
-15.210365308833842
 11
15.197626435277774
 21
-14.670954947642313
  0
LINE
  8
_0-0_
  6
CONTINUOUS
 62
    7
 10
15.197626435277774
 20
-14.670954947642313
 11
19.61286965181235
 21
-13.90537880932858
  0
LINE
  8
_0-0_
  6
CONTINUOUS
 62
    7
 10
19.61286965181235
 20
-13.90537880932858
 11
23.428852111356878
 21
-12.936898537455091
  0
LINE
  8
_0-0_
  6
CONTINUOUS
 62
    7
 10
23.428852111356878
 20
-12.936898537455091
 11
26.5296271178584
 21
-11.794940915008054
  0
LINE
  8
_0-0_
  6
CONTINUOUS
 62
    7
 10
26.5296271178584
 20
-11.794940915008054
 11
28.820979191812217
 21
-10.514203746487068
  0
LINE
  8
_0-0_
  6
CONTINUOUS
 62
    7
 10
28.820979191812217
 20
-10.514203746487068
 11
30.233286759931378
 21
-9.1336015826734052
  0
LINE
  8
_0-0_
  6
CONTINUOUS
 62
    7
 10
30.233286759931378
 20
-9.1336015826734052
 11
30.723637571420642
 21
-7.6950833216961012
  0
LINE
  8
_0-0_
  6
CONTINUOUS
 62
    7
 10
-30.943067732957569
 20
-6.7599058103897232
 11
-30.45028104340879
 21
-5.1607628844299835
  0
LINE
  8
_0-0_
  6
CONTINUOUS
 62
    7
 10
-30.45028104340879
 20
-5.1607628844299835
 11
-29.035611610152383
 21
-3.6244165547993656
  0
LINE
  8
_0-0_
  6
CONTINUOUS
 62
    7
 10
-29.035611610152383
 20
-3.6244165547993656
 11
-26.742043448060553
 21
-2.1975479272949325
  0
LINE
  8
_0-0_
  6
CONTINUOUS
 62
    7
 10
-26.742043448060553
 20
-2.1975479272949325
 11
-23.63926546513694
 21
-0.9235116831330412
  0
LINE
  8
_0-0_
  6
CONTINUOUS
 62
    7
 10
-23.63926546513694
 20
-0.9235116831330412
 11
-19.821554000311306
 21
0.1589812311008831
  0
LINE
  8
_0-0_
  6
CONTINUOUS
 62
    7
 10
-19.821554000311306
 20
0.1589812311008831
 11
-15.404908284587131
 21
1.0170398159757088
  0
LINE
  8
_0-0_
  6
CONTINUOUS
 62
    7
 10
-15.404908284587131
 20
1.0170398159757088
 11
-10.523525863106139
 21
1.6245923955885804
  0
LINE
  8
_0-0_
  6
CONTINUOUS
 62
    7
 10
-10.523525863106139
 20
1.6245923955885804
 11
-5.3257250706463228
 21
1.9631787922444222
  0
LINE
  8
_0-0_
  6
CONTINUOUS
 62
    7
 10
-5.3257250706463228
 20
1.9631787922444222
 11
0.0305615459275168
 21
2.0225112296138281
  0
LINE
  8
_0-0_
  6
CONTINUOUS
 62
    7
 10
0.0305615459275168
 20
2.0225112296138281
 11
5.3825859281825696
 21
1.80078692161098
  0
LINE
  8
_0-0_
  6
CONTINUOUS
 62
    7
 10
5.3825859281825696
 20
1.80078692161098
 11
10.567729523519082
 21
1.3047428491366464
  0
LINE
  8
_0-0_
  6
CONTINUOUS
 62
    7
 10
10.567729523519082
 20
1.3047428491366464
 11
15.428444367601989
 21
0.5494510603225268
  0
LINE
  8
_0-0_
  6
CONTINUOUS
 62
    7
 10
15.428444367601989
 20
0.5494510603225268
 11
19.8170400995342
 21
-0.4421392860243269
  0
LINE
  8
_0-0_
  6
CONTINUOUS
 62
    7
 10
19.8170400995342
 20
-0.4421392860243269
 11
23.600171458737595
 21
-1.6398992189991031
  0
LINE
  8
_0-0_
  6
CONTINUOUS
 62
    7
 10
23.600171458737595
 20
-1.6398992189991031
 11
26.66288991321959
 21
-3.0074354091341444
  0
LINE
  8
_0-0_
  6
CONTINUOUS
 62
    7
 10
26.66288991321959
 20
-3.0074354091341444
 11
28.912136312551059
 21
-4.5031959612988697
  0
LINE
  8
_0-0_
  6
CONTINUOUS
 62
    7
 10
28.912136312551059
 20
-4.5031959612988697
 11
30.279568443061908
 21
-6.0817329480071418
  0
LINE
  8
_0-0_
  6
CONTINUOUS
 62
    7
 10
30.279568443061908
 20
-6.0817329480071418
 11
30.723637571420671
 21
-7.6950833216960728
  0
LINE
  8
_0-0_
  6
CONTINUOUS
 62
    7
 10
-28.467597850087781
 20
-7.5300519961714496
 11
-28.057793092975498
 21
-8.8607212174621974
  0
LINE
  8
_0-0_
  6
CONTINUOUS
 62
    7
 10
-28.057793092975498
 20
-8.8607212174621974
 11
-26.80214305674961
 21
-10.163494711105626
  0
LINE
  8
_0-0_
  6
CONTINUOUS
 62
    7
 10
-26.80214305674961
 20
-10.163494711105626
 11
-24.738800032371284
 21
-11.398788363732548
  0
LINE
  8
_0-0_
  6
CONTINUOUS
 62
    7
 10
-24.738800032371284
 20
-11.398788363732548
 11
-21.930457653534301
 21
-12.529068402796652
  0
LINE
  8
_0-0_
  6
CONTINUOUS
 62
    7
 10
-21.930457653534301
 20
-12.529068402796652
 11
-18.462445982329779
 21
-13.519991841260277
  0
LINE
  8
_0-0_
  6
CONTINUOUS
 62
    7
 10
-18.462445982329779
 20
-13.519991841260277
 11
-14.440138798488741
 21
-14.341449971877152
  0
LINE
  8
_0-0_
  6
CONTINUOUS
 62
    7
 10
-14.440138798488741
 20
-14.341449971877152
 11
-9.985751870406526
 21
-14.968483205026372
  0
LINE
  8
_0-0_
  6
CONTINUOUS
 62
    7
 10
-9.985751870406526
 20
-14.968483205026372
 11
-5.2346294908643447
 21
-15.382039453212796
  0
LINE
  8
_0-0_
  6
CONTINUOUS
 62
    7
 10
-5.2346294908643447
 20
-15.382039453212796
 11
-0.3311321091806667
 21
-15.569553019104857
  0
LINE
  8
_0-0_
  6
CONTINUOUS
 62
    7
 10
-0.3311321091806667
 20
-15.569553019104857
 11
4.5757499879913919
 21
-15.525326397889357
  0
LINE
  8
_0-0_
  6
CONTINUOUS
 62
    7
 10
4.5757499879913919
 20
-15.525326397889357
 11
9.3369236711314922
 21
-15.250703393072198
  0
LINE
  8
_0-0_
  6
CONTINUOUS
 62
    7
 10
9.3369236711314922
 20
-15.250703393072198
 11
13.807723087147499
 21
-14.754028285688788
  0
LINE
  8
_0-0_
  6
CONTINUOUS
 62
    7
 10
13.807723087147499
 20
-14.754028285688788
 11
17.852305258117429
 21
-14.050392297547232
  0
LINE
  8
_0-0_
  6
CONTINUOUS
 62
    7
 10
17.852305258117429
 20
-14.050392297547232
 11
21.347777601433723
 21
-13.161175052090256
  0
LINE
  8
_0-0_
  6
CONTINUOUS
 62
    7
 10
21.347777601433723
 20
-13.161175052090256
 11
24.187931958739046
 21
-12.113394965355395
  0
LINE
  8
_0-0_
  6
CONTINUOUS
 62
    7
 10
24.187931958739046
 20
-12.113394965355395
 11
26.28647167707415
 21
-10.938888305075791
  0
LINE
  8
_0-0_
  6
CONTINUOUS
 62
    7
 10
26.28647167707415
 20
-10.938888305075791
 11
27.579633689009729
 21
-9.6733418617950075
  0
LINE
  8
_0-0_
  6
CONTINUOUS
 62
    7
 10
27.579633689009729
 20
-9.6733418617950075
 11
28.028125921184699
 21
-8.3552086237947076
  0
LINE
  8
_0-0_
  6
CONTINUOUS
 62
    7
 10
-28.467597850087781
 20
-7.5300519961714496
 11
-28.016956313742678
 21
-6.0647630659883145
  0
LINE
  8
_0-0_
  6
CONTINUOUS
 62
    7
 10
-28.016956313742678
 20
-6.0647630659883145
 11
-26.721710303156566
 21
-4.6565321817672878
  0
LINE
  8
_0-0_
  6
CONTINUOUS
 62
    7
 10
-26.721710303156566
 20
-4.6565321817672878
 11
-24.621215212934981
 21
-3.348147726326216
  0
LINE
  8
_0-0_
  6
CONTINUOUS
 62
    7
 10
-24.621215212934981
 20
-3.348147726326216
 11
-21.779293523492509
 21
-2.1793642992691939
  0
LINE
  8
_0-0_
  6
CONTINUOUS
 62
    7
 10
-21.779293523492509
 20
-2.1793642992691939
 11
-18.282295587281123
 21
-1.1856947935943918
  0
LINE
  8
_0-0_
  6
CONTINUOUS
 62
    7
 10
-18.282295587281123
 20
-1.1856947935943918
 11
-14.236475917026249
 21
-0.3973313544107082
  0
LINE
  8
_0-0_
  6
CONTINUOUS
 62
    7
 10
-14.236475917026249
 20
-0.3973313544107082
 11
-9.7647646961250221
 21
0.1617719941134101
  0
LINE
  8
_0-0_
  6
CONTINUOUS
 62
    7
 10
-9.7647646961250221
 20
0.1617719941134101
 11
-5.0030326072295086
 21
0.4746271796529999
  0
LINE
  8
_0-0_
  6
CONTINUOUS
 62
    7
 10
-5.0030326072295086
 20
0.4746271796529999
 11
-0.0959624703080612
 21
0.5317282557078062
  0
LINE
  8
_0-0_
  6
CONTINUOUS
 62
    7
 10
-0.0959624703080612
 20
0.5317282557078062
 11
4.8073468716262564
 21
0.3313402349764249
  0
LINE
  8
_0-0_
  6
CONTINUOUS
 62
    7
 10
4.8073468716262564
 20
0.3313402349764249
 11
9.5579108454129962
 21
-0.1204481939324164
  0
LINE
  8
_0-0_
  6
CONTINUOUS
 62
    7
 10
9.5579108454129962
 20
-0.1204481939324164
 11
14.011385968609991
 21
-0.8099096682223301
  0
LINE
  8
_0-0_
  6
CONTINUOUS
 62
    7
 10
14.011385968609991
 20
-0.8099096682223301
 11
18.032455653166114
 21
-1.7160952498813469
  0
LINE
  8
_0-0_
  6
CONTINUOUS
 62
    7
 10
18.032455653166114
 20
-1.7160952498813469
 11
21.498941731475515
 21
-2.8114709485627838
  0
LINE
  8
_0-0_
  6
CONTINUOUS
 62
    7
 10
21.498941731475515
 20
-2.8114709485627838
 11
24.305516778175377
 21
-4.0627543279490492
  0
LINE
  8
_0-0_
  6
CONTINUOUS
 62
    7
 10
24.305516778175377
 20
-4.0627543279490492
 11
26.366904430667223
 21
-5.4319257757374384
  0
LINE
  8
_0-0_
  6
CONTINUOUS
 62
    7
 10
26.366904430667223
 20
-5.4319257757374384
 11
27.620470468242548
 21
-6.8773837103210962
  0
LINE
  8
_0-0_
  6
CONTINUOUS
 62
    7
 10
27.620470468242548
 20
-6.8773837103210962
 11
28.028125921184699
 21
-8.3552086237946934
  0
LINE
  8
_0-0_
  6
CONTINUOUS
 62
    7
 10
-15.870206668372711
 20
-7.5850624380129954
 11
-15.631784390861876
 21
-8.407947366566189
  0
LINE
  8
_0-0_
  6
CONTINUOUS
 62
    7
 10
-15.631784390861876
 20
-8.407947366566189
 11
-14.920896159690566
 21
-9.2066650851845093
  0
LINE
  8
_0-0_
  6
CONTINUOUS
 62
    7
 10
-14.920896159690566
 20
-9.2066650851845093
 11
-13.759141954036105
 21
-9.9569469601584313
  0
LINE
  8
_0-0_
  6
CONTINUOUS
 62
    7
 10
-13.759141954036105
 20
-9.9569469601584313
 11
-12.181821087561312
 21
-10.635996056377804
  0
LINE
  8
_0-0_
  6
CONTINUOUS
 62
    7
 10
-12.181821087561312
 20
-10.635996056377804
 11
-10.23685965663112
 21
-11.223179810669434
  0
LINE
  8
_0-0_
  6
CONTINUOUS
 62
    7
 10
-10.23685965663112
 20
-11.223179810669434
 11
-7.983354330126426
 21
-11.700656941788479
  0
LINE
  8
_0-0_
  6
CONTINUOUS
 62
    7
 10
-7.983354330126426
 20
-11.700656941788479
 11
-5.489776727064319
 21
-12.053919548720968
  0
LINE
  8
_0-0_
  6
CONTINUOUS
 62
    7
 10
-5.489776727064319
 20
-12.053919548720968
 11
-2.8318929411026748
 21
-12.272233925914788
  0
LINE
  8
_0-0_
  6
CONTINUOUS
 62
    7
 10
-2.8318929411026748
 20
-12.272233925914788
 11
-0.090461426123918
 21
-12.348966701491277
  0
LINE
  8
_0-0_
  6
CONTINUOUS
 62
    7
 10
-0.090461426123918
 20
-12.348966701491277
 11
2.6512208085206819
 21
-12.281786388893222
  0
LINE
  8
_0-0_
  6
CONTINUOUS
 62
    7
 10
2.6512208085206819
 20
-12.281786388893222
 11
5.3098491354895625
 21
-12.072734227924029
  0
LINE
  8
_0-0_
  6
CONTINUOUS
 62
    7
 10
5.3098491354895625
 20
-12.072734227924029
 11
7.8046424783986108
 21
-11.728162162709252
  0
LINE
  8
_0-0_
  6
CONTINUOUS
 62
    7
 10
7.8046424783986108
 20
-11.728162162709252
 11
10.059797803949911
 21
-11.258539841088561
  0
LINE
  8
_0-0_
  6
CONTINUOUS
 62
    7
 10
10.059797803949911
 20
-11.258539841088561
 11
12.006793358740216
 21
-10.678136499664047
  0
LINE
  8
_0-0_
  6
CONTINUOUS
 62
    7
 10
12.006793358740216
 20
-10.678136499664047
 11
13.586470668064512
 21
-10.004587400266614
  0
LINE
  8
_0-0_
  6
CONTINUOUS
 62
    7
 10
13.586470668064512
 20
-10.004587400266614
 11
14.750832036234291
 21
-9.258357991449186
  0
LINE
  8
_0-0_
  6
CONTINUOUS
 62
    7
 10
14.750832036234291
 20
-9.258357991449186
 11
15.464498932273008
 21
-8.4621220761883631
  0
LINE
  8
_0-0_
  6
CONTINUOUS
 62
    7
 10
15.464498932273008
 20
-8.4621220761883631
 11
15.705786948677362
 21
-7.6400728798545412
  0
LINE
  8
_0-0_
  6
CONTINUOUS
 62
    7
 10
-15.870206668372711
 20
-7.5850624380129954
 11
-15.628918651968357
 21
-6.7630132416791735
  0
LINE
  8
_0-0_
  6
CONTINUOUS
 62
    7
 10
-15.628918651968357
 20
-6.7630132416791735
 11
-14.915251755929669
 21
-5.9667773264183506
  0
LINE
  8
_0-0_
  6
CONTINUOUS
 62
    7
 10
-14.915251755929669
 20
-5.9667773264183506
 11
-13.750890387759862
 21
-5.2205479176009231
  0
LINE
  8
_0-0_
  6
CONTINUOUS
 62
    7
 10
-13.750890387759862
 20
-5.2205479176009231
 11
-12.171213078435565
 21
-4.5469988182035035
  0
LINE
  8
_0-0_
  6
CONTINUOUS
 62
    7
 10
-12.171213078435565
 20
-4.5469988182035035
 11
-10.22421752364526
 21
-3.9665954767789753
  0
LINE
  8
_0-0_
  6
CONTINUOUS
 62
    7
 10
-10.22421752364526
 20
-3.9665954767789753
 11
-7.96906219809396
 21
-3.496973155158285
  0
LINE
  8
_0-0_
  6
CONTINUOUS
 62
    7
 10
-7.96906219809396
 20
-3.496973155158285
 11
-5.4742688551849117
 21
-3.152401089943508
  0
LINE
  8
_0-0_
  6
CONTINUOUS
 62
    7
 10
-5.4742688551849117
 20
-3.152401089943508
 11
-2.8156405282160311
 21
-2.9433489289743147
  0
LINE
  8
_0-0_
  6
CONTINUOUS
 62
    7
 10
-2.8156405282160311
 20
-2.9433489289743147
 11
-0.0739582935714315
 21
-2.8761686163762601
  0
LINE
  8
_0-0_
  6
CONTINUOUS
 62
    7
 10
-0.0739582935714315
 20
-2.8761686163762601
 11
2.6674732214073256
 21
-2.9529013919527483
  0
LINE
  8
_0-0_
  6
CONTINUOUS
 62
    7
 10
2.6674732214073256
 20
-2.9529013919527483
 11
5.3253570073689698
 21
-3.1712157691465688
  0
LINE
  8
_0-0_
  6
CONTINUOUS
 62
    7
 10
5.3253570073689698
 20
-3.1712157691465688
 11
7.8189346104310768
 21
-3.5244783760790579
  0
LINE
  8
_0-0_
  6
CONTINUOUS
 62
    7
 10
7.8189346104310768
 20
-3.5244783760790579
 11
10.072439936935771
 21
-4.0019555071981028
  0
LINE
  8
_0-0_
  6
CONTINUOUS
 62
    7
 10
10.072439936935771
 20
-4.0019555071981028
 11
12.017401367865935
 21
-4.5891392614897324
  0
LINE
  8
_0-0_
  6
CONTINUOUS
 62
    7
 10
12.017401367865935
 20
-4.5891392614897324
 11
13.594722234340756
 21
-5.2681883577091053
  0
LINE
  8
_0-0_
  6
CONTINUOUS
 62
    7
 10
13.594722234340756
 20
-5.2681883577091053
 11
14.756476439995216
 21
-6.0184702326830131
  0
LINE
  8
_0-0_
  6
CONTINUOUS
 62
    7
 10
14.756476439995216
 20
-6.0184702326830131
 11
15.467364671166527
 21
-6.8171879513013476
  0
LINE
  8
_0-0_
  6
CONTINUOUS
 62
    7
 10
15.467364671166527
 20
-6.8171879513013476
 11
15.705786948677362
 21
-7.640072879854527
  0
LINE
  8
_0-0_
  6
CONTINUOUS
 62
    7
 10
-13.889830762076864
 20
-8.1901772982700418
 11
-13.680300570008379
 21
-8.9033284166496696
  0
LINE
  8
_0-0_
  6
CONTINUOUS
 62
    7
 10
-13.680300570008379
 20
-8.9033284166496696
 11
-13.060942201555017
 21
-9.5939750669498505
  0
LINE
  8
_0-0_
  6
CONTINUOUS
 62
    7
 10
-13.060942201555017
 20
-9.5939750669498505
 11
-12.050574547331772
 21
-10.241132300185269
  0
LINE
  8
_0-0_
  6
CONTINUOUS
 62
    7
 10
-12.050574547331772
 20
-10.241132300185269
 11
-10.679897117241532
 21
-10.82513657130144
  0
LINE
  8
_0-0_
  6
CONTINUOUS
 62
    7
 10
-10.679897117241532
 20
-10.82513657130144
 11
-8.9905572514013645
 21
-11.328243206040922
  0
LINE
  8
_0-0_
  6
CONTINUOUS
 62
    7
 10
-8.9905572514013645
 20
-11.328243206040922
 11
-7.0338846867875962
 21
-11.735165563891384
  0
LINE
  8
_0-0_
  6
CONTINUOUS
 62
    7
 10
-7.0338846867875962
 20
-11.735165563891384
 11
-4.8693319291518922
 21
-12.033539514922195
  0
LINE
  8
_0-0_
  6
CONTINUOUS
 62
    7
 10
-4.8693319291518922
 20
-12.033539514922195
 11
-2.5626678187184755
 21
-12.214299117615779
  0
LINE
  8
_0-0_
  6
CONTINUOUS
 62
    7
 10
-2.5626678187184755
 20
-12.214299117615779
 11
-0.1839791772545231
 21
-12.271952082913087
  0
LINE
  8
_0-0_
  6
CONTINUOUS
 62
    7
 10
-0.1839791772545231
 20
-12.271952082913087
 11
2.1944587445436152
 21
-12.204746654637345
  0
LINE
  8
_0-0_
  6
CONTINUOUS
 62
    7
 10
2.1944587445436152
 20
-12.204746654637345
 11
4.5003783139697671
 21
-12.014724835719134
  0
LINE
  8
_0-0_
  6
CONTINUOUS
 62
    7
 10
4.5003783139697671
 20
-12.014724835719134
 11
6.6637153317585014
 21
-11.707660342970597
  0
LINE
  8
_0-0_
  6
CONTINUOUS
 62
    7
 10
6.6637153317585014
 20
-11.707660342970597
 11
8.6187378973257207
 21
-11.29288317562178
  0
LINE
  8
_0-0_
  6
CONTINUOUS
 62
    7
 10
8.6187378973257207
 20
-11.29288317562178
 11
10.306043639305747
 21
-10.782996128015197
  0
LINE
  8
_0-0_
  6
CONTINUOUS
 62
    7
 10
10.306043639305747
 20
-10.782996128015197
 11
11.674364626546483
 21
-10.193491860077073
  0
LINE
  8
_0-0_
  6
CONTINUOUS
 62
    7
 10
11.674364626546483
 20
-10.193491860077073
 11
12.682125118254381
 21
-9.5422821606851596
  0
LINE
  8
_0-0_
  6
CONTINUOUS
 62
    7
 10
12.682125118254381
 20
-9.5422821606851596
 11
13.298704821840365
 21
-8.8491537070274671
  0
LINE
  8
_0-0_
  6
CONTINUOUS
 62
    7
 10
13.298704821840365
 20
-8.8491537070274671
 11
13.505369275015331
 21
-8.1351668564284818
  0
LINE
  8
_0-0_
  6
CONTINUOUS
 62
    7
 10
-13.889830762076864
 20
-8.1901772982700418
 11
-13.683166308901898
 21
-7.4761904476710423
  0
LINE
  8
_0-0_
  6
CONTINUOUS
 62
    7
 10
-13.683166308901898
 20
-7.4761904476710423
 11
-13.066586605315914
 21
-6.7830619940133499
  0
LINE
  8
_0-0_
  6
CONTINUOUS
 62
    7
 10
-13.066586605315914
 20
-6.7830619940133499
 11
-12.058826113608015
 21
-6.1318522946214369
  0
LINE
  8
_0-0_
  6
CONTINUOUS
 62
    7
 10
-12.058826113608015
 20
-6.1318522946214369
 11
-10.690505126367279
 21
-5.5423480266833121
  0
LINE
  8
_0-0_
  6
CONTINUOUS
 62
    7
 10
-10.690505126367279
 20
-5.5423480266833121
 11
-9.0031993843872531
 21
-5.0324609790767294
  0
LINE
  8
_0-0_
  6
CONTINUOUS
 62
    7
 10
-9.0031993843872531
 20
-5.0324609790767294
 11
-7.0481768188200622
 21
-4.6176838117279129
  0
LINE
  8
_0-0_
  6
CONTINUOUS
 62
    7
 10
-7.0481768188200622
 20
-4.6176838117279129
 11
-4.8848398010312994
 21
-4.3106193189793753
  0
LINE
  8
_0-0_
  6
CONTINUOUS
 62
    7
 10
-4.8848398010312994
 20
-4.3106193189793753
 11
-2.5789202316051476
 21
-4.1205975000611641
  0
LINE
  8
_0-0_
  6
CONTINUOUS
 62
    7
 10
-2.5789202316051476
 20
-4.1205975000611641
 11
-0.2004823098070096
 21
-4.0533920717854226
  0
LINE
  8
_0-0_
  6
CONTINUOUS
 62
    7
 10
-0.2004823098070096
 20
-4.0533920717854226
 11
2.1782063316569431
 21
-4.1110450370827163
  0
LINE
  8
_0-0_
  6
CONTINUOUS
 62
    7
 10
2.1782063316569431
 20
-4.1110450370827163
 11
4.4848704420903598
 21
-4.2918046397763145
  0
LINE
  8
_0-0_
  6
CONTINUOUS
 62
    7
 10
4.4848704420903598
 20
-4.2918046397763145
 11
6.6494231997260638
 21
-4.5901785908071258
  0
LINE
  8
_0-0_
  6
CONTINUOUS
 62
    7
 10
6.6494231997260638
 20
-4.5901785908071258
 11
8.6060957643398321
 21
-4.9971009486575877
  0
LINE
  8
_0-0_
  6
CONTINUOUS
 62
    7
 10
8.6060957643398321
 20
-4.9971009486575877
 11
10.29543563018
 21
-5.5002075833970689
  0
LINE
  8
_0-0_
  6
CONTINUOUS
 62
    7
 10
10.29543563018
 20
-5.5002075833970689
 11
11.66611306027024
 21
-6.0842118545132404
  0
LINE
  8
_0-0_
  6
CONTINUOUS
 62
    7
 10
11.66611306027024
 20
-6.0842118545132404
 11
12.676480714493456
 21
-6.7313690877486589
  0
LINE
  8
_0-0_
  6
CONTINUOUS
 62
    7
 10
12.676480714493456
 20
-6.7313690877486589
 11
13.295839082946818
 21
-7.4220157380488399
  0
LINE
  8
_0-0_
  6
CONTINUOUS
 62
    7
 10
13.295839082946818
 20
-7.4220157380488399
 11
13.505369275015331
 21
-8.1351668564284676
  0
LINE
  8
_0-0_
  6
CONTINUOUS
 62
    7
 10
-11.084298228157801
 20
-7.640072879854527
 11
-10.923301128181672
 21
-8.2134592535527684
  0
LINE
  8
_0-0_
  6
CONTINUOUS
 62
    7
 10
-10.923301128181672
 20
-8.2134592535527684
 11
-10.433738688093436
 21
-8.7727665013111515
  0
LINE
  8
_0-0_
  6
CONTINUOUS
 62
    7
 10
-10.433738688093436
 20
-8.7727665013111515
 11
-9.6304860149046565
 21
-9.3010003554296485
  0
LINE
  8
_0-0_
  6
CONTINUOUS
 62
    7
 10
-9.6304860149046565
 20
-9.3010003554296485
 11
-8.5379495346247243
 21
-9.782110697550122
  0
LINE
  8
_0-0_
  6
CONTINUOUS
 62
    7
 10
-8.5379495346247243
 20
-9.782110697550122
 11
-7.1893254153567714
 21
-10.201479233380807
  0
LINE
  8
_0-0_
  6
CONTINUOUS
 62
    7
 10
-7.1893254153567714
 20
-10.201479233380807
 11
-5.6255909185280277
 21
-10.546363662171201
  0
LINE
  8
_0-0_
  6
CONTINUOUS
 62
    7
 10
-5.6255909185280277
 20
-10.546363662171201
 11
-3.894259325536817
 21
-10.806284845072467
  0
LINE
  8
_0-0_
  6
CONTINUOUS
 62
    7
 10
-3.894259325536817
 20
-10.806284845072467
 11
-2.0479362707401183
 21
-10.973345208468599
  0
LINE
  8
_0-0_
  6
CONTINUOUS
 62
    7
 10
-2.0479362707401183
 20
-10.973345208468599
 11
-0.1427213458733922
 21
-11.042468707754436
  0
LINE
  8
_0-0_
  6
CONTINUOUS
 62
    7
 10
-0.1427213458733922
 20
-11.042468707754436
 11
1.7634964576565915
 21
-11.011555060382348
  0
LINE
  8
_0-0_
  6
CONTINUOUS
 62
    7
 10
1.7634964576565915
 20
-11.011555060382348
 11
3.6127976764823213
 21
-10.881543561884696
  0
LINE
  8
_0-0_
  6
CONTINUOUS
 62
    7
 10
3.6127976764823213
 20
-10.881543561884696
 11
5.348992228861297
 21
-10.656384545854307
  0
LINE
  8
_0-0_
  6
CONTINUOUS
 62
    7
 10
5.348992228861297
 20
-10.656384545854307
 11
6.919326721876379
 21
-10.342919355057331
  0
LINE
  8
_0-0_
  6
CONTINUOUS
 62
    7
 10
6.919326721876379
 20
-10.342919355057331
 11
8.2760873365848706
 21
-9.9506724706950944
  0
LINE
  8
_0-0_
  6
CONTINUOUS
 62
    7
 10
8.2760873365848706
 20
-9.9506724706950944
 11
9.3780495882628454
 21
-9.4915621158624202
  0
LINE
  8
_0-0_
  6
CONTINUOUS
 62
    7
 10
9.3780495882628454
 20
-9.4915621158624202
 11
10.191730911512868
 21
-8.9795381263698584
  0
LINE
  8
_0-0_
  6
CONTINUOUS
 62
    7
 10
10.191730911512868
 20
-8.9795381263698584
 11
10.692408011070645
 21
-8.4301580920415216
  0
LINE
  8
_0-0_
  6
CONTINUOUS
 62
    7
 10
10.692408011070645
 20
-8.4301580920415216
 11
10.864868066620906
 21
-7.8601146472207386
  0
LINE
  8
_0-0_
  6
CONTINUOUS
 62
    7
 10
-11.084298228157801
 20
-7.640072879854527
 11
-10.91183817260754
 21
-7.070029435033744
  0
LINE
  8
_0-0_
  6
CONTINUOUS
 62
    7
 10
-10.91183817260754
 20
-7.070029435033744
 11
-10.411161073049763
 21
-6.5206494007054072
  0
LINE
  8
_0-0_
  6
CONTINUOUS
 62
    7
 10
-10.411161073049763
 20
-6.5206494007054072
 11
-9.5974797497997404
 21
-6.0086254112128454
  0
LINE
  8
_0-0_
  6
CONTINUOUS
 62
    7
 10
-9.5974797497997404
 20
-6.0086254112128454
 11
-8.4955174981217656
 21
-5.5495150563801854
  0
LINE
  8
_0-0_
  6
CONTINUOUS
 62
    7
 10
-8.4955174981217656
 20
-5.5495150563801854
 11
-7.138756883413274
 21
-5.1572681720179343
  0
LINE
  8
_0-0_
  6
CONTINUOUS
 62
    7
 10
-7.138756883413274
 20
-5.1572681720179343
 11
-5.5684223903982204
 21
-4.8438029812209589
  0
LINE
  8
_0-0_
  6
CONTINUOUS
 62
    7
 10
-5.5684223903982204
 20
-4.8438029812209589
 11
-3.8322278380192163
 21
-4.6186439651905697
  0
LINE
  8
_0-0_
  6
CONTINUOUS
 62
    7
 10
-3.8322278380192163
 20
-4.6186439651905697
 11
-1.9829266191934869
 21
-4.488632466692918
  0
LINE
  8
_0-0_
  6
CONTINUOUS
 62
    7
 10
-1.9829266191934869
 20
-4.488632466692918
 11
-0.0767088156635031
 21
-4.4577188193208297
  0
LINE
  8
_0-0_
  6
CONTINUOUS
 62
    7
 10
-0.0767088156635031
 20
-4.4577188193208297
 11
1.8285061092032231
 21
-4.5268423186066666
  0
LINE
  8
_0-0_
  6
CONTINUOUS
 62
    7
 10
1.8285061092032231
 20
-4.5268423186066666
 11
3.674829163999922
 21
-4.6939026820027987
  0
LINE
  8
_0-0_
  6
CONTINUOUS
 62
    7
 10
3.674829163999922
 20
-4.6939026820027987
 11
5.4061607569911327
 21
-4.9538238649040647
  0
LINE
  8
_0-0_
  6
CONTINUOUS
 62
    7
 10
5.4061607569911327
 20
-4.9538238649040647
 11
6.9698952538198764
 21
-5.2987082936944585
  0
LINE
  8
_0-0_
  6
CONTINUOUS
 62
    7
 10
6.9698952538198764
 20
-5.2987082936944585
 11
8.3185193730878293
 21
-5.7180768295251436
  0
LINE
  8
_0-0_
  6
CONTINUOUS
 62
    7
 10
8.3185193730878293
 20
-5.7180768295251436
 11
9.4110558533677615
 21
-6.1991871716456028
  0
LINE
  8
_0-0_
  6
CONTINUOUS
 62
    7
 10
9.4110558533677615
 20
-6.1991871716456028
 11
10.214308526556541
 21
-6.727421025764114
  0
LINE
  8
_0-0_
  6
CONTINUOUS
 62
    7
 10
10.214308526556541
 20
-6.727421025764114
 11
10.703870966644748
 21
-7.2867282735224972
  0
LINE
  8
_0-0_
  6
CONTINUOUS
 62
    7
 10
10.703870966644748
 20
-7.2867282735224972
 11
10.864868066620906
 21
-7.8601146472207386
  0
ARC
  8
_0-0_
  6
CONTINUOUS
 62
    7
 10
0.3296360664246458
 20
14.911278725023964
 40
23.774941156737931
 50
243.84838641615744
 51
293.96023891407947
  0
ARC
  8
_0-0_
  6
CONTINUOUS
 62
    7
 10
-17.855324854137631
 20
-12.803522557332867
 40
16.642554844013304
 50
103.75109531321743
 51
140.64037255620909
  0
ARC
  8
_0-0_
  6
CONTINUOUS
 62
    7
 10
-2.5054240939650274
 20
-65.390359320889232
 40
71.411534181652968
 50
85.889555966046657
 51
105.68492996201634
  0
ARC
  8
_0-0_
  6
CONTINUOUS
 62
    7
 10
4.3221068691687403
 20
-49.455063664849597
 40
55.318947872452156
 50
69.696634423254409
 51
91.770151095227135
  0
ARC
  8
_0-0_
  6
CONTINUOUS
 62
    7
 10
20.104604798134336
 20
-10.11043176812778
 40
12.993437356266531
 50
36.021748362817483
 51
74.772918682055163
  0
LINE
  8
_0-0_
  6
CONTINUOUS
 62
    7
 10
30.613616687737579
 20
-2.4690913467487814
 11
30.778648013262217
 21
-7.1449789032805722
  0
LINE
  8
_0-0_
  6
CONTINUOUS
 62
    7
 10
-30.723025965591358
 20
-2.2490495793825698
 11
-30.943067732957569
 21
-6.6498849267066316
  0
ARC
  8
_0-0_
  6
CONTINUOUS
 62
    7
 10
14.866955249658409
 20
-38.811791912012787
 40
57.058550930357271
 50
115.69672905866194
 51
133.55855266288862
  0
ARC
  8
_0-0_
  6
CONTINUOUS
 62
    7
 10
0.5917953131412525
 20
-9.0499996670044265
 40
24.066586472460024
 50
104.46121444221725
 51
147.5673219993011
  0
ARC
  8
_0-0_
  6
CONTINUOUS
 62
    7
 10
3.3347307550627843
 20
0.3741432260819426
 40
15.911720427067632
 50
117.17756158864812
 51
162.01421379508142
  0
ARC
  8
_0-0_
  6
CONTINUOUS
 62
    7
 10
15.990269519343704
 20
9.5302016126992459
 40
20.56771187040075
 50
166.24926083445749
 51
190.03154048805138
  0
ARC
  8
_0-0_
  6
CONTINUOUS
 62
    7
 10
-28.430054227371027
 20
5.0217648413902669
 40
30.615657090704499
 50
1.6297523112249115
 51
17.659058968991221
  0
ARC
  8
_0-0_
  6
CONTINUOUS
 62
    7
 10
-4.8225924171592371
 20
-1.0494770541844769
 40
17.892390632761799
 50
20.742276057691317
 51
59.480922046059185
  0
ARC
  8
_0-0_
  6
CONTINUOUS
 62
    7
 10
-9.4704955410212879
 20
-24.529657121570594
 40
41.774741653101493
 50
41.28213082937431
 51
68.390978181503613
  0
ARC
  8
_0-0_
  6
CONTINUOUS
 62
    7
 10
-5.3682299142685483
 20
-25.3703543821658
 40
40.58658602802258
 50
42.485103557254362
 51
65.488783244912582
  0
ARC
  8
_0-0_
  6
CONTINUOUS
 62
    7
 10
-0.0777176031356907
 20
-8.040435407870417
 40
22.925238160718219
 50
68.32532741395346
 51
103.47099521070487
  0
ARC
  8
_0-0_
  6
CONTINUOUS
 62
    7
 10
-2.8313504111483585
 20
37.435458046188799
 40
2.5236866335103949
 50
96.288550678764111
 51
203.6448884492456
  0
ARC
  8
_0-0_
  6
CONTINUOUS
 62
    7
 10
0.1103266865977639
 20
33.131832931708033
 40
7.5340097732985267
 50
64.713520958843091
 51
115.28647904115691
  0
ARC
  8
_0-0_
  6
CONTINUOUS
 62
    7
 10
2.2325602283511241
 20
37.535195005363406
 40
2.6463356854182414
 50
339.03453369138703
 51
65.536641602278493
  0
ARC
  8
_0-0_
  6
CONTINUOUS
 62
    7
 10
-1.4961890565902627
 20
36.807980780091597
 40
4.4709295993433891
 50
100.13106231223051
 51
159.8427101776978
  0
ARC
  8
_0-0_
  6
CONTINUOUS
 62
    7
 10
-0.0806998853945606
 20
33.860686744209332
 40
7.6713183175141664
 50
57.478063178814281
 51
106.68045701790363
  0
ARC
  8
_0-0_
  6
CONTINUOUS
 62
    7
 10
-0.7761877415410458
 20
35.60871333872764
 40
6.7462217859124767
 50
24.475185118896334
 51
44.402793498710849
  0
ARC
  8
_0-0_
  6
CONTINUOUS
 62
    7
 10
-1.0146755888097323
 20
37.676521875772707
 40
6.193217836467908
 50
94.610361224997973
 51
143.97236311697054
  0
ARC
  8
_0-0_
  6
CONTINUOUS
 62
    7
 10
0.0869314412168671
 20
36.58674160092913
 40
7.4369816397132338
 50
60.81433322859106
 51
102.41916980955024
  0
ARC
  8
_0-0_
  6
CONTINUOUS
 62
    7
 10
2.2204287094751489
 20
39.757991177607451
 40
3.6417134023475608
 50
14.326048767053809
 51
65.795520148693825
  0
ARC
  8
_0-0_
  6
CONTINUOUS
 62
    7
 10
-0.4995106477848685
 20
38.369397095503629
 40
7.0439312415851827
 50
94.665052847807715
 51
133.66820683816329
  0
ARC
  8
_0-0_
  6
CONTINUOUS
 62
    7
 10
0.1781302544489642
 20
39.02221458409052
 40
6.4894085329205682
 50
53.440722068330558
 51
101.11056656082465
  0
ARC
  8
_0-0_
  6
CONTINUOUS
 62
    7
 10
2.5307861276260066
 20
41.62177778925404
 40
3.0193166434977878
 50
23.061519532293399
 51
59.931417178137707
  0
ARC
  8
_0-0_
  6
CONTINUOUS
 62
    7
 10
0.0141786822707012
 20
39.371030487659837
 40
7.1130592447347993
 50
80.426567217938739
 51
131.01859298973736
  0
ARC
  8
_0-0_
  6
CONTINUOUS
 62
    7
 10
0.2461566093671103
 20
41.107001201878219
 40
5.3630195867210615
 50
43.328221590099261
 51
79.785921161174045
  0
ARC
  8
_0-0_
  6
CONTINUOUS
 62
    7
 10
-0.3640069799181537
 20
41.218380269763756
 40
6.0992533157712217
 50
85.028288855097273
 51
133.09686517398242
  0
ARC
  8
_0-0_
  6
CONTINUOUS
 62
    7
 10
-0.1986146516869757
 20
41.039391500135125
 40
6.2658292130732365
 50
47.012784395816183
 51
86.677044096252629
  0
ARC
  8
_0-0_
  6
CONTINUOUS
 62
    7
 10
0.1301625808574351
 20
42.046863647700221
 40
6.3069549836691117
 50
88.570471126012535
 51
138.65807301013072
  0
ARC
  8
_0-0_
  6
CONTINUOUS
 62
    7
 10
-0.1780543489258354
 20
43.128671594307249
 40
5.2438914267005083
 50
35.36516604453508
 51
84.906504962960966
  0
ARC
  8
_0-0_
  6
CONTINUOUS
 62
    7
 10
-0.2979836675534761
 20
43.390972609092998
 40
5.8237805346865343
 50
88.351497842423129
 51
134.213800154735
  0
ARC
  8
_0-0_
  6
CONTINUOUS
 62
    7
 10
0.0433824039280261
 20
44.425930204169404
 40
4.7895680313883693
 50
32.156170720810373
 51
92.079902113447162
  0
LINE
  8
_0-0_
  6
CONTINUOUS
 62
    7
 10
-4.3591257192866326
 20
47.565124613014078
 11
-4.6541498723476682
 21
44.098590814546682
  0
LINE
  8
_0-0_
  6
CONTINUOUS
 62
    7
 10
4.098233335130308
 20
46.975076306891978
 11
4.1474040273071378
 21
44.14776150672354
  0
LINE
  8
_0-0_
  6
CONTINUOUS
 62
    7
 10
-5.363212276636526
 20
43.464627590945966
 11
-5.58839302370769
 21
41.812153628323514
  0
LINE
  8
_0-0_
  6
CONTINUOUS
 62
    7
 10
-4.4328817575518631
 20
44.319858929342487
 11
-4.5066377958171504
 21
42.943079548390884
  0
LINE
  8
_0-0_
  6
CONTINUOUS
 62
    7
 10
-2.9577609922465999
 20
45.008248619818275
 11
-2.982346338335029
 21
43.631469238866671
  0
LINE
  8
_0-0_
  6
CONTINUOUS
 62
    7
 10
-1.0401039973497268
 20
45.377028811144598
 11
-1.0646893434381559
 21
44.024834776281423
  0
LINE
  8
_0-0_
  6
CONTINUOUS
 62
    7
 10
0.9021383436355472
 20
45.352443465056169
 11
0.8775529975471181
 21
44.049420122369852
  0
LINE
  8
_0-0_
  6
CONTINUOUS
 62
    7
 10
2.8689660307092222
 20
44.762395158934069
 11
2.8689660307092222
 21
43.631469238866671
  0
LINE
  8
_0-0_
  6
CONTINUOUS
 62
    7
 10
4.1228186812187086
 20
43.975664084104565
 11
4.1474040273071378
 21
43.041420932744572
  0
LINE
  8
_0-0_
  6
CONTINUOUS
 62
    7
 10
5.3520859856397944
 20
42.746396779683508
 11
5.3520859856397944
 21
41.590885513527709
  0
LINE
  8
_0-0_
  6
CONTINUOUS
 62
    7
 10
-6.0233375787351324
 20
41.319220359125509
 11
-6.0800999454761016
 21
38.788156059447701
  0
LINE
  8
_0-0_
  6
CONTINUOUS
 62
    7
 10
-6.0800999454761016
 20
38.788156059447701
 11
-5.6932749276858292
 21
38.348656499681752
  0
LINE
  8
_0-0_
  6
CONTINUOUS
 62
    7
 10
5.7488969753566916
 20
40.659095057026903
 11
5.5979394465239718
 21
38.591473290740325
  0
LINE
  8
_0-0_
  6
CONTINUOUS
 62
    7
 10
5.5979394465239718
 20
38.591473290740325
 11
5.3638238824658426
 21
38.403666941523326
  0
LINE
  8
_0-0_
  6
CONTINUOUS
 62
    7
 10
5.3638238824658426
 20
38.403666941523326
 11
5.3766713317281951
 21
37.411376678496097
  0
LINE
  8
_0-0_
  6
CONTINUOUS
 62
    7
 10
5.3766713317281951
 20
37.411376678496097
 11
5.2045739091092482
 21
36.895084410639257
  0
LINE
  8
_0-0_
  6
CONTINUOUS
 62
    7
 10
5.2045739091092482
 20
36.895084410639257
 11
4.7620376795176664
 21
36.550889565401363
  0
LINE
  8
_0-0_
  6
CONTINUOUS
 62
    7
 10
-5.6932749276858292
 20
38.348656499681752
 11
-5.7113197541497787
 21
37.853912908087707
  0
LINE
  8
_0-0_
  6
CONTINUOUS
 62
    7
 10
-5.7113197541497787
 20
37.853912908087707
 11
-5.6129783697960907
 21
37.140937871523491
  0
LINE
  8
_0-0_
  6
CONTINUOUS
 62
    7
 10
-5.6129783697960907
 20
37.140937871523491
 11
-5.3425395628234558
 21
36.600060257578221
  0
LINE
  8
_0-0_
  6
CONTINUOUS
 62
    7
 10
-5.3425395628234558
 20
36.600060257578221
 11
-5.1431705092703144
 21
36.423291035227479
  0
LINE
  8
_0-0_
  6
CONTINUOUS
 62
    7
 10
-5.0721007558508493
 20
38.394790522032949
 11
-5.6375637158845198
 21
14.227395317114885
  0
LINE
  8
_0-0_
  6
CONTINUOUS
 62
    7
 10
4.7036985803672362
 20
36.588322360752144
 11
5.9667196378502947
 21
14.227395317114885
  0
LINE
  8
_0-0_
  6
CONTINUOUS
 62
    7
 10
-2.687322185273965
 20
37.386791332407697
 11
-3.2281997992192348
 21
18.406904152146495
  0
LINE
  8
_0-0_
  6
CONTINUOUS
 62
    7
 10
0.754626267105001
 20
38.911082789889818
 11
1.0988211123428948
 21
19.832854225274929
  0
LINE
  8
_0-0_
  6
CONTINUOUS
 62
    7
 10
3.8523798742460738
 20
36.796743026285569
 11
4.5407695647218613
 21
18.947781766091765
  0
LINE
  8
_0-0_
  6
CONTINUOUS
 62
    7
 10
-30.036771069377277
 20
-7.3477857219919667
 11
-28.755618767054113
 21
-7.6735024090232695
  0
LINE
  8
_0-0_
  6
CONTINUOUS
 62
    7
 10
-29.819626611356409
 20
-6.4574934441063743
 11
-28.647046538043679
 21
-6.8483534685439462
  0
LINE
  8
_0-0_
  6
CONTINUOUS
 62
    7
 10
-24.890447414282544
 20
-2.0060320546784265
 11
-23.783010678376069
 21
-2.7660376577514949
  0
LINE
  8
_0-0_
  6
CONTINUOUS
 62
    7
 10
-23.240149533323883
 20
-1.0940253309907586
 11
-22.306428363834112
 21
-2.0060320546784265
  0
LINE
  8
_0-0_
  6
CONTINUOUS
 62
    7
 10
-8.2354674840813775
 20
1.3162781530409706
 11
-8.1268952550709432
 21
0.5345581041658125
  0
LINE
  8
_0-0_
  6
CONTINUOUS
 62
    7
 10
-5.3257317466016705
 20
1.5334226110618392
 11
-5.3040173007995666
 21
0.6431303331762467
  0
LINE
  8
_0-0_
  6
CONTINUOUS
 62
    7
 10
12.588686040120583
 20
0.8819892369992192
 11
12.02411044926628
 21
-0.0734463782926422
  0
LINE
  8
_0-0_
  6
CONTINUOUS
 62
    7
 10
15.150990644766912
 20
0.5128436583637228
 11
14.456128379100099
 21
-0.4425919569281244
  0
LINE
  8
_0-0_
  6
CONTINUOUS
 62
    7
 10
26.876791377894154
 20
-3.4608999234182942
 11
25.682496858779349
 21
-4.3729066471059763
  0
LINE
  8
_0-0_
  6
CONTINUOUS
 62
    7
 10
27.984228113800629
 20
-4.1557621890850935
 11
26.464216907654521
 21
-4.9809111295644311
  0
LINE
  8
_0-0_
  6
CONTINUOUS
 62
    7
 10
28.288230355029857
 20
-8.7809391449297447
 11
29.74309822376971
 21
-8.7157958075234898
  0
LINE
  8
_0-0_
  6
CONTINUOUS
 62
    7
 10
27.81051254738394
 20
-9.6712314228153229
 11
29.02652151230085
 21
-9.475801410596544
  0
LINE
  8
_0-0_
  6
CONTINUOUS
 62
    7
 10
-30.454555162495165
 20
-2.1874467982691339
 11
-30.631129106066265
 21
-4.9949725010498565
  0
LINE
  8
_0-0_
  6
CONTINUOUS
 62
    7
 10
-30.189694247138487
 20
-2.0108728546980057
 11
-30.366268190709601
 21
-4.4829080646936301
  0
LINE
  8
_0-0_
  6
CONTINUOUS
 62
    7
 10
-29.995462909210257
 20
-1.6753823619128934
 11
-30.013120303567373
 21
-4.0767879944800551
  0
LINE
  8
_0-0_
  6
CONTINUOUS
 62
    7
 10
-29.659972416425131
 20
-1.5164658126988808
 11
-29.677629810782246
 21
-3.9708436283373896
  0
LINE
  8
_0-0_
  6
CONTINUOUS
 62
    7
 10
-29.350968015175692
 20
-1.0662022565925451
 11
-29.368625409532807
 21
-3.5205800722310396
  0
LINE
  8
_0-0_
  6
CONTINUOUS
 62
    7
 10
-29.086107099819014
 20
-0.7483691581645342
 11
-29.103764494176129
 21
-3.2027469738030288
  0
LINE
  8
_0-0_
  6
CONTINUOUS
 62
    7
 10
-28.803588790105234
 20
-0.4835082428078703
 11
-28.821246184462336
 21
-2.9378860584463649
  0
LINE
  8
_0-0_
  6
CONTINUOUS
 62
    7
 10
-28.609357452177004
 20
-0.359906482308089
 11
-28.62701484653412
 21
-2.8142842979465836
  0
LINE
  8
_0-0_
  6
CONTINUOUS
 62
    7
 10
-28.326839142463225
 20
-0.2186473274511922
 11
-28.344496536820326
 21
-2.6730251430896868
  0
LINE
  8
_0-0_
  6
CONTINUOUS
 62
    7
 10
-28.02666343839233
 20
0.081528376619703
 11
-28.044320832749445
 21
-2.3728494390187915
  0
LINE
  8
_0-0_
  6
CONTINUOUS
 62
    7
 10
-27.850089494821216
 20
0.2757597145479326
 11
-27.867746889178317
 21
-2.1786181010905761
  0
LINE
  8
_0-0_
  6
CONTINUOUS
 62
    7
 10
-27.479284213321872
 20
0.4523336581190466
 11
-27.496941607678973
 21
-2.0020441575194479
  0
LINE
  8
_0-0_
  6
CONTINUOUS
 62
    7
 10
-27.055506748751196
 20
0.7348519678328262
 11
-27.073164143108297
 21
-1.7195258478056683
  0
LINE
  8
_0-0_
  6
CONTINUOUS
 62
    7
 10
-26.561099706752071
 20
1.0350276719037357
 11
-26.578757101109186
 21
-1.4193501437347731
  0
LINE
  8
_0-0_
  6
CONTINUOUS
 62
    7
 10
-26.207951819609843
 20
1.2645737985461825
 11
-26.225609213966944
 21
-1.1898040170923263
  0
LINE
  8
_0-0_
  6
CONTINUOUS
 62
    7
 10
-25.978405692967396
 20
1.3352033759746167
 11
-25.996063087324497
 21
-1.1191744396638779
  0
LINE
  8
_0-0_
  6
CONTINUOUS
 62
    7
 10
-25.272109918682926
 20
1.6530364744026276
 11
-25.289767313040041
 21
-0.8013413412358669
  0
LINE
  8
_0-0_
  6
CONTINUOUS
 62
    7
 10
-24.654101116184034
 20
1.9708695728306385
 11
-24.671758510541135
 21
-0.4835082428078703
  0
LINE
  8
_0-0_
  6
CONTINUOUS
 62
    7
 10
-24.106721891113562
 20
2.1651009107588681
 11
-24.124379285470678
 21
-0.2892769048796406
  0
LINE
  8
_0-0_
  6
CONTINUOUS
 62
    7
 10
-23.718259215257117
 20
2.3240174599728665
 11
-23.735916609614218
 21
-0.130360355665628
  0
LINE
  8
_0-0_
  6
CONTINUOUS
 62
    7
 10
-23.170879990186659
 20
2.482934009186879
 11
-23.188537384543761
 21
0.0285561935483702
  0
LINE
  8
_0-0_
  6
CONTINUOUS
 62
    7
 10
-22.605843370759086
 20
2.6771653471150945
 11
-22.623500765116201
 21
0.2227875314765999
  0
LINE
  8
_0-0_
  6
CONTINUOUS
 62
    7
 10
-22.111436328759961
 20
2.8007671076148757
 11
-22.129093723117077
 21
0.3463892919763811
  0
LINE
  8
_0-0_
  6
CONTINUOUS
 62
    7
 10
-21.670001469832169
 20
2.9949984455431053
 11
-21.687658864189284
 21
0.5406206299046107
  0
LINE
  8
_0-0_
  6
CONTINUOUS
 62
    7
 10
-20.999020484261944
 20
3.0832854173286695
 11
-21.016677878619031
 21
0.6289076016901606
  0
LINE
  8
_0-0_
  6
CONTINUOUS
 62
    7
 10
-20.433983864834385
 20
3.2068871778284507
 11
-20.451641259191472
 21
0.7525093621899419
  0
LINE
  8
_0-0_
  6
CONTINUOUS
 62
    7
 10
-19.974891611549463
 20
3.4011185157566661
 11
-19.992549005906579
 21
0.9467407001181715
  0
LINE
  8
_0-0_
  6
CONTINUOUS
 62
    7
 10
-19.356882809050557
 20
3.5247202762564616
 11
-19.374540203407673
 21
1.0703424606179528
  0
LINE
  8
_0-0_
  6
CONTINUOUS
 62
    7
 10
-18.668244429123217
 20
3.7012942198275756
 11
-18.685901823480332
 21
1.2469164041890668
  0
LINE
  8
_0-0_
  6
CONTINUOUS
 62
    7
 10
-17.785374711267632
 20
3.8602107690415739
 11
-17.803032105624748
 21
1.4058329534030793
  0
LINE
  8
_0-0_
  6
CONTINUOUS
 62
    7
 10
-17.079078936983176
 20
4.0191273182555722
 11
-17.096736331340292
 21
1.5647495026170777
  0
LINE
  8
_0-0_
  6
CONTINUOUS
 62
    7
 10
-16.355125768341605
 20
4.4075899941120316
 11
-16.37278316269872
 21
1.9532121784735228
  0
LINE
  8
_0-0_
  6
CONTINUOUS
 62
    7
 10
-15.454598656128903
 20
4.4252473884691472
 11
-15.472256050486019
 21
1.9708695728306385
  0
LINE
  8
_0-0_
  6
CONTINUOUS
 62
    7
 10
-14.554071543916232
 20
4.47821957154048
 11
-14.571728938273347
 21
2.0238417559019855
  0
LINE
  8
_0-0_
  6
CONTINUOUS
 62
    7
 10
-13.52994267120375
 20
4.7783952756113752
 11
-13.547600065560866
 21
2.3240174599728665
  0
LINE
  8
_0-0_
  6
CONTINUOUS
 62
    7
 10
-12.594100770276848
 20
4.7254230925400424
 11
-12.611758164633963
 21
2.2710452769015337
  0
LINE
  8
_0-0_
  6
CONTINUOUS
 62
    7
 10
-11.746545841135495
 20
5.007941402253822
 11
-11.76420323549261
 21
2.5535635866153275
  0
LINE
  8
_0-0_
  6
CONTINUOUS
 62
    7
 10
-10.951963095065489
 20
5.0432561909680533
 11
-10.969620489422576
 21
2.5888783753295446
  0
LINE
  8
_0-0_
  6
CONTINUOUS
 62
    7
 10
-9.9808064054243548
 20
5.0432561909680533
 11
-9.9984637997814421
 21
2.5888783753295446
  0
LINE
  8
_0-0_
  6
CONTINUOUS
 62
    7
 10
-9.3098254198541017
 20
5.1668579514678346
 11
-9.3274828142112174
 21
2.7124801358293258
  0
LINE
  8
_0-0_
  6
CONTINUOUS
 62
    7
 10
-8.4446130963556332
 20
5.1668579514678346
 11
-8.4622704907127488
 21
2.7124801358293258
  0
LINE
  8
_0-0_
  6
CONTINUOUS
 62
    7
 10
-7.4734564067144991
 20
5.1492005571107189
 11
-7.4911138010716147
 21
2.6948227414722101
  0
LINE
  8
_0-0_
  6
CONTINUOUS
 62
    7
 10
-6.4669849283591336
 20
5.1668579514678346
 11
-6.4846423227162493
 21
2.7124801358293258
  0
LINE
  8
_0-0_
  6
CONTINUOUS
 62
    7
 10
-5.442856055646681
 20
5.184515345824936
 11
-5.4605134500037966
 21
2.7301375301864415
  0
LINE
  8
_0-0_
  6
CONTINUOUS
 62
    7
 10
-4.4716993660055468
 20
5.3787466837531657
 11
-4.4893567603626625
 21
2.9243688681146569
  0
LINE
  8
_0-0_
  6
CONTINUOUS
 62
    7
 10
-3.0944226061508378
 20
5.3257745006818329
 11
-3.1120800005079534
 21
2.8713966850433383
  0
LINE
  8
_0-0_
  6
CONTINUOUS
 62
    7
 10
-1.8407476067959101
 20
5.3787466837531657
 11
-1.8584050011530258
 21
2.9243688681146569
  0
LINE
  8
_0-0_
  6
CONTINUOUS
 62
    7
 10
-0.7106743679407918
 20
5.1492005571107189
 11
-0.7283317622979075
 21
2.6948227414722101
  0
LINE
  8
_0-0_
  6
CONTINUOUS
 62
    7
 10
0.6489449975568015
 20
5.1138857683964876
 11
0.6312876031996859
 21
2.659507952757993
  0
LINE
  8
_0-0_
  6
CONTINUOUS
 62
    7
 10
1.9202773912688167
 20
5.1845153458249502
 11
1.902619996911701
 21
2.7301375301864415
  0
LINE
  8
_0-0_
  6
CONTINUOUS
 62
    7
 10
2.8737766865528354
 20
5.1668579514678346
 11
2.8561192921957481
 21
2.7124801358293258
  0
LINE
  8
_0-0_
  6
CONTINUOUS
 62
    7
 10
3.597729855194407
 20
5.2021727401820517
 11
3.5800724608373198
 21
2.7477949245435571
  0
LINE
  8
_0-0_
  6
CONTINUOUS
 62
    7
 10
4.5865439391926568
 20
5.1668579514678346
 11
4.5688865448355696
 21
2.7124801358293258
  0
LINE
  8
_0-0_
  6
CONTINUOUS
 62
    7
 10
5.2045527416915629
 20
5.1315431627536032
 11
5.1868953473344757
 21
2.6771653471151087
  0
LINE
  8
_0-0_
  6
CONTINUOUS
 62
    7
 10
6.0874224595471471
 20
5.0432561909680533
 11
6.0697650651900315
 21
2.5888783753295446
  0
LINE
  8
_0-0_
  6
CONTINUOUS
 62
    7
 10
6.9349773886885
 20
5.0432561909680533
 11
6.9173199943313843
 21
2.5888783753295446
  0
LINE
  8
_0-0_
  6
CONTINUOUS
 62
    7
 10
7.4823566137589435
 20
4.9902840078967063
 11
7.4646992194018562
 21
2.5359061922582118
  0
LINE
  8
_0-0_
  6
CONTINUOUS
 62
    7
 10
8.0650506275436467
 20
4.9726266135396049
 11
8.047393233186531
 21
2.5182487979011103
  0
LINE
  8
_0-0_
  6
CONTINUOUS
 62
    7
 10
8.6477446413283214
 20
4.9196544304682721
 11
8.6300872469712058
 21
2.4652766148297633
  0
LINE
  8
_0-0_
  6
CONTINUOUS
 62
    7
 10
9.5835865422552242
 20
4.6724509094687097
 11
9.565929147898137
 21
2.2180730938302009
  0
LINE
  8
_0-0_
  6
CONTINUOUS
 62
    7
 10
10.342854499611027
 20
4.5135343602546971
 11
10.325197105253912
 21
2.0591565446162026
  0
LINE
  8
_0-0_
  6
CONTINUOUS
 62
    7
 10
9.0362073171847808
 20
4.6901083038258253
 11
9.0185499228276651
 21
2.2357304881873166
  0
LINE
  8
_0-0_
  6
CONTINUOUS
 62
    7
 10
11.27869640053793
 20
4.7607378812542596
 11
11.261039006180843
 21
2.306360065615765
  0
LINE
  8
_0-0_
  6
CONTINUOUS
 62
    7
 10
10.960863302109933
 20
4.6018213320402612
 11
10.943205907752818
 21
2.1474435164017667
  0
LINE
  8
_0-0_
  6
CONTINUOUS
 62
    7
 10
12.249853090179064
 20
4.5135343602546971
 11
12.232195695821977
 21
2.0591565446162026
  0
LINE
  8
_0-0_
  6
CONTINUOUS
 62
    7
 10
13.291639357248661
 20
4.2663308392551347
 11
13.273981962891545
 21
1.8119530236166401
  0
LINE
  8
_0-0_
  6
CONTINUOUS
 62
    7
 10
13.644787244390889
 20
4.2133586561838161
 11
13.627129850033773
 21
1.7589808405453073
  0
LINE
  8
_0-0_
  6
CONTINUOUS
 62
    7
 10
14.421712596103779
 20
4.0897568956840349
 11
14.404055201746692
 21
1.6353790800455261
  0
LINE
  8
_0-0_
  6
CONTINUOUS
 62
    7
 10
12.761917526535305
 20
4.3369604166835831
 11
12.744260132178189
 21
1.8825826010450886
  0
LINE
  8
_0-0_
  6
CONTINUOUS
 62
    7
 10
11.702473865108621
 20
4.6371361207544783
 11
11.684816470751505
 21
2.1827583051159838
  0
LINE
  8
_0-0_
  6
CONTINUOUS
 62
    7
 10
15.198637947816698
 20
3.8072385859702411
 11
15.180980553459582
 21
1.3528607703317324
  0
LINE
  8
_0-0_
  6
CONTINUOUS
 62
    7
 10
16.010878088243818
 20
3.6483220367562428
 11
15.993220693886704
 21
1.193944221117734
  0
LINE
  8
_0-0_
  6
CONTINUOUS
 62
    7
 10
16.734831256885389
 20
3.59534985368491
 11
16.717173862528274
 21
1.1409720380464012
  0
LINE
  8
_0-0_
  6
CONTINUOUS
 62
    7
 10
17.123293932741849
 20
3.4187759101137818
 11
17.105636538384761
 21
0.9643980944752872
  0
LINE
  8
_0-0_
  6
CONTINUOUS
 62
    7
 10
17.635358369098089
 20
3.3304889383282319
 11
17.617700974740973
 21
0.8761111226897231
  0
LINE
  8
_0-0_
  6
CONTINUOUS
 62
    7
 10
18.112108016740098
 20
3.2068871778284507
 11
18.094450622382983
 21
0.7525093621899419
  0
LINE
  8
_0-0_
  6
CONTINUOUS
 62
    7
 10
18.659487241810542
 20
3.1539149947571179
 11
18.641829847453455
 21
0.6995371791186091
  0
LINE
  8
_0-0_
  6
CONTINUOUS
 62
    7
 10
19.189209072523898
 20
3.0479706286144381
 11
19.171551678166782
 21
0.5935928129759435
  0
LINE
  8
_0-0_
  6
CONTINUOUS
 62
    7
 10
19.52469956530901
 20
3.0303132342573367
 11
19.507042170951923
 21
0.5759354186188279
  0
LINE
  8
_0-0_
  6
CONTINUOUS
 62
    7
 10
20.213337945236379
 20
2.9067114737575555
 11
20.195680550879263
 21
0.4523336581190466
  0
LINE
  8
_0-0_
  6
CONTINUOUS
 62
    7
 10
20.743059775949707
 20
2.7301375301864415
 11
20.72540238159262
 21
0.2757597145479326
  0
LINE
  8
_0-0_
  6
CONTINUOUS
 62
    7
 10
21.431698155877076
 20
2.5535635866153275
 11
21.41404076151996
 21
0.0991857709768186
  0
LINE
  8
_0-0_
  6
CONTINUOUS
 62
    7
 10
22.085021747090185
 20
2.4652766148297633
 11
22.067364352733069
 21
0.0108987991912687
  0
LINE
  8
_0-0_
  6
CONTINUOUS
 62
    7
 10
22.614743577803541
 20
2.2533878825444322
 11
22.597086183446425
 21
-0.2009899330940765
  0
LINE
  8
_0-0_
  6
CONTINUOUS
 62
    7
 10
23.232752380302447
 20
1.9002399954022042
 11
23.215094985945331
 21
-0.5541378202363045
  0
LINE
  8
_0-0_
  6
CONTINUOUS
 62
    7
 10
22.967891464945769
 20
1.9002399954022042
 11
22.950234070588653
 21
-0.5541378202363045
  0
LINE
  8
_0-0_
  6
CONTINUOUS
 62
    7
 10
23.727159422301572
 20
1.7942956292595245
 11
23.709502027944456
 21
-0.66008218637897
  0
LINE
  8
_0-0_
  6
CONTINUOUS
 62
    7
 10
24.16859428122935
 20
1.4764625308315136
 11
24.150936886872234
 21
-0.9779152848069809
  0
LINE
  8
_0-0_
  6
CONTINUOUS
 62
    7
 10
24.733630900656909
 20
1.2645737985461825
 11
24.715973506299822
 21
-1.1898040170923263
  0
LINE
  8
_0-0_
  6
CONTINUOUS
 62
    7
 10
25.192723153941831
 20
1.1586294324035169
 11
25.175065759584715
 21
-1.2957483832349919
  0
LINE
  8
_0-0_
  6
CONTINUOUS
 62
    7
 10
25.616500618512493
 20
1.0350276719037357
 11
25.598843224155406
 21
-1.4193501437347731
  0
LINE
  8
_0-0_
  6
CONTINUOUS
 62
    7
 10
26.146222449225849
 20
0.6465649960472763
 11
26.128565054868734
 21
-1.8078128195912324
  0
LINE
  8
_0-0_
  6
CONTINUOUS
 62
    7
 10
26.587657308153627
 20
0.5053058411903794
 11
26.56999991379654
 21
-1.9490719744481151
  0
LINE
  8
_0-0_
  6
CONTINUOUS
 62
    7
 10
27.082064350152752
 20
0.2404449258337155
 11
27.064406955795636
 21
-2.2139328898047932
  0
LINE
  8
_0-0_
  6
CONTINUOUS
 62
    7
 10
27.488184420366327
 20
0.0108987991912545
 11
27.470527026009211
 21
-2.44347901644724
  0
LINE
  8
_0-0_
  6
CONTINUOUS
 62
    7
 10
27.929619279294105
 20
-0.2186473274511922
 11
27.911961884936989
 21
-2.6730251430896868
  0
LINE
  8
_0-0_
  6
CONTINUOUS
 62
    7
 10
28.459341110007461
 20
-0.713054369450317
 11
28.441683715650345
 21
-3.1674321850888116
  0
LINE
  8
_0-0_
  6
CONTINUOUS
 62
    7
 10
28.865461180221008
 20
-1.0308874678783138
 11
28.84780378586392
 21
-3.4852652835168225
  0
LINE
  8
_0-0_
  6
CONTINUOUS
 62
    7
 10
29.289238644791698
 20
-1.4193501437347731
 11
29.271581250434583
 21
-3.8737279593732676
  0
LINE
  8
_0-0_
  6
CONTINUOUS
 62
    7
 10
29.536442165791261
 20
-1.8078128195912324
 11
29.518784771434145
 21
-4.262190635229727
  0
LINE
  8
_0-0_
  6
CONTINUOUS
 62
    7
 10
29.836617869862142
 20
-2.1079885236621134
 11
29.818960475505026
 21
-4.5623663393006222
  0
LINE
  8
_0-0_
  6
CONTINUOUS
 62
    7
 10
30.136793573933051
 20
-2.5317659882328041
 11
30.119136179575936
 21
-4.9861438038712986
  0
LINE
  8
_0-0_
  6
CONTINUOUS
 62
    7
 10
30.419311883646845
 20
-3.0085156358748133
 11
30.401654489289729
 21
-5.4628934515133079
  0
ARC
  8
_0-0_
  6
CONTINUOUS
 62
    7
 10
-19.823972724907616
 20
-1.8704753530841725
 40
1.9527254713120827
 50
211.02932570091102
 51
324.19878623831136
  0
ARC
  8
_0-0_
  6
CONTINUOUS
 62
    7
 10
-21.955264198839753
 20
-3.5001858924172904
 40
1.7718106742042408
 50
197.8799106569995
 51
330.60356901426701
  0
ARC
  8
_0-0_
  6
CONTINUOUS
 62
    7
 10
-15.230189240379312
 20
-2.7904424113121831
 40
1.8873181842026328
 50
198.61091232529404
 51
331.48854320612236
  0
ARC
  8
_0-0_
  6
CONTINUOUS
 62
    7
 10
-18.469219421803455
 20
-3.9901361569443576
 40
1.8143118355694539
 50
216.74568965874914
 51
317.69597661310667
  0
ARC
  8
_0-0_
  6
CONTINUOUS
 62
    7
 10
-18.944952183046109
 20
-5.863652307839585
 40
1.7681324471914328
 50
190.58350892471495
 51
327.53830870890079
  0
ARC
  8
_0-0_
  6
CONTINUOUS
 62
    7
 10
-23.234630548621777
 20
-3.9106855714515358
 40
2.4527940534736814
 50
218.22699990818313
 51
308.30097766357812
  0
ARC
  8
_0-0_
  6
CONTINUOUS
 62
    7
 10
-23.327322456395688
 20
-6.542563724084415
 40
2.045393721720651
 50
202.5931377990627
 51
318.48221778488607
  0
ARC
  8
_0-0_
  6
CONTINUOUS
 62
    7
 10
-21.832007609139406
 20
-8.1592347310164097
 40
1.7134362460395396
 50
220.96711798390231
 51
331.22460510528941
  0
ARC
  8
_0-0_
  6
CONTINUOUS
 62
    7
 10
-19.387361951379386
 20
-9.7490830117022664
 40
1.6442595853323101
 50
209.48133254211362
 51
335.82004682472996
  0
ARC
  8
_0-0_
  6
CONTINUOUS
 62
    7
 10
-17.15452587147082
 20
-10.561003081003305
 40
1.4971572571593077
 50
221.9872124958176
 51
324.66759598763531
  0
ARC
  8
_0-0_
  6
CONTINUOUS
 62
    7
 10
-17.001082653828387
 20
-8.6908529203647316
 40
1.519062769963605
 50
205.16889196353631
 51
339.27903051723467
  0
ARC
  8
_0-0_
  6
CONTINUOUS
 62
    7
 10
-13.63312637781747
 20
-11.195198014267801
 40
1.7245296316909537
 50
218.47883948269677
 51
334.31907377204101
  0
ARC
  8
_0-0_
  6
CONTINUOUS
 62
    7
 10
-13.891546395857413
 20
-9.9418530840910346
 40
1.4488967725017952
 50
210.02539142807495
 51
331.2067283887236
  0
ARC
  8
_0-0_
  6
CONTINUOUS
 62
    7
 10
-9.2889319449571506
 20
-11.947832589512727
 40
1.7474573035252108
 50
211.67302415969266
 51
339.25466146678048
  0
ARC
  8
_0-0_
  6
CONTINUOUS
 62
    7
 10
-10.233633175403563
 20
-11.214847743202638
 40
1.3713391738221985
 50
198.23563222795264
 51
330.58987984363898
  0
ARC
  8
_0-0_
  6
CONTINUOUS
 62
    7
 10
-4.209039005069096
 20
-12.53780998449251
 40
1.5452464989657417
 50
210.70274744486485
 51
336.09668087338167
  0
ARC
  8
_0-0_
  6
CONTINUOUS
 62
    7
 10
-5.7517020929551084
 20
-12.190703629565958
 40
0.8913155023420159
 50
192.05221805261954
 51
346.15743452695813
  0
ARC
  8
_0-0_
  6
CONTINUOUS
 62
    7
 10
1.2960366178111167
 20
-12.65196971566739
 40
1.6441040563562688
 50
205.27456167235712
 51
340.85840932989458
  0
ARC
  8
_0-0_
  6
CONTINUOUS
 62
    7
 10
0.9259800044413191
 20
-11.978675998908939
 40
0.9856517793439282
 50
216.63345898045225
 51
325.30858488170628
  0
ARC
  8
_0-0_
  6
CONTINUOUS
 62
    7
 10
3.9756393325126194
 20
-11.277555889462105
 40
1.638563411232943
 50
230.376705428051
 51
320.3767054280504
  0
ARC
  8
_0-0_
  6
CONTINUOUS
 62
    7
 10
7.327515730778023
 20
-11.531137720355728
 40
2.2889336949883723
 50
227.48159182713033
 51
317.33034920616018
  0
ARC
  8
_0-0_
  6
CONTINUOUS
 62
    7
 10
8.4280937259113582
 20
-11.171752230297527
 40
1.4570440199025387
 50
215.79533370643264
 51
347.74124415760883
  0
ARC
  8
_0-0_
  6
CONTINUOUS
 62
    7
 10
12.30111853279009
 20
-11.648248047694421
 40
1.7647076759829901
 50
208.318678695579
 51
332.67774452964835
  0
ARC
  8
_0-0_
  6
CONTINUOUS
 62
    7
 10
12.653854013782555
 20
-9.9585330724656824
 40
1.6846634079867173
 50
230.79629351322802
 51
354.36285161482454
  0
ARC
  8
_0-0_
  6
CONTINUOUS
 62
    7
 10
17.926705375990412
 20
-10.619880671908176
 40
1.5813955395069479
 50
197.7172939189505
 51
342.28270608104953
  0
ARC
  8
_0-0_
  6
CONTINUOUS
 62
    7
 10
16.251953987483393
 20
-9.1441424450606217
 40
1.4827685585416357
 50
201.58977877909578
 51
342.85814370167498
  0
ARC
  8
_0-0_
  6
CONTINUOUS
 62
    7
 10
18.207699541103199
 20
-7.2451025622149086
 40
1.7900001665420888
 50
212.12326167241343
 51
340.45052505105957
  0
ARC
  8
_0-0_
  6
CONTINUOUS
 62
    7
 10
21.080869142979157
 20
-8.6583476160976556
 40
1.7654365532327299
 50
205.49751345316125
 51
346.66715993340296
  0
ARC
  8
_0-0_
  6
CONTINUOUS
 62
    7
 10
24.045269748026403
 20
-6.3178751299062963
 40
1.804076980045008
 50
192.3619283795615
 51
353.75546676862996
  0
ARC
  8
_0-0_
  6
CONTINUOUS
 62
    7
 10
22.812987810279697
 20
-4.2751786175541167
 40
1.9738277933443478
 50
217.71756740998165
 51
342.81271351044569
  0
ARC
  8
_0-0_
  6
CONTINUOUS
 62
    7
 10
18.773466447126413
 20
-6.2540666767677475
 40
1.706992976617403
 50
201.04163856692242
 51
352.15819539690523
  0
ARC
  8
_0-0_
  6
CONTINUOUS
 62
    7
 10
17.961920832112856
 20
-4.9573473402346746
 40
1.6895216212621369
 50
192.38980025267736
 51
357.83103486938512
  0
ARC
  8
_0-0_
  6
CONTINUOUS
 62
    7
 10
20.541631320353094
 20
-2.861342966554103
 40
1.880540713972962
 50
211.86715391265224
 51
342.72123870442931
  0
ARC
  8
_0-0_
  6
CONTINUOUS
 62
    7
 10
15.158363823146393
 20
-3.6151662356949839
 40
1.3331792082249458
 50
198.77132239806116
 51
350.85577938935194
  0
ARC
  8
_0-0_
  6
CONTINUOUS
 62
    7
 10
16.818776978942896
 20
-1.357793334752385
 40
1.8376919362016764
 50
208.18062164016661
 51
339.26200488933301
  0
ARC
  8
_0-0_
  6
CONTINUOUS
 62
    7
 10
11.761628359826679
 20
-1.7581779068409258
 40
1.9393236287703148
 50
215.23591671343866
 51
336.73398791679216
  0
ARC
  8
_0-0_
  6
CONTINUOUS
 62
    7
 10
11.621574620088429
 20
-0.3061517206915009
 40
1.8125116314366203
 50
203.58635987096653
 51
342.82407199106058
  0
ARC
  8
_0-0_
  6
CONTINUOUS
 62
    7
 10
6.9210244078925509
 20
-0.9869875340113605
 40
1.9745469096212693
 50
206.6549033452072
 51
335.0944501970356
  0
ARC
  8
_0-0_
  6
CONTINUOUS
 62
    7
 10
5.2408038515484829
 20
0.6573354394614217
 40
2.0205386753556875
 50
207.36478541469788
 51
337.72482334492827
  0
ARC
  8
_0-0_
  6
CONTINUOUS
 62
    7
 10
1.2742879375301379
 20
-0.6960067539871044
 40
1.8498268718143416
 50
204.58684633520974
 51
339.95805313035612
  0
ARC
  8
_0-0_
  6
CONTINUOUS
 62
    7
 10
-1.6968807164496786
 20
0.9674000139531404
 40
1.9870195118698004
 50
215.62472790259778
 51
331.75804407030483
  0
ARC
  8
_0-0_
  6
CONTINUOUS
 62
    7
 10
-4.5209438861614988
 20
-1.0073639368836336
 40
1.6594116403526289
 50
199.97503333468683
 51
346.8727091551745
  0
ARC
  8
_0-0_
  6
CONTINUOUS
 62
    7
 10
-8.0655618833025731
 20
0.4324948211736785
 40
1.9236202037695138
 50
212.36073512760908
 51
336.78710739219264
  0
ARC
  8
_0-0_
  6
CONTINUOUS
 62
    7
 10
-17.1073502266138
 20
-1.3002301230523567
 40
1.5564802362744414
 50
197.3440907567205
 51
356.90594194108303
  0
ENDBLK
  0
ENDSEC
  0
SECTION
  2
ENTITIES
  0
INSERT
  2
-000-1
  8
_0-0_
 10
149.74321229010189
 20
92.657572167425414
 41
1
 42
1
 50
0
  0
ENDSEC
  0
EOF
