  0
SECTION
  2
HEADER
  9
$ACADVER
  1
AC1009
  9
$INSBASE
 10
0
 20
0
 30
0
  9
$EXTMIN
 10
0
 20
0
  9
$EXTMAX
 10
297
 20
210
  9
$LIMMIN
 10
0
 20
0
  9
$LIMMAX
 10
297
 20
210
  9
$LTSCALE
 40
1
  0
ENDSEC
  0
SECTION
  2
TABLES
  0
TABLE
  2
LTYPE
 70
     9
  0
LTYPE
  2
CONTINUOUS
 70
    64
  3
実線
 72
    65
 73
     0
 40
0.0
  0
LTYPE
  2
DASHED1
 70
    64
  3
--  --  --  --  --  --  --  --  
 72
    65
 73
     2
 40
2.5
 49
1.25
 49
-1.25
  0
LTYPE
  2
DASHED2
 70
    64
  3
----    ----    ----    ----    
 72
    65
 73
     2
 40
5.0
 49
2.5
 49
-2.5
  0
LTYPE
  2
DASHED3
 70
    64
  3
------  ------  ------  ------  
 72
    65
 73
     2
 40
5.0
 49
3.75
 49
-1.25
  0
LTYPE
  2
CENTER1
 70
    64
  3
----- - ----- - ----- - ----- - 
 72
    65
 73
     4
 40
10.0
 49
6.25
 49
-1.25
 49
1.25
 49
-1.25
  0
LTYPE
  2
CENTER2
 70
    64
  3
----------  --  ----------  --  
 72
    65
 73
     4
 40
20.0
 49
12.5
 49
-2.5
 49
2.5
 49
-2.5
  0
LTYPE
  2
PHANTOM1
 70
    64
  3
--- - - --- - - --- - - --- - - 
 72
    65
 73
     6
 40
10.0
 49
3.25
 49
-1.25
 49
1.25
 49
-1.25
 49
1.25
 49
-1.25
  0
LTYPE
  2
PHANTOM2
 70
    64
  3
--------  -  -  --------  -  -  
 72
    65
 73
     6
 40
20.0
 49
10.0
 49
-2.5
 49
1.25
 49
-2.5
 49
1.25
 49
-2.5
  0
LTYPE
  2
DOT
 70
    64
  3
-   -   -   -   -   -   -   -   
 72
    65
 73
     2
 40
2.5
 49
0.625
 49
-1.875
  0
LTYPE
  2
DUMMY
 70
    64
  3
ダミー
 72
    65
 73
     0
 40
0.0
  0
LTYPE
  2
RAND1
 70
    64
  3
ランダム線1
 72
    65
 73
     4
 40
10.0
 49
1.0
 49
-2.0
 49
3.0
 49
-4.0
  0
LTYPE
  2
RAND2
 70
    64
  3
ランダム線2
 72
    65
 73
     4
 40
14.0
 49
2.0
 49
-3.0
 49
4.0
 49
-5.0
  0
LTYPE
  2
RAND3
 70
    64
  3
ランダム線3
 72
    65
 73
     4
 40
18.0
 49
3.0
 49
-4.0
 49
5.0
 49
-6.0
  0
LTYPE
  2
RAND4
 70
    64
  3
ランダム線4
 72
    65
 73
     4
 40
22.0
 49
4.0
 49
-5.0
 49
6.0
 49
-7.0
  0
LTYPE
  2
RAND5
 70
    64
  3
ランダム線5
 72
    65
 73
     4
 40
26.0
 49
5.0
 49
-6.0
 49
7.0
 49
-8.0
  0
LTYPE
  2
LONG1
 70
    64
  3
----------  --  ----------  --  
 72
    65
 73
     4
 40
40.0
 49
32.5
 49
-2.5
 49
2.5
 49
-2.5
  0
LTYPE
  2
LONG2
 70
    64
  3
--------  -  -  --------  -  -  
 72
    65
 73
     6
 40
40.0
 49
30.0
 49
-2.5
 49
1.25
 49
-2.5
 49
1.25
 49
-2.5
  0
LTYPE
  2
LONG3
 70
    64
  3
+++++++++++++++..+++++++++++++++
 72
    65
 73
     2
 40
40.0
 49
37.5
 49
-2.5
  0
LTYPE
  2
LONG4
 70
    64
  3
+++++++++++++++..+++++++++++++++
 72
    65
 73
     2
 40
80.0
 49
75.0
 49
-5.0
  0
LTYPE
  2
LONG5
 70
    64
  3
----------  --  ----------  --  
 72
    65
 73
     4
 40
60.0
 49
37.5
 49
-7.5
 49
7.5
 49
-7.5
  0
LTYPE
  2
dashed
 70
   64
  3
-------   -------------   ------
 72
   65
 73
    2
 40
7.5
 49
6
 49
-1.5
  0
LTYPE
  2
dashed_spaced
 70
   64
  3
----        --------        ----
 72
   65
 73
    2
 40
12
 49
6
 49
-6
  0
LTYPE
  2
long_dashed_dotted
 70
   64
  3
------------- --- --------------
 72
   65
 73
    4
 40
15.25
 49
12
 49
-1.5
 49
0.25
 49
-1.5
  0
LTYPE
  2
long_dashed_double-dotted
 70
   64
  3
----------- --- --- ------------
 72
   65
 73
    6
 40
17
 49
12
 49
-1.5
 49
0.25
 49
-1.5
 49
0.25
 49
-1.5
  0
LTYPE
  2
long_dashed_triplicate-dotted
 70
   64
  3
--------- --- --- --- ----------
 72
   65
 73
    8
 40
18.75
 49
12
 49
-1.5
 49
0.25
 49
-1.5
 49
0.25
 49
-1.5
 49
0.25
 49
-1.5
  0
LTYPE
  2
dotted
 70
   64
  3
   -       -       -       -    
 72
   65
 73
    2
 40
1.75
 49
0.25
 49
-1.5
  0
LTYPE
  2
chain
 70
   64
  3
-------------- -- --------------
 72
   65
 73
    4
 40
18.5
 49
12
 49
-1.5
 49
3.5
 49
-1.5
  0
LTYPE
  2
chain_double_dash
 70
   64
  3
------------ -- -- -------------
 72
   65
 73
    6
 40
23.5
 49
12
 49
-1.5
 49
3.5
 49
-1.5
 49
3.5
 49
-1.5
  0
LTYPE
  2
dashed_dotted
 70
   64
  3
-----------     -     ----------
 72
   65
 73
    4
 40
9.25
 49
6
 49
-1.5
 49
0.25
 49
-1.5
  0
LTYPE
  2
double-dashed_dotted
 70
   64
  3
------   -----------   -   -----
 72
   65
 73
    6
 40
16.75
 49
6
 49
-1.5
 49
6
 49
-1.5
 49
0.25
 49
-1.5
  0
LTYPE
  2
dashed_double-dotted
 70
   64
  3
---------    -    -    ---------
 72
   65
 73
    6
 40
11
 49
6
 49
-1.5
 49
0.25
 49
-1.5
 49
0.25
 49
-1.5
  0
LTYPE
  2
double-dashed_double-dotted
 70
   64
  3
-----   ---------   -   -   ----
 72
   65
 73
    8
 40
18.5
 49
6
 49
-1.5
 49
6
 49
-1.5
 49
0.25
 49
-1.5
 49
0.25
 49
-1.5
  0
LTYPE
  2
dashed_triplicate-dotted
 70
   64
  3
-------    -    -    -    ------
 72
   65
 73
    8
 40
12.75
 49
6
 49
-1.5
 49
0.25
 49
-1.5
 49
0.25
 49
-1.5
 49
0.25
 49
-1.5
  0
LTYPE
  2
double-dashed_triplicate-dotted
 70
   64
  3
-----  ---------  -  -  -  -----
 72
   65
 73
   10
 40
20.25
 49
6
 49
-1.5
 49
6
 49
-1.5
 49
0.25
 49
-1.5
 49
0.25
 49
-1.5
 49
0.25
 49
-1.5
  0
LTYPE
  2
undefined
 70
   64
  3
--------------------------------
 72
   65
 73
    0
 40
0
  0
LTYPE
  2
_
 70
   64
  3
                                
 72
   65
 73
    0
 40
0
  0
LTYPE
  2
__18
 70
   64
  3
                                
 72
   65
 73
    0
 40
0
  0
LTYPE
  2
__19
 70
   64
  3
                                
 72
   65
 73
    0
 40
0
  0
LTYPE
  2
__20
 70
   64
  3
                                
 72
   65
 73
    0
 40
0
  0
LTYPE
  2
__21
 70
   64
  3
                                
 72
   65
 73
    0
 40
0
  0
LTYPE
  2
__22
 70
   64
  3
                                
 72
   65
 73
    0
 40
0
  0
LTYPE
  2
__23
 70
   64
  3
                                
 72
   65
 73
    0
 40
0
  0
LTYPE
  2
__24
 70
   64
  3
                                
 72
   65
 73
    0
 40
0
  0
LTYPE
  2
__25
 70
   64
  3
                                
 72
   65
 73
    0
 40
0
  0
LTYPE
  2
__26
 70
   64
  3
                                
 72
   65
 73
    0
 40
0
  0
LTYPE
  2
__27
 70
   64
  3
                                
 72
   65
 73
    0
 40
0
  0
LTYPE
  2
__28
 70
   64
  3
                                
 72
   65
 73
    0
 40
0
  0
LTYPE
  2
__29
 70
   64
  3
                                
 72
   65
 73
    0
 40
0
  0
LTYPE
  2
__30
 70
   64
  3
                                
 72
   65
 73
    0
 40
0
  0
LTYPE
  2
__31
 70
   64
  3
                                
 72
   65
 73
    0
 40
0
  0
LTYPE
  2
__32
 70
   64
  3
                                
 72
   65
 73
    0
 40
0
  0
ENDTAB
  0
TABLE
  2
STYLE
  5
3
100
AcDbSymbolTable
 70
     1
  0
STYLE
  5
10
100
AcDbSymbolTableRecord
100
AcDbTextStyleTableRecord
  2
STANDARD
 70
     0
 40
0.0
 41
1.0
 50
0.0
 71
     0
 42
0.2
  3
txt
  4
bigfont.shx
  0
STYLE
  5
26
100
AcDbSymbolTableRecord
100
AcDbTextStyleTableRecord
  2
TATEGAKI
 70
    68
 40
0.0
 41
1.0
 50
0.0
 71
     0
 42
1.0
  3
txt
  4
bigfont.shx
  0
ENDTAB
  0
TABLE
  2
LAYER
 70
    2
  0
LAYER
  2
_0-0_
 70
   64
 62
    7
  6
CONTINUOUS
  0
LAYER
  2
ADD_LINE
 70
   64
 62
    7
  6
CONTINUOUS
  0
ENDTAB
  0
ENDSEC
  0
SECTION
  2
BLOCKS
  0
BLOCK
  2
-000-34
 70
   64
 10
0
 20
0
 30
0
  0
ARC
  8
_0-0_
  6
CONTINUOUS
 62
    7
 10
0.5830528154429828
 20
-43.763976231335256
 40
33.594077313041396
 50
74.622835996101784
 51
107.33341519239112
  0
ARC
  8
_0-0_
  6
CONTINUOUS
 62
    7
 10
8.4225982650275029
 20
-12.410991757408539
 40
1.4901132760703619
 50
294.04990473808988
 51
44.17904115259131
  0
ARC
  8
_0-0_
  6
CONTINUOUS
 62
    7
 10
4.2025552177141492
 20
-8.347405277473527
 40
7.2612983449940609
 50
280.85032443742034
 51
311.66699467219428
  0
ARC
  8
_0-0_
  6
CONTINUOUS
 62
    7
 10
-0.128245698604033
 20
8.1561228926875486
 40
24.312085479326921
 50
255.54756355882014
 51
283.55369754376403
  0
ARC
  8
_0-0_
  6
CONTINUOUS
 62
    7
 10
-3.7531012258203305
 20
-7.6348372708270063
 40
8.1275806108498792
 50
227.08504068942258
 51
252.50848380069192
  0
ARC
  8
_0-0_
  6
CONTINUOUS
 62
    7
 10
-7.5513314607906779
 20
-12.509263055236161
 40
2.0433832648738006
 50
156.53160924772564
 51
211.83822300251146
  0
ARC
  8
_0-0_
  6
CONTINUOUS
 62
    7
 10
-7.9817936061725163
 20
-18.501126615583999
 40
6.9571101146517913
 50
101.97834376666005
 51
138.70815400181888
  0
ARC
  8
_0-0_
  6
CONTINUOUS
 62
    7
 10
-10.459930587248493
 20
-15.259128875043714
 40
3.0622690192971103
 50
153.86352131268285
 51
251.0219854179058
  0
ARC
  8
_0-0_
  6
CONTINUOUS
 62
    7
 10
1.6511798721659829
 20
13.295240978639612
 40
34.072084433923841
 50
247.37589257538863
 51
272.71062638413036
  0
ARC
  8
_0-0_
  6
CONTINUOUS
 62
    7
 10
2.2474515571175715
 20
0.1852626167259074
 40
20.948590039003001
 50
272.77733126493882
 51
297.83494668324084
  0
ARC
  8
_0-0_
  6
CONTINUOUS
 62
    7
 10
8.0488090308094655
 20
-12.464076470952158
 40
7.0965958419460247
 50
304.11421113787156
 51
332.36518945433244
  0
ARC
  8
_0-0_
  6
CONTINUOUS
 62
    7
 10
12.136217853088894
 20
-14.992423922542322
 40
2.3282947096409736
 50
340.86254957583492
 51
49.647687830280518
  0
ARC
  8
_0-0_
  6
CONTINUOUS
 62
    7
 10
8.3114190653480335
 20
-19.621500820484258
 40
8.3329211226659865
 50
50.214738328425803
 51
81.860283722418643
  0
ARC
  8
_0-0_
  6
CONTINUOUS
 62
    7
 10
-9.6981547065617093
 20
-13.337171155741188
 40
2.1428226637971881
 50
161.70212215843236
 51
235.81517853725146
  0
ARC
  8
_0-0_
  6
CONTINUOUS
 62
    7
 10
-3.7415046260751126
 20
-5.4191441721420546
 40
12.049187769455607
 50
233.53847570679184
 51
262.69685294363359
  0
ARC
  8
_0-0_
  6
CONTINUOUS
 62
    7
 10
-0.3434639812556952
 20
3.4959861134131813
 40
21.440985207298752
 50
256.7076076425671
 51
279.55703467856449
  0
ARC
  8
_0-0_
  6
CONTINUOUS
 62
    7
 10
0.6605168107560786
 20
6.3023071860979059
 40
24.085713698181426
 50
276.09140019027302
 51
291.98108674558
  0
ARC
  8
_0-0_
  6
CONTINUOUS
 62
    7
 10
6.2335097052101531
 20
-7.9148092457977199
 40
8.8174393574859593
 50
292.97920539982181
 51
324.51272911234497
  0
ARC
  8
_0-0_
  6
CONTINUOUS
 62
    7
 10
-1.1919924643489281
 20
-53.283411363330572
 40
49.616216230666296
 50
89.864377476530734
 51
109.86723640963801
  0
ARC
  8
_0-0_
  6
CONTINUOUS
 62
    7
 10
-13.468785767934733
 20
-26.326211770502084
 40
20.232326896932328
 50
103.09763891563972
 51
126.58713929527059
  0
ARC
  8
_0-0_
  6
CONTINUOUS
 62
    7
 10
-20.029064794764352
 20
-16.29974371717703
 40
8.3016426295156744
 50
131.48393541322977
 51
164.26606770599543
  0
ARC
  8
_0-0_
  6
CONTINUOUS
 62
    7
 10
-23.886508433284035
 20
-14.973000527032745
 40
4.235263327121273
 50
167.39274167197357
 51
228.70290046556855
  0
ARC
  8
_0-0_
  6
CONTINUOUS
 62
    7
 10
-12.570954508868795
 20
-4.017071486141333
 40
19.974747470826145
 50
225.05516550653681
 51
260.8518005276303
  0
ARC
  8
_0-0_
  6
CONTINUOUS
 62
    7
 10
-1.2163056073535898
 20
24.939895231351642
 40
50.800056286319354
 50
253.37949444556219
 51
270.05580672037513
  0
ARC
  8
_0-0_
  6
CONTINUOUS
 62
    7
 10
0.0840776580790389
 20
37.296479259631298
 40
63.169002932831056
 50
268.86532681438564
 51
281.45441667953332
  0
ARC
  8
_0-0_
  6
CONTINUOUS
 62
    7
 10
8.7819268862037774
 20
1.8337198034280391
 40
26.726391917274047
 50
278.27541767143026
 51
301.81508117941183
  0
ARC
  8
_0-0_
  6
CONTINUOUS
 62
    7
 10
10.421015427676224
 20
-0.545977973172924
 40
23.840541569380015
 50
301.48271814349357
 51
319.48930494050359
  0
ARC
  8
_0-0_
  6
CONTINUOUS
 62
    7
 10
24.508767147203599
 20
-14.910151146628451
 40
4.1909432391473791
 50
344.46562380079757
 51
30.187189519541334
  0
ARC
  8
_0-0_
  6
CONTINUOUS
 62
    7
 10
20.533828937915303
 20
-16.409355712863501
 40
8.4100868515636407
 50
25.393521636852913
 51
69.891568951276682
  0
ARC
  8
_0-0_
  6
CONTINUOUS
 62
    7
 10
13.560167502890778
 20
-22.853734723119665
 40
17.407084329636632
 50
55.47782934216724
 51
80.262297194308601
  0
ARC
  8
_0-0_
  6
CONTINUOUS
 62
    7
 10
7.0631974926621695
 20
-32.088886192024965
 40
28.029338918728833
 50
70.316040723179185
 51
87.676877573321789
  0
ARC
  8
_0-0_
  6
CONTINUOUS
 62
    7
 10
0.2404101372741536
 20
-78.066283315571113
 40
74.410568837066421
 50
83.859895413537743
 51
91.012564163532303
  0
ARC
  8
_0-0_
  6
CONTINUOUS
 62
    7
 10
0.7744431685259769
 20
-70.474637283061938
 40
70.419808525149577
 50
91.129070171414327
 51
103.99378668391958
  0
ARC
  8
_0-0_
  6
CONTINUOUS
 62
    7
 10
-11.512879846978379
 20
-24.821854615103256
 40
23.167467080508818
 50
101.8093614075033
 51
121.42019647806906
  0
ARC
  8
_0-0_
  6
CONTINUOUS
 62
    7
 10
-19.382811808464737
 20
-14.571194436069106
 40
10.408060385422784
 50
113.84445474738585
 51
142.17856579264705
  0
ARC
  8
_0-0_
  6
CONTINUOUS
 62
    7
 10
-24.880114551218099
 20
-10.795791588396455
 40
3.7705986299530259
 50
136.26201602975846
 51
187.38194637340521
  0
ARC
  8
_0-0_
  6
CONTINUOUS
 62
    7
 10
-25.043697864434975
 20
-11.395597070188941
 40
3.5776234042518205
 50
178.1523897340029
 51
200.7722546820479
  0
ARC
  8
_0-0_
  6
CONTINUOUS
 62
    7
 10
-19.466963901130129
 20
-12.647982558087101
 40
8.9218181317463792
 50
138.29640550725475
 51
180.10553767506235
  0
ARC
  8
_0-0_
  6
CONTINUOUS
 62
    7
 10
2.0794721839865673
 20
-55.480728390210317
 40
55.477609730614724
 50
79.426333904779113
 51
92.781970069045926
  0
ARC
  8
_0-0_
  6
CONTINUOUS
 62
    7
 10
4.6875101168100457
 20
-48.436841338835173
 40
48.091559299206175
 50
68.730070279455461
 51
80.941007921067666
  0
ARC
  8
_0-0_
  6
CONTINUOUS
 62
    7
 10
16.275649435125189
 20
-17.691577248299218
 40
15.240992078031887
 50
43.159959469407013
 51
67.397480138857659
  0
ARC
  8
_0-0_
  6
CONTINUOUS
 62
    7
 10
24.382231242422279
 20
-10.657374938752056
 40
4.5349619840214768
 50
358.54251898269956
 51
48.399467253621594
  0
ARC
  8
_0-0_
  6
CONTINUOUS
 62
    7
 10
14.862041937009593
 20
-11.035274363178026
 40
14.056136416603898
 50
353.34431476278229
 51
1.0702805057916862
  0
ARC
  8
_0-0_
  6
CONTINUOUS
 62
    7
 10
20.340678907202459
 20
-12.285806111039022
 40
8.4912144067624826
 50
357.44442164837056
 51
48.952759378925975
  0
LINE
  8
_0-0_
  6
CONTINUOUS
 62
    7
 10
-28.388766897506997
 20
-12.664416358595702
 11
-28.111933598218229
 21
-15.432749351483487
  0
LINE
  8
_0-0_
  6
CONTINUOUS
 62
    7
 10
28.823448288840524
 20
-12.664416358595709
 11
28.685031639196097
 21
-15.709582650772262
  0
ARC
  8
_0-0_
  6
CONTINUOUS
 62
    7
 10
-20.013673483019204
 20
-8.8226668310483802
 40
11.518275511351836
 50
200.70544165429311
 51
234.90761823511576
  0
ARC
  8
_0-0_
  6
CONTINUOUS
 62
    7
 10
-23.381304144737442
 20
-13.237110019284479
 40
7.414576281309655
 50
138.05646230056209
 51
177.35627938004984
  0
ARC
  8
_0-0_
  6
CONTINUOUS
 62
    7
 10
-12.123007742515824
 20
-27.029333650549532
 40
25.156208496189233
 50
103.41983892900375
 51
131.817897218529
  0
ARC
  8
_0-0_
  6
CONTINUOUS
 62
    7
 10
19.041932273040231
 20
-16.331147637424181
 40
13.170182784546828
 50
30.872647521276804
 51
76.424556561616598
  0
ARC
  8
_0-0_
  6
CONTINUOUS
 62
    7
 10
25.616795905411777
 20
-11.918504413289867
 40
5.2788765942553502
 50
339.9812396062178
 51
26.378420633510984
  0
ARC
  8
_0-0_
  6
CONTINUOUS
 62
    7
 10
18.452794420175962
 20
-7.5127537205351658
 40
13.62311656139722
 50
302.99039357023565
 51
332.86732282915034
  0
ARC
  8
_0-0_
  6
CONTINUOUS
 62
    7
 10
15.00559454869628
 20
1.9293420735534852
 40
23.524566769629708
 50
296.74934837145042
 51
313.42514873510163
  0
ARC
  8
_0-0_
  6
CONTINUOUS
 62
    7
 10
25.972848796636157
 20
-10.361389650204515
 40
7.0757187166044941
 50
317.34340434460353
 51
351.78416289456214
  0
ARC
  8
_0-0_
  6
CONTINUOUS
 62
    7
 10
28.863871957769049
 20
-10.519959494530127
 40
4.1995285421037369
 50
348.28666453976234
 51
46.957929917574575
  0
ARC
  8
_0-0_
  6
CONTINUOUS
 62
    7
 10
25.768449119913157
 20
-10.641869248491432
 40
6.7620903652830648
 50
28.158817709096702
 51
68.290227503942845
  0
ARC
  8
_0-0_
  6
CONTINUOUS
 62
    7
 10
11.767200269679606
 20
-29.002973873113319
 40
29.658726711974406
 50
56.191719311072177
 51
77.724361754491738
  0
ARC
  8
_0-0_
  6
CONTINUOUS
 62
    7
 10
1.7085118239710226
 20
-69.455523168418992
 40
71.335567495746858
 50
76.738087207817912
 51
94.240325858832151
  0
ARC
  8
_0-0_
  6
CONTINUOUS
 62
    7
 10
-1.1437563591699842
 20
-61.410146475027396
 40
63.141403042202789
 50
92.198575429236016
 51
110.42128951880423
  0
ARC
  8
_0-0_
  6
CONTINUOUS
 62
    7
 10
-15.016180579084491
 20
-25.237262034628813
 40
24.404472092769137
 50
109.53116641608354
 51
128.5780417820711
  0
ARC
  8
_0-0_
  6
CONTINUOUS
 62
    7
 10
-25.213709618888856
 20
-12.075644088006825
 40
7.7598450136866468
 50
130.31572583482824
 51
162.97622266213835
  0
ARC
  8
_0-0_
  6
CONTINUOUS
 62
    7
 10
-27.591626408008594
 20
-11.395099168571392
 40
5.2870738384892926
 50
162.48363897218252
 51
204.4950108394107
  0
ARC
  8
_0-0_
  6
CONTINUOUS
 62
    7
 10
-23.572937377029319
 20
-8.9967094827529266
 40
9.9518792497420385
 50
207.46896668797996
 51
238.28884051869684
  0
ARC
  8
_0-0_
  6
CONTINUOUS
 62
    7
 10
-16.241058073953994
 20
-0.2728305809071685
 40
21.291431418980888
 50
233.8396113424308
 51
245.10097685770111
  0
ARC
  8
_0-0_
  6
CONTINUOUS
 62
    7
 10
-24.640070153154454
 20
-8.3645034874602047
 40
8.3691669128612443
 50
131.52317979470916
 51
165.04655317509562
  0
ARC
  8
_0-0_
  6
CONTINUOUS
 62
    7
 10
-12.41595275774165
 20
-22.685898600148761
 40
27.197215763963019
 50
107.49333442985829
 51
130.8028092615676
  0
ARC
  8
_0-0_
  6
CONTINUOUS
 62
    7
 10
-4.4202160054744155
 20
-39.547151986248252
 40
45.753682754595317
 50
90.143695503243407
 51
110.69772929034569
  0
ARC
  8
_0-0_
  6
CONTINUOUS
 62
    7
 10
1.8380281817323265
 20
-53.012538136317261
 40
59.560860575584144
 50
78.612808674990333
 51
96.142388403927455
  0
ARC
  8
_0-0_
  6
CONTINUOUS
 62
    7
 10
8.3446530753416539
 20
-32.433706672336541
 40
38.172752065044193
 50
62.591625548829569
 51
82.090412058904178
  0
ARC
  8
_0-0_
  6
CONTINUOUS
 62
    7
 10
16.606910333608454
 20
-16.504678177169033
 40
20.228426091046522
 50
45.411698927149473
 51
62.597859323405217
  0
ARC
  8
_0-0_
  6
CONTINUOUS
 62
    7
 10
20.569444917939705
 20
-10.839502109337559
 40
13.461771702223679
 50
25.247607624071303
 51
40.489750242663881
  0
LINE
  8
_0-0_
  6
CONTINUOUS
 62
    7
 10
-32.72582191969785
 20
-6.2049727085242168
 11
-32.864238569342234
 21
-11.603222044655396
  0
LINE
  8
_0-0_
  6
CONTINUOUS
 62
    7
 10
32.745253362098197
 20
-5.0976395113691026
 11
33.068225544601773
 21
-10.680444380359461
  0
ARC
  8
_0-0_
  6
CONTINUOUS
 62
    7
 10
-2.7046377939395398
 20
-4.3123738127328437
 40
9.2074544588198428
 50
230.96931299262206
 51
265.78429475156855
  0
ARC
  8
_0-0_
  6
CONTINUOUS
 62
    7
 10
-0.1575683536060665
 20
7.5834896321725012
 40
21.323528782584166
 50
261.30405183775099
 51
284.29650649832496
  0
ARC
  8
_0-0_
  6
CONTINUOUS
 62
    7
 10
4.3072231292067897
 20
-6.5220127488998827
 40
6.606372953353465
 50
276.9626455346887
 51
314.49876566837366
  0
LINE
  8
_0-0_
  6
CONTINUOUS
 62
    7
 10
-1.3513813336363256
 20
-10.311333314641097
 11
-1.4897979832806953
 21
-12.433721942521721
  0
LINE
  8
_0-0_
  6
CONTINUOUS
 62
    7
 10
2.6165626228361845
 20
-10.311333314641097
 11
2.8011181556953488
 21
-12.018471993588555
  0
LINE
  8
_0-0_
  6
CONTINUOUS
 62
    7
 10
-4.811797574746052
 20
-10.726583263574256
 11
-4.9502142243904217
 21
-12.018471993588555
  0
LINE
  8
_0-0_
  6
CONTINUOUS
 62
    7
 10
-1.4897979832806953
 20
-12.433721942521721
 11
2.8011181556953488
 21
-12.018471993588555
  0
LINE
  8
_0-0_
  6
CONTINUOUS
 62
    7
 10
5.2003400828647699
 20
-10.634305497144666
 11
5.292617849294345
 21
-11.74163869429978
  0
LINE
  8
_0-0_
  6
CONTINUOUS
 62
    7
 10
5.292617849294345
 20
-11.74163869429978
 11
6.7690621121678589
 21
-11.464805395010998
  0
LINE
  8
_0-0_
  6
CONTINUOUS
 62
    7
 10
6.7690621121678589
 20
-11.464805395010998
 11
7.9225341925377535
 21
-11.049555446077832
  0
LINE
  8
_0-0_
  6
CONTINUOUS
 62
    7
 10
-4.9502142243904217
 20
-12.018471993588555
 11
-6.4266584872639356
 21
-11.557083161440595
  0
LINE
  8
_0-0_
  6
CONTINUOUS
 62
    7
 10
-6.4266584872639356
 20
-11.557083161440595
 11
-7.2110195019154588
 21
-11.187972095722223
  0
LINE
  8
_0-0_
  6
CONTINUOUS
 62
    7
 10
-11.594213407321121
 20
-13.494916256462048
 11
-10.348463560521608
 21
-12.848971891454894
  0
LINE
  8
_0-0_
  6
CONTINUOUS
 62
    7
 10
-10.16390802766243
 20
-15.248193818624301
 11
-9.3334081297960836
 21
-14.463832803972764
  0
LINE
  8
_0-0_
  6
CONTINUOUS
 62
    7
 10
-8.6874637647889443
 20
-15.986415950061051
 11
-8.0415193997817909
 21
-15.202054935409507
  0
LINE
  8
_0-0_
  6
CONTINUOUS
 62
    7
 10
-5.1347697572496287
 20
-16.955332497571774
 11
-4.673380925101668
 21
-16.355527015779415
  0
LINE
  8
_0-0_
  6
CONTINUOUS
 62
    7
 10
-2.7816867132950023
 20
-16.816915847927376
 11
-2.9201033629394146
 21
-17.508999096149324
  0
LINE
  8
_0-0_
  6
CONTINUOUS
 62
    7
 10
1.5092294256810419
 20
-16.863054731142178
 11
1.6476460753254543
 21
-17.508999096149324
  0
LINE
  8
_0-0_
  6
CONTINUOUS
 62
    7
 10
3.770034703206079
 20
-16.540082548638601
 11
4.0468680024948611
 21
-17.416721329719735
  0
LINE
  8
_0-0_
  6
CONTINUOUS
 62
    7
 10
6.9997565282418179
 20
-15.432749351483487
 11
7.8302564261081642
 21
-16.355527015779415
  0
LINE
  8
_0-0_
  6
CONTINUOUS
 62
    7
 10
8.7530340904040713
 20
-14.879082752905937
 11
9.5373951050556371
 21
-15.663443767557474
  0
LINE
  8
_0-0_
  6
CONTINUOUS
 62
    7
 10
10.460172769351544
 20
-13.35649960681765
 11
11.705922616151057
 21
-13.587194022891637
  0
LINE
  8
_0-0_
  6
CONTINUOUS
 62
    7
 10
11.198394900788273
 20
-12.156888643232946
 11
11.844339265795426
 21
-12.249166409662536
  0
LINE
  8
_0-0_
  6
CONTINUOUS
 62
    7
 10
31.637920164943097
 20
-13.956305088610009
 11
30.48444808457316
 21
-14.463832803972764
  0
LINE
  8
_0-0_
  6
CONTINUOUS
 62
    7
 10
30.807420267076736
 20
-15.294332701839096
 11
29.930781485995624
 21
-15.432749351483487
  0
LINE
  8
_0-0_
  6
CONTINUOUS
 62
    7
 10
30.991975799935943
 20
-7.0816114896053435
 11
29.884642602780843
 21
-7.9582502706864773
  0
LINE
  8
_0-0_
  6
CONTINUOUS
 62
    7
 10
29.976920369210404
 20
-5.8820005260206401
 11
28.961864938484894
 21
-6.8047781903165685
  0
LINE
  8
_0-0_
  6
CONTINUOUS
 62
    7
 10
17.980810733363342
 20
-0.3453345402450622
 11
17.150310835497038
 21
-1.5910843870445888
  0
LINE
  8
_0-0_
  6
CONTINUOUS
 62
    7
 10
15.39703327333477
 20
0.300609824762091
 11
14.751088908327617
 21
-0.9912789052522157
  0
LINE
  8
_0-0_
  6
CONTINUOUS
 62
    7
 10
-3.6121866111613627
 20
1.4540819051319858
 11
-3.3353533118725665
 21
0.4390264744064609
  0
LINE
  8
_0-0_
  6
CONTINUOUS
 62
    7
 10
-6.9341862026266767
 20
1.1772486058432037
 11
-6.6112140201231
 21
0.1621931751176788
  0
LINE
  8
_0-0_
  6
CONTINUOUS
 62
    7
 10
-23.128934211020209
 20
-2.7906953506292922
 11
-22.160017663509478
 21
-3.8518896645695975
  0
LINE
  8
_0-0_
  6
CONTINUOUS
 62
    7
 10
-25.251322838900848
 20
-3.8518896645695975
 11
-24.236267408175323
 21
-4.7746673288655259
  0
LINE
  8
_0-0_
  6
CONTINUOUS
 62
    7
 10
-31.433933189683557
 20
-10.634305497144666
 11
-30.511155525387636
 21
-11.049555446077832
  0
LINE
  8
_0-0_
  6
CONTINUOUS
 62
    7
 10
-31.941460905046313
 20
-11.695499811084986
 11
-30.787988824676404
 21
-12.064610876803357
  0
LINE
  8
_0-0_
  6
CONTINUOUS
 62
    7
 10
-27.512128116425856
 20
-18.01652681151208
 11
-27.096878167492704
 21
-17.878110161867696
  0
LINE
  8
_0-0_
  6
CONTINUOUS
 62
    7
 10
-3.379739754511732
 20
-13.698827103141497
 11
-3.4095050884677676
 21
-15.707987145173561
  0
LINE
  8
_0-0_
  6
CONTINUOUS
 62
    7
 10
-2.8886117442372239
 20
-13.713709770119507
 11
-2.9630250791272914
 21
-15.767517813085632
  0
LINE
  8
_0-0_
  6
CONTINUOUS
 62
    7
 10
-2.501662402808833
 20
-13.847653772921646
 11
-2.4570144018747726
 21
-15.856813814953725
  0
LINE
  8
_0-0_
  6
CONTINUOUS
 62
    7
 10
-1.9956517255562858
 20
-13.773240438031564
 11
-2.0402997264903462
 21
-15.8419311479757
  0
LINE
  8
_0-0_
  6
CONTINUOUS
 62
    7
 10
-1.5194063822598025
 20
-13.936949774789731
 11
-1.5194063822598025
 21
-15.722869812151586
  0
LINE
  8
_0-0_
  6
CONTINUOUS
 62
    7
 10
-1.0431610389633335
 20
-13.966715108745774
 11
-1.0133957050072837
 21
-15.901461815887771
  0
LINE
  8
_0-0_
  6
CONTINUOUS
 62
    7
 10
-0.5520330286887967
 20
-13.877419106877674
 11
-0.537150361710772
 21
-15.812165814019671
  0
LINE
  8
_0-0_
  6
CONTINUOUS
 62
    7
 10
-0.0609050184143029
 20
-13.81788843896561
 11
-0.0609050184143029
 21
-15.812165814019671
  0
LINE
  8
_0-0_
  6
CONTINUOUS
 62
    7
 10
0.400457657904198
 20
-13.936949774789731
 11
0.4451056588382157
 21
-15.871696481931743
  0
LINE
  8
_0-0_
  6
CONTINUOUS
 62
    7
 10
0.995764337024795
 20
-13.892301773855692
 11
0.9064683351567025
 21
-15.782400480063643
  0
LINE
  8
_0-0_
  6
CONTINUOUS
 62
    7
 10
1.4124790124092215
 20
-13.847653772921646
 11
1.4571270133432819
 21
-15.931227149843799
  0
LINE
  8
_0-0_
  6
CONTINUOUS
 62
    7
 10
1.8887243557057047
 20
-13.892301773855692
 11
1.9036070226837154
 21
-15.707987145173561
  0
LINE
  8
_0-0_
  6
CONTINUOUS
 62
    7
 10
2.394735032958252
 20
-13.81788843896561
 11
2.394735032958252
 21
-15.678221811217533
  0
LINE
  8
_0-0_
  6
CONTINUOUS
 62
    7
 10
2.8858630432327459
 20
-13.832771105943635
 11
2.7668017074086322
 21
-15.693104478195551
  0
LINE
  8
_0-0_
  6
CONTINUOUS
 62
    7
 10
3.2430470507051012
 20
-13.81788843896561
 11
3.3025777186171865
 21
-15.469864473525327
  0
LINE
  8
_0-0_
  6
CONTINUOUS
 62
    7
 10
3.7639403949356449
 20
-13.728592437097525
 11
3.644879059111517
 21
-15.469864473525327
  0
LINE
  8
_0-0_
  6
CONTINUOUS
 62
    7
 10
4.0913590684519932
 20
-13.594648434295387
 11
4.1211244024080287
 21
-15.440099139569284
  0
LINE
  8
_0-0_
  6
CONTINUOUS
 62
    7
 10
4.6420177466385724
 20
-13.43093909753722
 11
4.6271350796605475
 21
-15.068032465118911
  0
LINE
  8
_0-0_
  6
CONTINUOUS
 62
    7
 10
5.1033804229570308
 20
-13.311877761713092
 11
5.0289670880669632
 21
-15.172211133965007
  0
LINE
  8
_0-0_
  6
CONTINUOUS
 62
    7
 10
5.5796257662535425
 20
-13.207699092866982
 11
5.5052124313634465
 21
-15.053149798140893
  0
LINE
  8
_0-0_
  6
CONTINUOUS
 62
    7
 10
5.9963404416379689
 20
-13.133285757976907
 11
5.9665751076819333
 21
-14.770379125558591
  0
LINE
  8
_0-0_
  6
CONTINUOUS
 62
    7
 10
6.3535244491103384
 20
-13.43093909753722
 11
6.2493457802642354
 21
-14.562021787866385
  0
LINE
  8
_0-0_
  6
CONTINUOUS
 62
    7
 10
6.7404737905387293
 20
-13.401173763581177
 11
6.7553564575167542
 21
-13.996480442701802
  0
LINE
  8
_0-0_
  6
CONTINUOUS
 62
    7
 10
6.6214124547146156
 20
-13.416056430559195
 11
6.5469991198245481
 21
-14.323899116218136
  0
LINE
  8
_0-0_
  6
CONTINUOUS
 62
    7
 10
6.9041831272969034
 20
-13.296995094735081
 11
6.8893004603188928
 21
-14.115541778525923
  0
LINE
  8
_0-0_
  6
CONTINUOUS
 62
    7
 10
-3.751806428962098
 20
-13.758357771053554
 11
-3.7220410950060625
 21
-15.693104478195551
  0
LINE
  8
_0-0_
  6
CONTINUOUS
 62
    7
 10
-4.2429344392366062
 20
-13.609531101273397
 11
-4.2280517722585813
 21
-15.544277808415394
  0
LINE
  8
_0-0_
  6
CONTINUOUS
 62
    7
 10
-4.704297115555093
 20
-13.594648434295387
 11
-4.8084757844011961
 21
-15.425216472591273
  0
LINE
  8
_0-0_
  6
CONTINUOUS
 62
    7
 10
-5.0465984560494377
 20
-13.594648434295387
 11
-5.1507771248955265
 21
-15.30615513676716
  0
LINE
  8
_0-0_
  6
CONTINUOUS
 62
    7
 10
-5.4484304644558534
 20
-13.416056430559195
 11
-5.4335477974778286
 21
-15.142445800008986
  0
LINE
  8
_0-0_
  6
CONTINUOUS
 62
    7
 10
-5.7460838040161661
 20
-13.475587098471259
 11
-5.8204971389062194
 21
-15.11268046605295
  0
LINE
  8
_0-0_
  6
CONTINUOUS
 62
    7
 10
-6.1627984794005926
 20
-13.654179102207443
 11
-6.1479158124225819
 21
-14.353664450174165
  0
LINE
  8
_0-0_
  6
CONTINUOUS
 62
    7
 10
-6.4455691519828946
 20
-13.073755090064843
 11
-6.5348651538509728
 21
-14.472725785998293
  0
LINE
  8
_0-0_
  6
CONTINUOUS
 62
    7
 10
-6.8920491613233565
 20
-13.014224422152779
 11
-7.0111104971474703
 21
-13.966715108745774
  0
LINE
  8
_0-0_
  6
CONTINUOUS
 62
    7
 10
-7.5766518423120601
 20
-13.163051091932942
 11
-7.6212998432461063
 21
-13.416056430559195
  0
LINE
  8
_0-0_
  6
CONTINUOUS
 62
    7
 10
-7.9784838507184759
 20
-13.043989756108815
 11
-8.0380145186305327
 21
-13.118403090998889
  0
LINE
  8
_0-0_
  6
CONTINUOUS
 62
    7
 10
-8.5142598619270302
 20
-12.671923081658434
 11
-8.5737905298390871
 21
-12.850515085394612
  0
LINE
  8
_0-0_
  6
CONTINUOUS
 62
    7
 10
7.3506631366373796
 20
-13.416056430559195
 11
7.3506631366373796
 21
-13.683944436163472
  0
LINE
  8
_0-0_
  6
CONTINUOUS
 62
    7
 10
7.8269084799338913
 20
-13.326760428691109
 11
8.0352658176260974
 21
-13.416056430559195
  0
LINE
  8
_0-0_
  6
CONTINUOUS
 62
    7
 10
8.2733884892743248
 20
-12.96957642121874
 11
8.3329191571864101
 21
-13.118403090998889
  0
LINE
  8
_0-0_
  6
CONTINUOUS
 62
    7
 10
-32.331456317725241
 20
-5.2741948589557524
 11
-32.383593049176881
 21
-8.437156567022285
  0
LINE
  8
_0-0_
  6
CONTINUOUS
 62
    7
 10
-32.070772660467
 20
-5.1177846646008121
 11
-32.070772660467
 21
-7.7420001476670066
  0
LINE
  8
_0-0_
  6
CONTINUOUS
 62
    7
 10
-31.757952271757119
 20
-4.7354486339554072
 11
-31.671057719337711
 21
-6.8035389815373719
  0
LINE
  8
_0-0_
  6
CONTINUOUS
 62
    7
 10
-24.841145899172048
 20
1.0691074676612118
 11
-24.893282630623702
 21
-2.3024011662119079
  0
LINE
  8
_0-0_
  6
CONTINUOUS
 62
    7
 10
-25.153966287881943
 20
0.8258027208868553
 11
-25.275618661269107
 21
-2.4414324500829707
  0
LINE
  8
_0-0_
  6
CONTINUOUS
 62
    7
 10
-25.631886326188706
 20
0.5998768845963836
 11
-25.684023057640346
 21
-2.7716317492767359
  0
LINE
  8
_0-0_
  6
CONTINUOUS
 62
    7
 10
-26.031601267317996
 20
0.2870564958865173
 11
-26.083737998769635
 21
-3.0844521379866023
  0
LINE
  8
_0-0_
  6
CONTINUOUS
 62
    7
 10
-26.361800566511732
 20
0.043751749112161
 11
-26.413937297963386
 21
-3.3277568847609587
  0
LINE
  8
_0-0_
  6
CONTINUOUS
 62
    7
 10
-26.605105313286089
 20
-0.1126584452427721
 11
-26.657242044737728
 21
-3.4841670791158919
  0
LINE
  8
_0-0_
  6
CONTINUOUS
 62
    7
 10
-26.952683522963724
 20
-0.2864475500816041
 11
-27.004820254415378
 21
-3.6579561839547239
  0
LINE
  8
_0-0_
  6
CONTINUOUS
 62
    7
 10
-27.491429747964077
 20
-0.5818890283076001
 11
-27.543566479415716
 21
-3.9533976621807199
  0
LINE
  8
_0-0_
  6
CONTINUOUS
 62
    7
 10
-27.925902510061135
 20
-0.9642250589529908
 11
-27.978039241512775
 21
-4.3357336928261105
  0
LINE
  8
_0-0_
  6
CONTINUOUS
 62
    7
 10
-28.360375272158194
 20
-1.3118032686306265
 11
-28.412512003609834
 21
-4.6833119025037533
  0
LINE
  8
_0-0_
  6
CONTINUOUS
 62
    7
 10
-29.020773870545696
 20
-1.5203501944372277
 11
-29.07291060199735
 21
-4.8918588283103546
  0
LINE
  8
_0-0_
  6
CONTINUOUS
 62
    7
 10
-28.794848034255239
 20
-1.7636549412115698
 11
-28.846984765706893
 21
-5.1351635750846896
  0
LINE
  8
_0-0_
  6
CONTINUOUS
 62
    7
 10
-29.455246632642755
 20
-2.0590964194375658
 11
-29.507383364094409
 21
-5.4306050533106855
  0
LINE
  8
_0-0_
  6
CONTINUOUS
 62
    7
 10
-29.924477215707569
 20
-2.4240535395991003
 11
-29.976613947159208
 21
-5.79556217347222
  0
LINE
  8
_0-0_
  6
CONTINUOUS
 62
    7
 10
-30.306813246352974
 20
-2.8411473912122602
 11
-30.358949977804627
 21
-6.21265602508538
  0
LINE
  8
_0-0_
  6
CONTINUOUS
 62
    7
 10
-30.810801650385557
 20
-3.2234834218576651
 11
-30.862938381837196
 21
-6.5949920557307919
  0
LINE
  8
_0-0_
  6
CONTINUOUS
 62
    7
 10
-31.175758770547091
 20
-3.4841670791158919
 11
-31.227895501998731
 21
-6.8556757129890187
  0
LINE
  8
_0-0_
  6
CONTINUOUS
 62
    7
 10
-31.245274412482615
 20
-3.7100929154063635
 11
-31.297411143934255
 21
-7.0816015492794904
  0
LINE
  8
_0-0_
  6
CONTINUOUS
 62
    7
 10
-24.345846950381429
 20
1.3297911249194385
 11
-24.397983681833068
 21
-2.0417175089536812
  0
LINE
  8
_0-0_
  6
CONTINUOUS
 62
    7
 10
-23.772342904413307
 20
1.6078536926615641
 11
-23.824479635864961
 21
-1.7636549412115698
  0
LINE
  8
_0-0_
  6
CONTINUOUS
 62
    7
 10
-23.285733410864609
 20
1.9032951708875601
 11
-23.337870142316262
 21
-1.4682134629855739
  0
LINE
  8
_0-0_
  6
CONTINUOUS
 62
    7
 10
-22.642713722960977
 20
2.0075686337908394
 11
-22.694850454412617
 21
-1.3639400000822803
  0
LINE
  8
_0-0_
  6
CONTINUOUS
 62
    7
 10
-22.173483139896163
 20
2.2161155595974265
 11
-22.225619871347817
 21
-1.1553930742756933
  0
LINE
  8
_0-0_
  6
CONTINUOUS
 62
    7
 10
-21.443568899573108
 20
2.4072835749201289
 11
-21.495705631024762
 21
-0.9642250589529908
  0
LINE
  8
_0-0_
  6
CONTINUOUS
 62
    7
 10
-20.870064853605015
 20
2.7374828741138941
 11
-20.922201585056655
 21
-0.6340257597592254
  0
LINE
  8
_0-0_
  6
CONTINUOUS
 62
    7
 10
-20.366076449572418
 20
2.8243774265333172
 11
-20.418213181024072
 21
-0.5471312073398165
  0
LINE
  8
_0-0_
  6
CONTINUOUS
 62
    7
 10
-19.844709135055965
 20
2.9634087104043516
 11
-19.896845866507618
 21
-0.4080999234687681
  0
LINE
  8
_0-0_
  6
CONTINUOUS
 62
    7
 10
-19.323341820539497
 20
3.1371978152431836
 11
-19.375478551991137
 21
-0.234310818629936
  0
LINE
  8
_0-0_
  6
CONTINUOUS
 62
    7
 10
-18.64556431166811
 20
3.5890494878241128
 11
-18.69770104311975
 21
0.2175408539509931
  0
LINE
  8
_0-0_
  6
CONTINUOUS
 62
    7
 10
-17.915650071345055
 20
3.5716705773402424
 11
-17.967786802796695
 21
0.2001619434671226
  0
LINE
  8
_0-0_
  6
CONTINUOUS
 62
    7
 10
-17.376903846344703
 20
3.8149753241145845
 11
-17.429040577796357
 21
0.4434666902414646
  0
LINE
  8
_0-0_
  6
CONTINUOUS
 62
    7
 10
-16.577473964086138
 20
3.9540066079856473
 11
-16.629610695537778
 21
0.5824979741125274
  0
LINE
  8
_0-0_
  6
CONTINUOUS
 62
    7
 10
-16.264653575376244
 20
4.0930378918566959
 11
-16.316790306827897
 21
0.7215292579835761
  0
LINE
  8
_0-0_
  6
CONTINUOUS
 62
    7
 10
-15.395708051182154
 20
4.3711004595988072
 11
-15.447844782633794
 21
0.9995918257256875
  0
LINE
  8
_0-0_
  6
CONTINUOUS
 62
    7
 10
-14.596278168923575
 20
4.5970262958892931
 11
-14.648414900375229
 21
1.2255176620161592
  0
LINE
  8
_0-0_
  6
CONTINUOUS
 62
    7
 10
-13.935879570536045
 20
4.6839208483086878
 11
-13.988016301987699
 21
1.3124122144355681
  0
LINE
  8
_0-0_
  6
CONTINUOUS
 62
    7
 10
-13.049555135858057
 20
4.7012997587925724
 11
-13.101691867309711
 21
1.3297911249194527
  0
LINE
  8
_0-0_
  6
CONTINUOUS
 62
    7
 10
-12.458672179406065
 20
4.9272255950830299
 11
-12.510808910857719
 21
1.5557169612099102
  0
LINE
  8
_0-0_
  6
CONTINUOUS
 62
    7
 10
-11.711379028599154
 20
5.135772520889617
 11
-11.763515760050808
 21
1.7642638870164973
  0
LINE
  8
_0-0_
  6
CONTINUOUS
 62
    7
 10
-11.224769535050456
 20
5.0836357894379773
 11
-11.27690626650211
 21
1.7121271555648434
  0
LINE
  8
_0-0_
  6
CONTINUOUS
 62
    7
 10
-10.512234205211286
 20
5.2400459837929105
 11
-10.564370936662925
 21
1.8685373499197908
  0
LINE
  8
_0-0_
  6
CONTINUOUS
 62
    7
 10
-9.7128043229527066
 20
5.2400459837929105
 11
-9.7649410544043604
 21
1.8685373499197908
  0
LINE
  8
_0-0_
  6
CONTINUOUS
 62
    7
 10
-8.9655111721457814
 20
5.2921827152445644
 11
-9.0176479035974211
 21
1.9206740813714447
  0
LINE
  8
_0-0_
  6
CONTINUOUS
 62
    7
 10
-8.1313234689194331
 20
5.605003103954445
 11
-8.183460200371087
 21
2.2334944700813253
  0
LINE
  8
_0-0_
  6
CONTINUOUS
 62
    7
 10
-7.2449990342414452
 20
5.4833507305672811
 11
-7.2971357656930991
 21
2.1118420966941471
  0
LINE
  8
_0-0_
  6
CONTINUOUS
 62
    7
 10
-6.2717800471440626
 20
5.6397609249222143
 11
-6.3239167785957306
 21
2.2682522910490945
  0
LINE
  8
_0-0_
  6
CONTINUOUS
 62
    7
 10
-5.5071079858532386
 20
5.5528663725027911
 11
-5.5592447173049067
 21
2.1813577386296714
  0
LINE
  8
_0-0_
  6
CONTINUOUS
 62
    7
 10
-4.8293304769818377
 20
5.6745187458899693
 11
-4.8814672084334632
 21
2.3030101120168354
  0
LINE
  8
_0-0_
  6
CONTINUOUS
 62
    7
 10
-4.2732053414976292
 20
5.7961711192771475
 11
-4.3253420729492973
 21
2.4246624854040277
  0
LINE
  8
_0-0_
  6
CONTINUOUS
 62
    7
 10
-3.5085332802068052
 20
5.7266554773416232
 11
-3.5606700116584733
 21
2.3551468434685034
  0
LINE
  8
_0-0_
  6
CONTINUOUS
 62
    7
 10
-2.5353142931094084
 20
5.7266554773416232
 11
-2.5874510245610765
 21
2.3551468434685034
  0
LINE
  8
_0-0_
  6
CONTINUOUS
 62
    7
 10
-2.0313258890768253
 20
5.778792208793277
 11
-2.083462620528465
 21
2.4072835749201431
  0
LINE
  8
_0-0_
  6
CONTINUOUS
 62
    7
 10
-1.0581069019794285
 20
5.778792208793277
 11
-1.1102436334310539
 21
2.4072835749201431
  0
LINE
  8
_0-0_
  6
CONTINUOUS
 62
    7
 10
-0.3803293931080276
 20
5.8135500297610179
 11
-0.4324661245596814
 21
2.4420413958878981
  0
LINE
  8
_0-0_
  6
CONTINUOUS
 62
    7
 10
0.3148270262472577
 20
5.778792208793277
 11
0.2626902947956323
 21
2.4072835749201431
  0
LINE
  8
_0-0_
  6
CONTINUOUS
 62
    7
 10
1.2185303714091305
 20
5.9352024031482102
 11
1.1663936399574624
 21
2.5636937692750905
  0
LINE
  8
_0-0_
  6
CONTINUOUS
 62
    7
 10
1.7746555068933674
 20
5.7961711192771475
 11
1.7225187754416993
 21
2.4246624854040277
  0
LINE
  8
_0-0_
  6
CONTINUOUS
 62
    7
 10
2.5045697472163937
 20
5.6918976563738539
 11
2.4524330157647682
 21
2.3203890225007342
  0
LINE
  8
_0-0_
  6
CONTINUOUS
 62
    7
 10
3.4256520028621367
 20
5.7440343878255078
 11
3.3735152714104828
 21
2.3725257539523739
  0
LINE
  8
_0-0_
  6
CONTINUOUS
 62
    7
 10
4.2945975270562542
 20
5.7092765668577385
 11
4.2424607956046287
 21
2.3377679329846046
  0
LINE
  8
_0-0_
  6
CONTINUOUS
 62
    7
 10
5.094027409314819
 20
5.7440343878255078
 11
5.0418906778631936
 21
2.3725257539523739
  0
LINE
  8
_0-0_
  6
CONTINUOUS
 62
    7
 10
5.8760783810895276
 20
5.6918976563738539
 11
5.823941649637888
 21
2.3203890225007342
  0
LINE
  8
_0-0_
  6
CONTINUOUS
 62
    7
 10
6.6059926214125539
 20
5.5528663725027911
 11
6.5538558899609001
 21
2.1813577386296714
  0
LINE
  8
_0-0_
  6
CONTINUOUS
 62
    7
 10
7.3619752274614427
 20
5.6050031039544592
 11
7.4141119589130966
 21
2.2508733805652099
  0
LINE
  8
_0-0_
  6
CONTINUOUS
 62
    7
 10
8.1874734754458274
 20
5.5094190962931009
 11
8.2396102068974955
 21
2.1552893729038658
  0
LINE
  8
_0-0_
  6
CONTINUOUS
 62
    7
 10
8.9347666262527667
 20
5.4572823648414612
 11
8.9869033577044348
 21
2.1031526414522119
  0
LINE
  8
_0-0_
  6
CONTINUOUS
 62
    7
 10
9.5604074036725137
 20
5.1965987075832203
 11
9.6125441351241818
 21
1.842468984193971
  0
LINE
  8
_0-0_
  6
CONTINUOUS
 62
    7
 10
10.307700554479467
 20
5.1792197970993357
 11
10.359837285931121
 21
1.8250900737101006
  0
LINE
  8
_0-0_
  6
CONTINUOUS
 62
    7
 10
11.211403899641326
 20
5.0575674237121717
 11
11.263540631092994
 21
1.7034377003229224
  0
LINE
  8
_0-0_
  6
CONTINUOUS
 62
    7
 10
11.767529035125534
 20
5.0054306922605321
 11
11.819665766577188
 21
1.6513009688712827
  0
LINE
  8
_0-0_
  6
CONTINUOUS
 62
    7
 10
12.497443275448603
 20
4.9359150503249936
 11
12.549580006900257
 21
1.5817853269357443
  0
LINE
  8
_0-0_
  6
CONTINUOUS
 62
    7
 10
13.279494247223298
 20
4.8663994083894693
 11
13.331630978674966
 21
1.51226968500022
  0
LINE
  8
_0-0_
  6
CONTINUOUS
 62
    7
 10
13.95727175609467
 20
4.6926103035506372
 11
14.009408487546338
 21
1.3384805801613879
  0
LINE
  8
_0-0_
  6
CONTINUOUS
 62
    7
 10
14.6176703544822
 20
4.6057157511312283
 11
14.669807085933854
 21
1.251586027741979
  0
LINE
  8
_0-0_
  6
CONTINUOUS
 62
    7
 10
15.417100236740765
 20
4.3797899148407708
 11
15.469236968192433
 21
1.0256601914515215
  0
LINE
  8
_0-0_
  6
CONTINUOUS
 62
    7
 10
16.09487774561218
 20
4.327653183389117
 11
16.147014477063834
 21
0.9735234599998817
  0
LINE
  8
_0-0_
  6
CONTINUOUS
 62
    7
 10
16.668381791580288
 20
4.2233797204858377
 11
16.720518523031956
 21
0.8692499970965883
  0
LINE
  8
_0-0_
  6
CONTINUOUS
 62
    7
 10
17.433053852871112
 20
4.0495906156470056
 11
17.48519058432278
 21
0.6954608922577563
  0
LINE
  8
_0-0_
  6
CONTINUOUS
 62
    7
 10
18.006557898839191
 20
3.8931804212920724
 11
18.058694630290859
 21
0.5390506979028231
  0
LINE
  8
_0-0_
  6
CONTINUOUS
 62
    7
 10
18.666956497226721
 20
3.736770226937125
 11
18.719093228678389
 21
0.3826405035478899
  0
LINE
  8
_0-0_
  6
CONTINUOUS
 62
    7
 10
19.431628558517559
 20
3.5456022116144226
 11
19.483765289969199
 21
0.1914724882251732
  0
LINE
  8
_0-0_
  6
CONTINUOUS
 62
    7
 10
20.17892170932447
 20
3.3718131067755905
 11
20.23105844077611
 21
0.0176833833863553
  0
LINE
  8
_0-0_
  6
CONTINUOUS
 62
    7
 10
20.856699218195871
 20
3.0763716285495946
 11
20.908835949647539
 21
-0.2777580948396404
  0
LINE
  8
_0-0_
  6
CONTINUOUS
 62
    7
 10
21.378066532712353
 20
3.0242348970979549
 11
21.430203264164021
 21
-0.3298948262912944
  0
LINE
  8
_0-0_
  6
CONTINUOUS
 62
    7
 10
21.517097816583401
 20
2.8156879712913678
 11
21.56923454803507
 21
-0.5384417520978671
  0
LINE
  8
_0-0_
  6
CONTINUOUS
 62
    7
 10
22.003707310132086
 20
2.7287934188719589
 11
22.055844041583754
 21
-0.6253363045172902
  0
LINE
  8
_0-0_
  6
CONTINUOUS
 62
    7
 10
22.577211356100207
 20
2.4159730301620925
 11
22.629348087551875
 21
-0.9381566932271566
  0
LINE
  8
_0-0_
  6
CONTINUOUS
 62
    7
 10
23.150715402068329
 20
2.3290784777426694
 11
23.202852133519997
 21
-1.0250512456465799
  0
LINE
  8
_0-0_
  6
CONTINUOUS
 62
    7
 10
23.567809253681503
 20
1.9988791785489184
 11
23.619945985133143
 21
-1.3552505448403167
  0
LINE
  8
_0-0_
  6
CONTINUOUS
 62
    7
 10
24.037039836746317
 20
1.9119846261295095
 11
24.089176568197985
 21
-1.4421450972597398
  0
LINE
  8
_0-0_
  6
CONTINUOUS
 62
    7
 10
24.593164972230511
 20
1.7034377003229224
 11
24.645301703682179
 21
-1.6506920230663127
  0
LINE
  8
_0-0_
  6
CONTINUOUS
 62
    7
 10
25.114532286746964
 20
1.4253751325808111
 11
25.166669018198633
 21
-1.9287545908084383
  0
LINE
  8
_0-0_
  6
CONTINUOUS
 62
    7
 10
25.583762869811807
 20
1.1820703858064547
 11
25.635899601263475
 21
-2.1720593375827946
  0
LINE
  8
_0-0_
  6
CONTINUOUS
 62
    7
 10
26.000856721424952
 20
0.8866289075804586
 11
26.05299345287662
 21
-2.4675008158087905
  0
LINE
  8
_0-0_
  6
CONTINUOUS
 62
    7
 10
26.609118588360843
 20
0.5911874293544626
 11
26.661255319812483
 21
-2.7629422940347865
  0
LINE
  8
_0-0_
  6
CONTINUOUS
 62
    7
 10
27.026212439974017
 20
0.3305037720962359
 11
27.078349171425685
 21
-3.0236259512930133
  0
LINE
  8
_0-0_
  6
CONTINUOUS
 62
    7
 10
27.373790649651653
 20
0.1045779358057643
 11
27.425927381103321
 21
-3.249551787583485
  0
LINE
  8
_0-0_
  6
CONTINUOUS
 62
    7
 10
27.617095396426009
 20
-0.0692111690330533
 11
27.669232127877677
 21
-3.4233408924222886
  0
LINE
  8
_0-0_
  6
CONTINUOUS
 62
    7
 10
28.416525278684588
 20
-0.3646526472590493
 11
28.468662010136256
 21
-3.7187823706482845
  0
LINE
  8
_0-0_
  6
CONTINUOUS
 62
    7
 10
28.173220531910232
 20
-0.5210628416139826
 11
28.2253572633619
 21
-3.8751925650032319
  0
LINE
  8
_0-0_
  6
CONTINUOUS
 62
    7
 10
29.04216605610435
 20
-0.8686410512916181
 11
29.094302787555989
 21
-4.2227707746808676
  0
LINE
  8
_0-0_
  6
CONTINUOUS
 62
    7
 10
29.511396639169163
 20
-1.3204927238725475
 11
29.563533370620831
 21
-4.6746224472617968
  0
LINE
  8
_0-0_
  6
CONTINUOUS
 62
    7
 10
30.102279595621155
 20
-1.6506920230663127
 11
30.154416327072823
 21
-5.004821746455562
  0
LINE
  8
_0-0_
  6
CONTINUOUS
 62
    7
 10
30.814814925460325
 20
-2.3806062633893674
 11
30.866951656911965
 21
-5.7347359867786167
  0
LINE
  8
_0-0_
  6
CONTINUOUS
 62
    7
 10
31.475213523847856
 20
-3.1800361456479465
 11
31.527350255299496
 21
-6.5341658690371887
  0
LINE
  8
_0-0_
  6
CONTINUOUS
 62
    7
 10
31.909686285944872
 20
-3.7882980125838088
 11
31.96182301739654
 21
-7.1424277359730581
  0
LINE
  8
_0-0_
  6
CONTINUOUS
 62
    7
 10
32.326780137558075
 20
-4.2749075061325144
 11
32.378916869009743
 21
-7.6290372295217566
  0
LINE
  8
_0-0_
  6
CONTINUOUS
 62
    7
 10
32.587463794816301
 20
-5.1438530303266177
 11
32.639600526267941
 21
-8.4979827537158599
  0
LINE
  8
_0-0_
  6
CONTINUOUS
 62
    7
 10
31.145014224654091
 20
-2.8150790254864262
 11
31.197150956105759
 21
-6.1692087488756613
  0
LINE
  8
_0-0_
  6
CONTINUOUS
 62
    7
 10
30.449857805298819
 20
-2.189438248066665
 11
30.501994536750487
 21
-5.5435679714559143
  0
ARC
  8
_0-0_
  6
CONTINUOUS
 62
    7
 10
-3.5138564613410921
 20
-4.6796856697847744
 40
16.605829351193947
 50
101.15822371312088
 51
146.90603192155581
  0
ARC
  8
_0-0_
  6
CONTINUOUS
 62
    7
 10
-1.3631891532552345
 20
-21.133637215846804
 40
32.239534027440016
 50
111.21090304190911
 51
133.99786640539571
  0
ARC
  8
_0-0_
  6
CONTINUOUS
 62
    7
 10
3.8726256989422012
 20
2.1939784018514388
 40
13.125791546545758
 50
136.0745924631112
 51
162.89487465753467
  0
ARC
  8
_0-0_
  6
CONTINUOUS
 62
    7
 10
-2.5765511215829662
 20
7.8000536325237988
 40
4.6124311564019225
 50
104.16705552263041
 51
130.64809535300614
  0
ARC
  8
_0-0_
  6
CONTINUOUS
 62
    7
 10
-0.6092449995155533
 20
8.4098939325158
 40
5.205988847576128
 50
19.972453179352524
 51
52.681198724887608
  0
ARC
  8
_0-0_
  6
CONTINUOUS
 62
    7
 10
-16.023021540597668
 20
1.3817433648010393
 40
22.133963040871844
 50
13.109379571646576
 51
23.444839646793628
  0
ARC
  8
_0-0_
  6
CONTINUOUS
 62
    7
 10
3.827394748551697
 20
0.9467351569071667
 40
11.392999342281007
 50
48.079261717907322
 51
78.189110959449877
  0
ARC
  8
_0-0_
  6
CONTINUOUS
 62
    7
 10
0.5692447366010496
 20
-3.5481444122954144
 40
16.924178071055415
 50
30.933067377886719
 51
50.038955706110805
  0
ARC
  8
_0-0_
  6
CONTINUOUS
 62
    7
 10
7.0863660369549706
 20
-7.865162173813772
 40
18.529298369383849
 50
54.031823785347271
 51
80.906217753721819
  0
ARC
  8
_0-0_
  6
CONTINUOUS
 62
    7
 10
5.7923366869168831
 20
-12.887438601623344
 40
23.431433804499761
 50
41.199230555441318
 51
58.688918266154374
  0
ARC
  8
_0-0_
  6
CONTINUOUS
 62
    7
 10
0.4234965374918147
 20
-6.8941146064310459
 40
19.839867281000128
 50
73.195509522340188
 51
111.12664945411248
  0
LINE
  8
_0-0_
  6
CONTINUOUS
 62
    7
 10
-2.3855078301473043
 20
12.237468265413071
 11
-2.3160375423525466
 21
10.361770494954911
  0
LINE
  8
_0-0_
  6
CONTINUOUS
 62
    7
 10
-2.3160375423525466
 20
10.361770494954911
 11
-2.1770969667630595
 21
6.4019640906543316
  0
LINE
  8
_0-0_
  6
CONTINUOUS
 62
    7
 10
-1.9686861033788148
 20
10.674386790031264
 11
1.0532714156926772
 21
10.84806250951813
  0
LINE
  8
_0-0_
  6
CONTINUOUS
 62
    7
 10
-2.3855078301473043
 20
12.237468265413071
 11
-0.4403397718943863
 21
12.445879128797316
  0
LINE
  8
_0-0_
  6
CONTINUOUS
 62
    7
 10
-0.4403397718943863
 20
12.445879128797316
 11
1.400622854666409
 21
12.445879128797316
  0
LINE
  8
_0-0_
  6
CONTINUOUS
 62
    7
 10
1.400622854666409
 20
12.445879128797316
 11
1.5048282863585314
 21
10.778592221723386
  0
LINE
  8
_0-0_
  6
CONTINUOUS
 62
    7
 10
1.5048282863585314
 20
10.778592221723386
 11
1.5742985741532749
 21
6.506169522346454
  0
ARC
  8
_0-0_
  6
CONTINUOUS
 62
    7
 10
-1.164704543149071
 20
30.840862124758061
 40
4.8134215421030442
 50
96.766109895067743
 51
149.629021689365
  0
ARC
  8
_0-0_
  6
CONTINUOUS
 62
    7
 10
-0.1367153701651631
 20
29.130982964070981
 40
6.6829273734834063
 50
60.660941649008173
 51
103.80872631414091
  0
ARC
  8
_0-0_
  6
CONTINUOUS
 62
    7
 10
2.2968230887692584
 20
32.766419890185347
 40
2.3461948592508031
 50
359.43506737144156
 51
68.996336893433693
  0
ARC
  8
_0-0_
  6
CONTINUOUS
 62
    7
 10
-0.6029507706812039
 20
29.017969850884953
 40
6.9696404880774061
 50
86.540624831927758
 51
135.08950710080654
  0
ARC
  8
_0-0_
  6
CONTINUOUS
 62
    7
 10
-0.3316461709520126
 20
27.804784328514671
 40
8.1714892661680221
 50
55.190704338217678
 51
88.953456137767645
  0
ARC
  8
_0-0_
  6
CONTINUOUS
 62
    7
 10
3.595208594975901
 20
33.16384068772706
 40
1.5386376847112682
 50
355.8752333938574
 51
61.345685938073757
  0
ARC
  8
_0-0_
  6
CONTINUOUS
 62
    7
 10
3.4085245965357132
 20
32.971837568007857
 40
1.7232566067009267
 50
315.75034542586161
 51
2.7051452100461688
  0
LINE
  8
_0-0_
  6
CONTINUOUS
 62
    7
 10
-5.7602678121474753
 20
34.292695490794785
 11
-5.8930742595672143
 21
33.363050358856668
  0
LINE
  8
_0-0_
  6
CONTINUOUS
 62
    7
 10
5.0855920604639806
 20
34.204157859181635
 11
5.1298608762705697
 21
33.363050358856668
  0
ARC
  8
_0-0_
  6
CONTINUOUS
 62
    7
 10
-1.8411626979444122
 20
32.110155210509163
 40
4.4858518668411165
 50
88.603091978101986
 51
150.88667061578249
  0
ARC
  8
_0-0_
  6
CONTINUOUS
 62
    7
 10
-0.361484502645311
 20
29.284282647951073
 40
7.4377147217519841
 50
68.328121068059232
 51
100.61679862862808
  0
ARC
  8
_0-0_
  6
CONTINUOUS
 62
    7
 10
1.7953547434951105
 20
32.57037633645264
 40
3.6735410254936856
 50
26.406894828320819
 51
80.760348131907236
  0
LINE
  8
_0-0_
  6
CONTINUOUS
 62
    7
 10
-6.2914936018264029
 20
34.823921280473726
 11
-5.8045366279540502
 21
33.982813780148746
  0
LINE
  8
_0-0_
  6
CONTINUOUS
 62
    7
 10
5.5725490343363333
 20
34.115620227568485
 11
5.2183985078837338
 21
33.540125622082968
  0
LINE
  8
_0-0_
  6
CONTINUOUS
 62
    7
 10
-6.2914936018264029
 20
36.727480360156534
 11
-6.2914936018264029
 21
34.823921280473726
  0
LINE
  8
_0-0_
  6
CONTINUOUS
 62
    7
 10
5.5725490343363333
 20
36.506136281123659
 11
5.5725490343363333
 21
34.115620227568485
  0
ARC
  8
_0-0_
  6
CONTINUOUS
 62
    7
 10
-2.0968716986196227
 20
32.856687876685555
 40
4.6330184735053725
 50
93.699835623110758
 51
154.87391833130715
  0
ARC
  8
_0-0_
  6
CONTINUOUS
 62
    7
 10
-0.579908039343408
 20
27.592758418609066
 40
10.05266831623603
 50
67.205058493083754
 51
100.40713157261418
  0
ARC
  8
_0-0_
  6
CONTINUOUS
 62
    7
 10
1.5227876487103771
 20
33.010987984093362
 40
4.2460041230363776
 50
30.68927394207395
 51
65.0355365101492
  0
ARC
  8
_0-0_
  6
CONTINUOUS
 62
    7
 10
12.633425155491409
 20
37.369378189354236
 40
7.7745040016828213
 50
196.37112909446898
 51
204.74096134469883
  0
ARC
  8
_0-0_
  6
CONTINUOUS
 62
    7
 10
-1.3738463835922374
 20
32.653590147432794
 40
6.3859091465767399
 50
93.213372775353633
 51
140.36088068418942
  0
ARC
  8
_0-0_
  6
CONTINUOUS
 62
    7
 10
-0.3239542803653137
 20
30.032851476756136
 40
9.1060962146697424
 50
65.532054875811511
 51
98.89390921492371
  0
ARC
  8
_0-0_
  6
CONTINUOUS
 62
    7
 10
1.3550134424463067
 20
33.719890112437923
 40
5.0547773621965799
 50
33.450095459330292
 51
65.544207770005002
  0
LINE
  8
_0-0_
  6
CONTINUOUS
 62
    7
 10
-5.1847732066619585
 20
39.029458782098573
 11
-5.7602678121474753
 21
39.029458782098573
  0
LINE
  8
_0-0_
  6
CONTINUOUS
 62
    7
 10
-5.7602678121474753
 20
39.029458782098573
 11
-5.8930742595672143
 21
37.214437334028901
  0
LINE
  8
_0-0_
  6
CONTINUOUS
 62
    7
 10
-4.3436657063369921
 20
39.959103914036689
 11
-4.830622680209359
 21
40.180447993069578
  0
LINE
  8
_0-0_
  6
CONTINUOUS
 62
    7
 10
-4.830622680209359
 20
40.180447993069578
 11
-4.830622680209359
 21
37.967007202740717
  0
LINE
  8
_0-0_
  6
CONTINUOUS
 62
    7
 10
-2.7057195214936485
 20
40.313254440489317
 11
-3.148407679559412
 21
40.711673782748505
  0
LINE
  8
_0-0_
  6
CONTINUOUS
 62
    7
 10
-3.148407679559412
 20
40.711673782748505
 11
-3.1926764953659728
 21
38.808114703065684
  0
LINE
  8
_0-0_
  6
CONTINUOUS
 62
    7
 10
-2.7057195214936485
 20
40.313254440489317
 11
-2.7057195214936485
 21
38.896652334678834
  0
LINE
  8
_0-0_
  6
CONTINUOUS
 62
    7
 10
-4.3436657063369921
 20
39.959103914036689
 11
-4.2993968905304314
 21
38.675308255645945
  0
LINE
  8
_0-0_
  6
CONTINUOUS
 62
    7
 10
-1.2448485998765761
 20
40.977286677587969
 11
-1.333386231489726
 21
39.117996413711722
  0
LINE
  8
_0-0_
  6
CONTINUOUS
 62
    7
 10
0.6587104798062597
 20
40.755942598555094
 11
0.7472481114194096
 21
39.117996413711722
  0
LINE
  8
_0-0_
  6
CONTINUOUS
 62
    7
 10
2.1638502172298928
 20
40.180447993069578
 11
2.6065383752956564
 21
40.446060887909042
  0
LINE
  8
_0-0_
  6
CONTINUOUS
 62
    7
 10
2.6065383752956564
 20
40.446060887909042
 11
2.8278824543285594
 21
38.586770624032781
  0
LINE
  8
_0-0_
  6
CONTINUOUS
 62
    7
 10
2.2523878488430427
 20
39.64922220339065
 11
2.2966566646496034
 21
38.985189966291983
  0
LINE
  8
_0-0_
  6
CONTINUOUS
 62
    7
 10
3.9346028494929897
 20
39.7377598350038
 11
4.0674092969127003
 21
38.276888913386756
  0
LINE
  8
_0-0_
  6
CONTINUOUS
 62
    7
 10
5.0855920604639806
 20
38.631039439839384
 11
5.3512049553034728
 21
36.860286807576273
  0
ARC
  8
_0-0_
  6
CONTINUOUS
 62
    7
 10
-1.6673948799090397
 20
36.073194193074045
 40
4.59471986238895
 50
89.147079066275694
 51
139.95382571213904
  0
ARC
  8
_0-0_
  6
CONTINUOUS
 62
    7
 10
-0.6674123796626787
 20
31.022627965293267
 40
9.689663424396926
 50
66.592165284289564
 51
95.517071048632644
  0
ARC
  8
_0-0_
  6
CONTINUOUS
 62
    7
 10
1.262717203946778
 20
35.991417507508118
 40
4.3677200737217747
 50
23.680664490146054
 51
63.932356661889862
  0
LINE
  8
_0-0_
  6
CONTINUOUS
 62
    7
 10
-4.6978162327896058
 20
42.659501678237916
 11
-4.742085048596195
 21
40.180447993069578
  0
LINE
  8
_0-0_
  6
CONTINUOUS
 62
    7
 10
4.0231404811061395
 20
42.703770494044491
 11
4.4215598233653424
 21
39.117996413711722
  0
ARC
  8
_0-0_
  6
CONTINUOUS
 62
    7
 10
0.3166288247710724
 20
34.219288738462197
 40
7.8703549452950359
 50
87.831420111769901
 51
128.74689658823573
  0
ARC
  8
_0-0_
  6
CONTINUOUS
 62
    7
 10
0.4964770817401529
 20
38.15584297503861
 40
3.9299349639956365
 50
37.249808370170236
 51
88.279898231224578
  0
ARC
  8
_0-0_
  6
CONTINUOUS
 62
    7
 10
0.365191318119642
 20
36.232993123801634
 40
6.8411329403726118
 50
86.055567904252968
 51
134.52796743173502
  0
ARC
  8
_0-0_
  6
CONTINUOUS
 62
    7
 10
0.3709631770635866
 20
39.195466841373332
 40
3.890322904806832
 50
23.648043890449337
 51
83.137806484335755
  0
ARC
  8
_0-0_
  6
CONTINUOUS
 62
    7
 10
-0.2147336605217304
 20
38.43165233858636
 40
5.3813730955014627
 50
88.241436242501422
 51
141.60210480266932
  0
ARC
  8
_0-0_
  6
CONTINUOUS
 62
    7
 10
0.0159613272297462
 20
38.937029386457922
 40
4.8739023451883678
 50
38.201632200800141
 51
90.770626944131536
  0
ARC
  8
_0-0_
  6
CONTINUOUS
 62
    7
 10
-1.4772598828611905
 20
40.902583050914487
 40
3.6686163966951209
 50
105.93352481862793
 51
151.38609168955247
  0
ARC
  8
_0-0_
  6
CONTINUOUS
 62
    7
 10
0.282425545450323
 20
36.838152399673078
 40
8.0805444823417005
 50
88.901311516829097
 51
110.02333289922215
  0
ARC
  8
_0-0_
  6
CONTINUOUS
 62
    7
 10
0.4916963110813981
 20
41.474304745961788
 40
3.4433351813890072
 50
39.78413608409457
 51
90.90406642774154
  0
ARC
  8
_0-0_
  6
CONTINUOUS
 62
    7
 10
1.6326244275505957
 20
41.419974835653392
 40
2.7134292500101549
 50
28.237445538170277
 51
56.309932474018133
  0
LINE
  8
_0-0_
  6
CONTINUOUS
 62
    7
 10
-5.0134316467906217
 20
33.035485975310451
 11
-5.6153599790419264
 21
11.967994346514971
  0
LINE
  8
_0-0_
  6
CONTINUOUS
 62
    7
 10
4.642903902398217
 20
32.743286937564577
 11
5.9932578572331323
 21
12.225963631765524
  0
ARC
  8
_0-0_
  6
CONTINUOUS
 62
    7
 10
-4.6309470215449409
 20
33.045479853886306
 40
1.2735725343561479
 50
135.4743656020936
 51
258.20391713304798
  0
ARC
  8
_0-0_
  6
CONTINUOUS
 62
    7
 10
-4.6901870561244436
 20
33.100761280726076
 40
0.6510077089700815
 50
164.52034758444222
 51
235.76606284344066
  0
LINE
  8
_0-0_
  6
CONTINUOUS
 62
    7
 10
0.5368484749538423
 20
34.69886206275325
 11
1.0855615907734233
 21
17.688755472346401
  0
LINE
  8
_0-0_
  6
CONTINUOUS
 62
    7
 10
-3.0846580894553597
 20
32.723494845802776
 11
-3.4138859589471053
 21
18.237468588165967
  0
ENDBLK
  0
ENDSEC
  0
SECTION
  2
ENTITIES
  0
INSERT
  2
-000-34
  8
_0-0_
 10
143.37867693400011
 20
101.7335808871718
 41
1
 42
1
 50
0
  0
ENDSEC
  0
EOF
