  0
SECTION
  2
HEADER
  9
$ACADVER
  1
AC1009
  9
$INSBASE
 10
0
 20
0
 30
0
  9
$EXTMIN
 10
0
 20
0
  9
$EXTMAX
 10
297
 20
210
  9
$LIMMIN
 10
0
 20
0
  9
$LIMMAX
 10
297
 20
210
  9
$LTSCALE
 40
1
  0
ENDSEC
  0
SECTION
  2
TABLES
  0
TABLE
  2
LTYPE
 70
     9
  0
LTYPE
  2
CONTINUOUS
 70
    64
  3
実線
 72
    65
 73
     0
 40
0.0
  0
LTYPE
  2
DASHED1
 70
    64
  3
--  --  --  --  --  --  --  --  
 72
    65
 73
     2
 40
2.5
 49
1.25
 49
-1.25
  0
LTYPE
  2
DASHED2
 70
    64
  3
----    ----    ----    ----    
 72
    65
 73
     2
 40
5.0
 49
2.5
 49
-2.5
  0
LTYPE
  2
DASHED3
 70
    64
  3
------  ------  ------  ------  
 72
    65
 73
     2
 40
5.0
 49
3.75
 49
-1.25
  0
LTYPE
  2
CENTER1
 70
    64
  3
----- - ----- - ----- - ----- - 
 72
    65
 73
     4
 40
10.0
 49
6.25
 49
-1.25
 49
1.25
 49
-1.25
  0
LTYPE
  2
CENTER2
 70
    64
  3
----------  --  ----------  --  
 72
    65
 73
     4
 40
20.0
 49
12.5
 49
-2.5
 49
2.5
 49
-2.5
  0
LTYPE
  2
PHANTOM1
 70
    64
  3
--- - - --- - - --- - - --- - - 
 72
    65
 73
     6
 40
10.0
 49
3.25
 49
-1.25
 49
1.25
 49
-1.25
 49
1.25
 49
-1.25
  0
LTYPE
  2
PHANTOM2
 70
    64
  3
--------  -  -  --------  -  -  
 72
    65
 73
     6
 40
20.0
 49
10.0
 49
-2.5
 49
1.25
 49
-2.5
 49
1.25
 49
-2.5
  0
LTYPE
  2
DOT
 70
    64
  3
-   -   -   -   -   -   -   -   
 72
    65
 73
     2
 40
2.5
 49
0.625
 49
-1.875
  0
LTYPE
  2
DUMMY
 70
    64
  3
ダミー
 72
    65
 73
     0
 40
0.0
  0
LTYPE
  2
RAND1
 70
    64
  3
ランダム線1
 72
    65
 73
     4
 40
10.0
 49
1.0
 49
-2.0
 49
3.0
 49
-4.0
  0
LTYPE
  2
RAND2
 70
    64
  3
ランダム線2
 72
    65
 73
     4
 40
14.0
 49
2.0
 49
-3.0
 49
4.0
 49
-5.0
  0
LTYPE
  2
RAND3
 70
    64
  3
ランダム線3
 72
    65
 73
     4
 40
18.0
 49
3.0
 49
-4.0
 49
5.0
 49
-6.0
  0
LTYPE
  2
RAND4
 70
    64
  3
ランダム線4
 72
    65
 73
     4
 40
22.0
 49
4.0
 49
-5.0
 49
6.0
 49
-7.0
  0
LTYPE
  2
RAND5
 70
    64
  3
ランダム線5
 72
    65
 73
     4
 40
26.0
 49
5.0
 49
-6.0
 49
7.0
 49
-8.0
  0
LTYPE
  2
LONG1
 70
    64
  3
----------  --  ----------  --  
 72
    65
 73
     4
 40
40.0
 49
32.5
 49
-2.5
 49
2.5
 49
-2.5
  0
LTYPE
  2
LONG2
 70
    64
  3
--------  -  -  --------  -  -  
 72
    65
 73
     6
 40
40.0
 49
30.0
 49
-2.5
 49
1.25
 49
-2.5
 49
1.25
 49
-2.5
  0
LTYPE
  2
LONG3
 70
    64
  3
+++++++++++++++..+++++++++++++++
 72
    65
 73
     2
 40
40.0
 49
37.5
 49
-2.5
  0
LTYPE
  2
LONG4
 70
    64
  3
+++++++++++++++..+++++++++++++++
 72
    65
 73
     2
 40
80.0
 49
75.0
 49
-5.0
  0
LTYPE
  2
LONG5
 70
    64
  3
----------  --  ----------  --  
 72
    65
 73
     4
 40
60.0
 49
37.5
 49
-7.5
 49
7.5
 49
-7.5
  0
LTYPE
  2
dashed
 70
   64
  3
-------   -------------   ------
 72
   65
 73
    2
 40
7.5
 49
6
 49
-1.5
  0
LTYPE
  2
dashed_spaced
 70
   64
  3
----        --------        ----
 72
   65
 73
    2
 40
12
 49
6
 49
-6
  0
LTYPE
  2
long_dashed_dotted
 70
   64
  3
------------- --- --------------
 72
   65
 73
    4
 40
15.25
 49
12
 49
-1.5
 49
0.25
 49
-1.5
  0
LTYPE
  2
long_dashed_double-dotted
 70
   64
  3
----------- --- --- ------------
 72
   65
 73
    6
 40
17
 49
12
 49
-1.5
 49
0.25
 49
-1.5
 49
0.25
 49
-1.5
  0
LTYPE
  2
long_dashed_triplicate-dotted
 70
   64
  3
--------- --- --- --- ----------
 72
   65
 73
    8
 40
18.75
 49
12
 49
-1.5
 49
0.25
 49
-1.5
 49
0.25
 49
-1.5
 49
0.25
 49
-1.5
  0
LTYPE
  2
dotted
 70
   64
  3
   -       -       -       -    
 72
   65
 73
    2
 40
1.75
 49
0.25
 49
-1.5
  0
LTYPE
  2
chain
 70
   64
  3
-------------- -- --------------
 72
   65
 73
    4
 40
18.5
 49
12
 49
-1.5
 49
3.5
 49
-1.5
  0
LTYPE
  2
chain_double_dash
 70
   64
  3
------------ -- -- -------------
 72
   65
 73
    6
 40
23.5
 49
12
 49
-1.5
 49
3.5
 49
-1.5
 49
3.5
 49
-1.5
  0
LTYPE
  2
dashed_dotted
 70
   64
  3
-----------     -     ----------
 72
   65
 73
    4
 40
9.25
 49
6
 49
-1.5
 49
0.25
 49
-1.5
  0
LTYPE
  2
double-dashed_dotted
 70
   64
  3
------   -----------   -   -----
 72
   65
 73
    6
 40
16.75
 49
6
 49
-1.5
 49
6
 49
-1.5
 49
0.25
 49
-1.5
  0
LTYPE
  2
dashed_double-dotted
 70
   64
  3
---------    -    -    ---------
 72
   65
 73
    6
 40
11
 49
6
 49
-1.5
 49
0.25
 49
-1.5
 49
0.25
 49
-1.5
  0
LTYPE
  2
double-dashed_double-dotted
 70
   64
  3
-----   ---------   -   -   ----
 72
   65
 73
    8
 40
18.5
 49
6
 49
-1.5
 49
6
 49
-1.5
 49
0.25
 49
-1.5
 49
0.25
 49
-1.5
  0
LTYPE
  2
dashed_triplicate-dotted
 70
   64
  3
-------    -    -    -    ------
 72
   65
 73
    8
 40
12.75
 49
6
 49
-1.5
 49
0.25
 49
-1.5
 49
0.25
 49
-1.5
 49
0.25
 49
-1.5
  0
LTYPE
  2
double-dashed_triplicate-dotted
 70
   64
  3
-----  ---------  -  -  -  -----
 72
   65
 73
   10
 40
20.25
 49
6
 49
-1.5
 49
6
 49
-1.5
 49
0.25
 49
-1.5
 49
0.25
 49
-1.5
 49
0.25
 49
-1.5
  0
LTYPE
  2
undefined
 70
   64
  3
--------------------------------
 72
   65
 73
    0
 40
0
  0
LTYPE
  2
_
 70
   64
  3
                                
 72
   65
 73
    0
 40
0
  0
LTYPE
  2
__18
 70
   64
  3
                                
 72
   65
 73
    0
 40
0
  0
LTYPE
  2
__19
 70
   64
  3
                                
 72
   65
 73
    0
 40
0
  0
LTYPE
  2
__20
 70
   64
  3
                                
 72
   65
 73
    0
 40
0
  0
LTYPE
  2
__21
 70
   64
  3
                                
 72
   65
 73
    0
 40
0
  0
LTYPE
  2
__22
 70
   64
  3
                                
 72
   65
 73
    0
 40
0
  0
LTYPE
  2
__23
 70
   64
  3
                                
 72
   65
 73
    0
 40
0
  0
LTYPE
  2
__24
 70
   64
  3
                                
 72
   65
 73
    0
 40
0
  0
LTYPE
  2
__25
 70
   64
  3
                                
 72
   65
 73
    0
 40
0
  0
LTYPE
  2
__26
 70
   64
  3
                                
 72
   65
 73
    0
 40
0
  0
LTYPE
  2
__27
 70
   64
  3
                                
 72
   65
 73
    0
 40
0
  0
LTYPE
  2
__28
 70
   64
  3
                                
 72
   65
 73
    0
 40
0
  0
LTYPE
  2
__29
 70
   64
  3
                                
 72
   65
 73
    0
 40
0
  0
LTYPE
  2
__30
 70
   64
  3
                                
 72
   65
 73
    0
 40
0
  0
LTYPE
  2
__31
 70
   64
  3
                                
 72
   65
 73
    0
 40
0
  0
LTYPE
  2
__32
 70
   64
  3
                                
 72
   65
 73
    0
 40
0
  0
ENDTAB
  0
TABLE
  2
STYLE
  5
3
100
AcDbSymbolTable
 70
     1
  0
STYLE
  5
10
100
AcDbSymbolTableRecord
100
AcDbTextStyleTableRecord
  2
STANDARD
 70
     0
 40
0.0
 41
1.0
 50
0.0
 71
     0
 42
0.2
  3
txt
  4
bigfont.shx
  0
STYLE
  5
26
100
AcDbSymbolTableRecord
100
AcDbTextStyleTableRecord
  2
TATEGAKI
 70
    68
 40
0.0
 41
1.0
 50
0.0
 71
     0
 42
1.0
  3
txt
  4
bigfont.shx
  0
ENDTAB
  0
TABLE
  2
LAYER
 70
    2
  0
LAYER
  2
_0-0_
 70
   64
 62
    7
  6
CONTINUOUS
  0
LAYER
  2
ADD_LINE
 70
   64
 62
    7
  6
CONTINUOUS
  0
ENDTAB
  0
ENDSEC
  0
SECTION
  2
BLOCKS
  0
BLOCK
  2
-000-4
 70
   64
 10
0
 20
0
 30
0
  0
ARC
  8
_0-0_
  6
CONTINUOUS
 62
    7
 10
-2.0338089033145792
 20
-45.41512114453937
 40
43.315453094518773
 50
88.020615734530111
 51
104.61335562575456
  0
ARC
  8
_0-0_
  6
CONTINUOUS
 62
    7
 10
-11.135029838391176
 20
-11.406766133824505
 40
8.1142298319545123
 50
103.01263496161549
 51
135.3225917975401
  0
ARC
  8
_0-0_
  6
CONTINUOUS
 62
    7
 10
-15.657094775713745
 20
-7.0557634837115302
 40
1.8414341292198475
 50
132.65721217248966
 51
236.4183328433239
  0
ARC
  8
_0-0_
  6
CONTINUOUS
 62
    7
 10
-10.322954271071481
 20
-1.1432074331557303
 40
9.7882180051080887
 50
229.53274897309652
 51
256.30014929816605
  0
ARC
  8
_0-0_
  6
CONTINUOUS
 62
    7
 10
-0.9322633215062978
 20
24.833803371482126
 40
37.368537868905534
 50
251.73964121774202
 51
270.60498434011174
  0
ARC
  8
_0-0_
  6
CONTINUOUS
 62
    7
 10
0.977007928612366
 20
24.795597545431143
 40
37.358968129457573
 50
267.67632716077014
 51
282.6145891751076
  0
ARC
  8
_0-0_
  6
CONTINUOUS
 62
    7
 10
6.4540293699342612
 20
5.56658739318393
 40
17.435647458950122
 50
278.84809047804322
 51
301.63928581278503
  0
ARC
  8
_0-0_
  6
CONTINUOUS
 62
    7
 10
14.024654474754399
 20
-6.0799758403955053
 40
3.564687195532704
 50
296.2315044882742
 51
340.66326921545556
  0
ARC
  8
_0-0_
  6
CONTINUOUS
 62
    7
 10
15.171466399940996
 20
-6.9695763551350183
 40
2.2357713227737563
 50
352.52817993386265
 51
58.676195169021206
  0
ARC
  8
_0-0_
  6
CONTINUOUS
 62
    7
 10
8.4840377955108437
 20
-14.668496651826771
 40
12.407570909572833
 50
50.753506739295894
 51
82.94956729009084
  0
ARC
  8
_0-0_
  6
CONTINUOUS
 62
    7
 10
0.1592563505291195
 20
-37.385049067152124
 40
35.266422993202376
 50
78.238525313038068
 51
91.132383347072476
  0
ARC
  8
_0-0_
  6
CONTINUOUS
 62
    7
 10
4.4857605431929102
 20
-27.897752302931416
 40
25.201747302270405
 50
64.986704711961053
 51
83.478930203087643
  0
ARC
  8
_0-0_
  6
CONTINUOUS
 62
    7
 10
-0.4434575653853016
 20
-47.350462018795263
 40
43.53274592423309
 50
90.787809224519279
 51
103.46222347328431
  0
ARC
  8
_0-0_
  6
CONTINUOUS
 62
    7
 10
-8.2221768569607292
 20
-15.431159082318437
 40
10.680392293626703
 50
102.74313505388622
 51
128.93037339411674
  0
ARC
  8
_0-0_
  6
CONTINUOUS
 62
    7
 10
-13.65063023889023
 20
-8.0502599905475591
 40
1.5830095470747378
 50
144.13335254230199
 51
228.2735432610813
  0
ARC
  8
_0-0_
  6
CONTINUOUS
 62
    7
 10
-10.592317011351867
 20
-5.53450373126703
 40
5.5296702315153166
 50
221.96004757512057
 51
255.25941621650367
  0
ARC
  8
_0-0_
  6
CONTINUOUS
 62
    7
 10
0.2543418596167583
 20
-52.306280541250814
 40
48.501776829018581
 50
80.218889362177109
 51
91.531577425538245
  0
ARC
  8
_0-0_
  6
CONTINUOUS
 62
    7
 10
5.8147288912087589
 20
-20.435765508165105
 40
16.150040464837634
 50
61.434209889410752
 51
80.450381090332414
  0
ARC
  8
_0-0_
  6
CONTINUOUS
 62
    7
 10
12.38146710070906
 20
-8.7137039443482536
 40
2.719764284193626
 50
3.5771167942508777
 51
64.854287470623632
  0
ARC
  8
_0-0_
  6
CONTINUOUS
 62
    7
 10
10.844700238045661
 20
-6.1694135767103262
 40
4.8694657619098862
 50
284.57477557645694
 51
330.81370535692173
  0
ARC
  8
_0-0_
  6
CONTINUOUS
 62
    7
 10
-1.1510669910126694
 20
-28.675454490941796
 40
24.776193005365204
 50
93.991882045522743
 51
112.82313482860366
  0
ARC
  8
_0-0_
  6
CONTINUOUS
 62
    7
 10
-10.19567227840713
 20
-7.7945791644377351
 40
2.0357076072640918
 50
106.13649702250324
 51
183.02939242456188
  0
ARC
  8
_0-0_
  6
CONTINUOUS
 62
    7
 10
-8.8455211447197257
 20
-6.0030231196845278
 40
3.8796281601936915
 50
209.3087670411517
 51
266.07656404908397
  0
ARC
  8
_0-0_
  6
CONTINUOUS
 62
    7
 10
0.3700246539205949
 20
28.037416086318494
 40
39.078529168383028
 50
255.95912052636174
 51
271.89596665922289
  0
ARC
  8
_0-0_
  6
CONTINUOUS
 62
    7
 10
1.4719040736162725
 20
15.110194195617147
 40
26.130611892274501
 50
270.41886216109418
 51
289.59709744178849
  0
ARC
  8
_0-0_
  6
CONTINUOUS
 62
    7
 10
8.5857405865572503
 20
-5.9766129975943443
 40
3.8969458878625893
 50
295.05761541830395
 51
331.92751306414652
  0
ARC
  8
_0-0_
  6
CONTINUOUS
 62
    7
 10
10.23723178849032
 20
-7.5582071951742122
 40
1.8047081157337082
 50
351.96486506997456
 51
72.285131810800777
  0
ARC
  8
_0-0_
  6
CONTINUOUS
 62
    7
 10
-0.7762669011782747
 20
-36.081372015146655
 40
32.377324643723348
 50
69.076483303149743
 51
83.478922430583253
  0
ARC
  8
_0-0_
  6
CONTINUOUS
 62
    7
 10
-2.329753172005411
 20
9.3308481487727661
 40
18.015331289045925
 50
239.58883833107353
 51
271.0335881222897
  0
ARC
  8
_0-0_
  6
CONTINUOUS
 62
    7
 10
0.3235655991864518
 20
23.24033181330234
 40
32.006684727637762
 50
265.82829373403843
 51
285.64036211530697
  0
ARC
  8
_0-0_
  6
CONTINUOUS
 62
    7
 10
8.1480164125986647
 20
-3.5216462463893521
 40
4.1385379630210206
 50
281.20916408508464
 51
320.39372786718883
  0
ARC
  8
_0-0_
  6
CONTINUOUS
 62
    7
 10
-3.8492371201489561
 20
-57.782303482754017
 40
59.611714139845482
 50
88.844038884984087
 51
108.23043322238132
  0
ARC
  8
_0-0_
  6
CONTINUOUS
 62
    7
 10
-19.605992893866841
 20
-11.966549998373218
 40
11.184221814492885
 50
104.98648236852452
 51
145.93275402179017
  0
ARC
  8
_0-0_
  6
CONTINUOUS
 62
    7
 10
-25.256234922968247
 20
-5.4275289324435647
 40
3.6249222220869752
 50
184.33508597451137
 51
243.85486993501945
  0
ARC
  8
_0-0_
  6
CONTINUOUS
 62
    7
 10
25.897907440299022
 20
-6.2438035057412549
 40
2.5989514025891514
 50
297.74198421857602
 51
29.399412878357204
  0
ARC
  8
_0-0_
  6
CONTINUOUS
 62
    7
 10
21.392197197724116
 20
-9.9355263789783947
 40
8.3969539658998134
 50
36.269757223692316
 51
76.850504364743173
  0
ARC
  8
_0-0_
  6
CONTINUOUS
 62
    7
 10
6.2743085484332113
 20
-48.602126006777716
 40
49.842350903118572
 50
70.023185533974285
 51
87.07813848902569
  0
ARC
  8
_0-0_
  6
CONTINUOUS
 62
    7
 10
-3.4956317835004711
 20
-116.00010519234662
 40
117.82044289862235
 50
84.002437714777699
 51
89.587130423195347
  0
ARC
  8
_0-0_
  6
CONTINUOUS
 62
    7
 10
-22.339755122468532
 20
-12.461797812047777
 40
11.000445312610591
 50
98.255972963432598
 51
140.24167970966133
  0
ARC
  8
_0-0_
  6
CONTINUOUS
 62
    7
 10
-27.533599044669401
 20
-7.0463628491645167
 40
3.6427395546528398
 50
153.59619355533866
 51
250.00662541736475
  0
ARC
  8
_0-0_
  6
CONTINUOUS
 62
    7
 10
-17.197777859737684
 20
5.4739554532987356
 40
19.705903506704768
 50
234.00547626172713
 51
259.59734271097653
  0
ARC
  8
_0-0_
  6
CONTINUOUS
 62
    7
 10
1.0019684144255763
 20
89.541587992501775
 40
105.71298044944558
 50
258.12244354690552
 51
275.43547602209344
  0
ARC
  8
_0-0_
  6
CONTINUOUS
 62
    7
 10
5.2134140598354577
 20
39.201232423025708
 40
55.203056845169939
 50
276.03328874661287
 51
296.30323782770745
  0
ARC
  8
_0-0_
  6
CONTINUOUS
 62
    7
 10
27.563554471204966
 20
-7.1173900714522063
 40
3.8078617593279276
 50
303.67774725584417
 51
359.91899630676693
  0
ARC
  8
_0-0_
  6
CONTINUOUS
 62
    7
 10
27.126921078447808
 20
-7.8696265598198067
 40
4.3096979250266623
 50
9.9795056066312071
 51
62.379735289326518
  0
ARC
  8
_0-0_
  6
CONTINUOUS
 62
    7
 10
15.901957843550363
 20
-24.938951513413684
 40
24.721469874233037
 50
57.664335806887756
 51
82.496118259505025
  0
ARC
  8
_0-0_
  6
CONTINUOUS
 62
    7
 10
-22.19805115196371
 20
2.8686600051691116
 40
15.673735731080548
 50
225.28290971962468
 51
258.4338878158519
  0
ARC
  8
_0-0_
  6
CONTINUOUS
 62
    7
 10
-30.462312158712834
 20
-5.8521727087383439
 40
3.6714836432476168
 50
113.77568941342352
 51
221.16669516827352
  0
ARC
  8
_0-0_
  6
CONTINUOUS
 62
    7
 10
-10.016879458160659
 20
-43.230658726389876
 40
46.263892944232694
 50
94.788645807561892
 51
118.28938236595151
  0
ARC
  8
_0-0_
  6
CONTINUOUS
 62
    7
 10
-1.3785028304821054
 20
-111.54063446624451
 40
115.09324699017526
 50
81.770420529766312
 51
96.235307495564172
  0
ARC
  8
_0-0_
  6
CONTINUOUS
 62
    7
 10
12.033515446009645
 20
-35.857947992426134
 40
38.347860017893666
 50
63.532232123717279
 51
85.41954588277423
  0
ARC
  8
_0-0_
  6
CONTINUOUS
 62
    7
 10
25.379204861008233
 20
-10.583720251853229
 40
9.7984303476808829
 50
26.838195503295722
 51
67.525087303807297
  0
ARC
  8
_0-0_
  6
CONTINUOUS
 62
    7
 10
30.34954582949787
 20
-6.477073672706581
 40
3.7859528678521714
 50
299.2015346697591
 51
4.8041706077556983
  0
ARC
  8
_0-0_
  6
CONTINUOUS
 62
    7
 10
12.398149553042813
 20
22.803539188240613
 40
38.128587381277192
 50
272.67706178318656
 51
301.28235990598574
  0
ARC
  8
_0-0_
  6
CONTINUOUS
 62
    7
 10
-25.769306666026509
 20
-5.9174588051790451
 40
9.2773717642606748
 50
114.10637701727335
 51
150.80401422310038
  0
ARC
  8
_0-0_
  6
CONTINUOUS
 62
    7
 10
-8.2130594344918535
 20
-44.049423612129338
 40
51.256316115054318
 50
93.876589481301693
 51
114.61033166579399
  0
ARC
  8
_0-0_
  6
CONTINUOUS
 62
    7
 10
-0.3700421334878427
 20
-104.61906825199901
 40
112.27960142308528
 50
83.991790091352911
 51
95.78039398806078
  0
ARC
  8
_0-0_
  6
CONTINUOUS
 62
    7
 10
6.8998944755649205
 20
-47.346262972804666
 40
54.574429851347027
 50
67.955903069237095
 51
85.2886963500371
  0
ARC
  8
_0-0_
  6
CONTINUOUS
 62
    7
 10
22.632680523156651
 20
-10.636438600109365
 40
14.665531087343309
 50
49.060229000863259
 51
71.101353622022074
  0
ARC
  8
_0-0_
  6
CONTINUOUS
 62
    7
 10
28.493507467172023
 20
-3.9770838107475441
 40
5.7950149742235704
 50
22.507335519267329
 51
49.689232414949053
  0
LINE
  8
_0-0_
  6
CONTINUOUS
 62
    7
 10
-33.868046380037967
 20
-1.3919707765798321
 11
-34.143124913298848
 21
-5.7932273087538704
  0
LINE
  8
_0-0_
  6
CONTINUOUS
 62
    7
 10
33.847119224347907
 20
-1.7587421542610002
 11
34.122197757608788
 21
-6.1599986864350385
  0
LINE
  8
_0-0_
  6
CONTINUOUS
 62
    7
 10
-33.317889313516204
 20
-6.9393878640075215
 11
-31.621571691740812
 21
-7.5353913527394241
  0
LINE
  8
_0-0_
  6
CONTINUOUS
 62
    7
 10
-33.317889313516204
 20
-5.9307665753843111
 11
-31.804957380581385
 21
-6.5267700641162065
  0
LINE
  8
_0-0_
  6
CONTINUOUS
 62
    7
 10
-27.816318648298662
 20
-1.0251993988986712
 11
-26.532618826414577
 21
-2.0338206875218887
  0
LINE
  8
_0-0_
  6
CONTINUOUS
 62
    7
 10
-25.982461759892828
 20
-0.3833494879566288
 11
-24.652915515798583
 21
-1.483663621000133
  0
LINE
  8
_0-0_
  6
CONTINUOUS
 62
    7
 10
-9.3402104976097746
 20
2.9634393333840379
 11
-9.0651319643488932
 21
2.0006644669709743
  0
LINE
  8
_0-0_
  6
CONTINUOUS
 62
    7
 10
-5.9934216762691079
 20
3.1468250222246255
 11
-5.9017288318488141
 21
2.138203733601415
  0
LINE
  8
_0-0_
  6
CONTINUOUS
 62
    7
 10
13.858079140724172
 20
2.2757430002318486
 11
13.262075651992276
 21
1.1295824449781975
  0
LINE
  8
_0-0_
  6
CONTINUOUS
 62
    7
 10
16.746403739963384
 20
1.7714323559202469
 11
16.104553829021356
 21
0.6252718006665887
  0
LINE
  8
_0-0_
  6
CONTINUOUS
 62
    7
 10
30.087712603115918
 20
-2.4464384874132037
 11
28.666473514601378
 21
-3.3633669316161274
  0
LINE
  8
_0-0_
  6
CONTINUOUS
 62
    7
 10
31.188026736159415
 20
-3.2258276649856867
 11
29.812634069855037
 21
-4.1886025313987574
  0
LINE
  8
_0-0_
  6
CONTINUOUS
 62
    7
 10
32.792651513514542
 20
-8.4064733747322009
 11
31.233873158369576
 21
-8.9566304412539566
  0
LINE
  8
_0-0_
  6
CONTINUOUS
 62
    7
 10
31.921569491521765
 20
-9.6443267744061458
 11
30.821255358478268
 21
-9.7360196188264396
  0
LINE
  8
_0-0_
  6
CONTINUOUS
 62
    7
 10
-12.320227941269266
 20
-6.0683058420147447
 11
-13.374695652102631
 21
-6.343384375275626
  0
LINE
  8
_0-0_
  6
CONTINUOUS
 62
    7
 10
-13.099617118841749
 20
-7.6270841971597179
 11
-14.750088318407023
 21
-8.2230876858916204
  0
LINE
  8
_0-0_
  6
CONTINUOUS
 62
    7
 10
-12.732845741160588
 20
-8.5440126413626416
 11
-14.016545563044687
 21
-9.1400161300945442
  0
LINE
  8
_0-0_
  6
CONTINUOUS
 62
    7
 10
-10.440524630653286
 20
-9.9194053076670272
 11
-11.357453074856195
 21
-10.652948063029363
  0
LINE
  8
_0-0_
  6
CONTINUOUS
 62
    7
 10
-8.5149748978271447
 20
-10.377869529768489
 11
-9.156824808769187
 21
-11.340644396181553
  0
LINE
  8
_0-0_
  6
CONTINUOUS
 62
    7
 10
-4.2971040544937011
 20
-11.294797973971406
 11
-4.4804897433342745
 21
-12.028340729333749
  0
LINE
  8
_0-0_
  6
CONTINUOUS
 62
    7
 10
-1.4546258774646361
 20
-11.478183662811993
 11
-1.500472299674783
 21
-12.120033573754043
  0
LINE
  8
_0-0_
  6
CONTINUOUS
 62
    7
 10
3.405094876810864
 20
-11.3864908183917
 11
4.0010983655427594
 21
-12.120033573754043
  0
LINE
  8
_0-0_
  6
CONTINUOUS
 62
    7
 10
6.2017266316297679
 20
-10.928026596290238
 11
6.7977301203616776
 21
-11.615722929442434
  0
LINE
  8
_0-0_
  6
CONTINUOUS
 62
    7
 10
10.144518941702344
 20
-10.102790996507608
 11
11.382372341376296
 21
-10.790487329659804
  0
LINE
  8
_0-0_
  6
CONTINUOUS
 62
    7
 10
11.886682985687898
 20
-9.2775553967249778
 11
12.941150696521262
 21
-10.011098152087314
  0
LINE
  8
_0-0_
  6
CONTINUOUS
 62
    7
 10
13.032843540941556
 20
-7.7646234637901586
 11
14.316543362825641
 21
-8.4523197969423478
  0
LINE
  8
_0-0_
  6
CONTINUOUS
 62
    7
 10
13.12453638536185
 20
-6.9852342862176684
 11
13.995618407354627
 21
-7.2144663972684029
  0
LINE
  8
_0-0_
  6
CONTINUOUS
 62
    7
 10
11.198986652535709
 20
-5.563995197703143
 11
11.47406518579659
 21
-5.563995197703143
  0
ARC
  8
_0-0_
  6
CONTINUOUS
 62
    7
 10
15.1144415519788
 20
-41.301700759335652
 40
61.838571450678451
 50
115.39282570170873
 51
133.55491366599924
  0
ARC
  8
_0-0_
  6
CONTINUOUS
 62
    7
 10
0.7154909682378018
 20
-9.9452781675204918
 40
27.340453504679257
 50
116.31174284585187
 51
145.98952445844449
  0
ARC
  8
_0-0_
  6
CONTINUOUS
 62
    7
 10
3.4103848486054602
 20
-8.214271066238787
 40
27.170395240977239
 50
112.42908089877484
 51
123.03930011119536
  0
ARC
  8
_0-0_
  6
CONTINUOUS
 62
    7
 10
8.4896772445634241
 20
-2.56367294794385
 40
23.71430335875603
 50
125.02965160208414
 51
156.10054606773915
  0
ARC
  8
_0-0_
  6
CONTINUOUS
 62
    7
 10
-41.799686766784689
 20
6.4911017108417965
 40
44.256915986276802
 50
1.4872588169877485
 51
13.665050974390295
  0
ARC
  8
_0-0_
  6
CONTINUOUS
 62
    7
 10
-5.935809465769097
 20
-0.2127881433332277
 40
20.416423968004079
 50
20.270044962162491
 51
57.427968274207906
  0
ARC
  8
_0-0_
  6
CONTINUOUS
 62
    7
 10
-6.936379571499188
 20
-20.352068885815058
 40
39.853599083553185
 50
38.366570429017571
 51
69.560659592520835
  0
ARC
  8
_0-0_
  6
CONTINUOUS
 62
    7
 10
-3.7923715105911384
 20
-24.309486237175797
 40
41.56442706690666
 50
41.596567488283419
 51
62.188278756686856
  0
ARC
  8
_0-0_
  6
CONTINUOUS
 62
    7
 10
0.0533838935764379
 20
-0.2774526906433223
 40
17.943823999693688
 50
73.202560996238617
 51
104.63559063043995
  0
LINE
  8
_0-0_
  6
CONTINUOUS
 62
    7
 10
-6.9561965426821786
 20
16.900751685268482
 11
-2.6007864327182943
 21
16.900751685268482
  0
LINE
  8
_0-0_
  6
CONTINUOUS
 62
    7
 10
-4.4804897433342887
 20
17.084137374109069
 11
-5.1223396542763311
 21
16.854905263058335
  0
LINE
  8
_0-0_
  6
CONTINUOUS
 62
    7
 10
-2.6007864327182943
 20
16.900751685268482
 11
1.2044666107238271
 21
16.946598107478628
  0
LINE
  8
_0-0_
  6
CONTINUOUS
 62
    7
 10
1.2044666107238271
 20
16.946598107478628
 11
5.2389517652166973
 21
16.900751685268482
  0
LINE
  8
_0-0_
  6
CONTINUOUS
 62
    7
 10
5.0555660763761097
 20
16.992444529688775
 11
8.7691262753979515
 21
16.029669663275705
  0
LINE
  8
_0-0_
  6
CONTINUOUS
 62
    7
 10
9.0442048086588329
 20
15.983823241065558
 11
9.0900512308689798
 21
13.599809286137962
  0
LINE
  8
_0-0_
  6
CONTINUOUS
 62
    7
 10
5.2389517652166973
 20
16.900751685268482
 11
8.1731227866660561
 21
16.992444529688775
  0
LINE
  8
_0-0_
  6
CONTINUOUS
 62
    7
 10
8.1731227866660561
 20
16.992444529688775
 11
9.823593986231316
 21
15.80043755222497
  0
LINE
  8
_0-0_
  6
CONTINUOUS
 62
    7
 10
2.0733585170059285
 20
16.741213923055263
 11
2.1195942931202012
 21
13.042351833913962
  0
LINE
  8
_0-0_
  6
CONTINUOUS
 62
    7
 10
2.1427121811773304
 20
16.741213923055263
 11
3.8996716735194497
 21
16.671860258883861
  0
LINE
  8
_0-0_
  6
CONTINUOUS
 62
    7
 10
3.8996716735194497
 20
16.671860258883861
 11
4.0383790018622534
 21
7.6790018046590731
  0
LINE
  8
_0-0_
  6
CONTINUOUS
 62
    7
 10
-4.4690038031627495
 20
16.856803363340923
 11
-4.4921216912198787
 21
7.6558839166019297
  0
LINE
  8
_0-0_
  6
CONTINUOUS
 62
    7
 10
-3.7754671614487592
 20
16.833685475283794
 11
-3.7985850495058884
 21
16.440681378312526
  0
LINE
  8
_0-0_
  6
CONTINUOUS
 62
    7
 10
-3.7985850495058884
 20
16.440681378312526
 11
0.3163990246638093
 21
16.5562708185982
  0
LINE
  8
_0-0_
  6
CONTINUOUS
 62
    7
 10
0.3857526888352111
 20
16.926157027512325
 11
0.5938136813494168
 21
7.7483554688304608
  0
LINE
  8
_0-0_
  6
CONTINUOUS
 62
    7
 10
-4.2609428106485439
 20
16.879921251398066
 11
-4.3302964748199457
 21
16.209502497741205
  0
LINE
  8
_0-0_
  6
CONTINUOUS
 62
    7
 10
-4.3302964748199457
 20
16.209502497741205
 11
-3.6829956092202139
 21
15.770262624655665
  0
LINE
  8
_0-0_
  6
CONTINUOUS
 62
    7
 10
-3.6829956092202139
 20
15.770262624655665
 11
-3.9835281539629506
 21
9.1585466403155849
  0
LINE
  8
_0-0_
  6
CONTINUOUS
 62
    7
 10
-3.9835281539629506
 20
9.1585466403155849
 11
0.5013421291208857
 21
8.7655425433443312
  0
LINE
  8
_0-0_
  6
CONTINUOUS
 62
    7
 10
-3.7061134972773573
 20
9.089192976144183
 11
-3.7754671614487592
 21
7.7252375807733316
  0
LINE
  8
_0-0_
  6
CONTINUOUS
 62
    7
 10
-3.7985850495058884
 20
16.440681378312526
 11
-2.7582800869348887
 21
15.053608094884545
  0
LINE
  8
_0-0_
  6
CONTINUOUS
 62
    7
 10
-2.7582800869348887
 20
15.053608094884545
 11
-0.9319669304213817
 21
14.984254430713143
  0
LINE
  8
_0-0_
  6
CONTINUOUS
 62
    7
 10
-0.9319669304213817
 20
14.984254430713143
 11
0.3395169127209527
 21
15.562201632141473
  0
LINE
  8
_0-0_
  6
CONTINUOUS
 62
    7
 10
-3.6829956092202139
 20
15.770262624655665
 11
-3.3593451764203621
 21
15.908969952998469
  0
LINE
  8
_0-0_
  6
CONTINUOUS
 62
    7
 10
-20.042999803809167
 20
5.3553841008103618
 11
-20.230887862158866
 21
2.4744338727817308
  0
LINE
  8
_0-0_
  6
CONTINUOUS
 62
    7
 10
-30.314213660259085
 20
1.4723642282500293
 11
-30.408157689433935
 21
-1.0954392358624503
  0
LINE
  8
_0-0_
  6
CONTINUOUS
 62
    7
 10
-2.1310049078050497
 20
7.265579360698915
 11
-2.2875782897631183
 21
4.1341117215373586
  0
LINE
  8
_0-0_
  6
CONTINUOUS
 62
    7
 10
-30.893535173503963
 20
1.2218468171171111
 11
-30.987479202678813
 21
-1.3459566469953685
  0
LINE
  8
_0-0_
  6
CONTINUOUS
 62
    7
 10
-31.300625966594978
 20
0.7521266712428769
 11
-31.394569995769828
 21
-1.8156767928696027
  0
LINE
  8
_0-0_
  6
CONTINUOUS
 62
    7
 10
-31.801660788860815
 20
0.5016092601099515
 11
-31.895604818035665
 21
-2.0661942040025281
  0
LINE
  8
_0-0_
  6
CONTINUOUS
 62
    7
 10
-32.396639640301515
 20
0.0318891142357173
 11
-32.490583669476365
 21
-2.5359143498767622
  0
LINE
  8
_0-0_
  6
CONTINUOUS
 62
    7
 10
-32.7724157570009
 20
-0.1246842677223583
 11
-32.866359786175749
 21
-2.6924877318348379
  0
LINE
  8
_0-0_
  6
CONTINUOUS
 62
    7
 10
-32.114807552776981
 20
0.3763505545434924
 11
-32.20875158195183
 21
-2.1914529095689872
  0
LINE
  8
_0-0_
  6
CONTINUOUS
 62
    7
 10
-33.273450579266765
 20
-0.7509777955546752
 11
-33.367394608441614
 21
-3.3187812596671549
  0
LINE
  8
_0-0_
  6
CONTINUOUS
 62
    7
 10
-33.649226695966149
 20
-1.3772713233869851
 11
-33.743170725140999
 21
-3.9450747874994647
  0
LINE
  8
_0-0_
  6
CONTINUOUS
 62
    7
 10
-29.985409558147111
 20
1.7541963157745784
 11
-30.079353587321961
 21
-0.8136071483379012
  0
LINE
  8
_0-0_
  6
CONTINUOUS
 62
    7
 10
-29.484374735881275
 20
2.0986577560823463
 11
-29.578318765056125
 21
-0.4691457080301333
  0
LINE
  8
_0-0_
  6
CONTINUOUS
 62
    7
 10
-29.171227971965109
 20
2.2239164616488125
 11
-29.265172001139959
 21
-0.3438870024636671
  0
LINE
  8
_0-0_
  6
CONTINUOUS
 62
    7
 10
-28.670193149699273
 20
2.3491751672152716
 11
-28.764137178874122
 21
-0.2186282968972079
  0
LINE
  8
_0-0_
  6
CONTINUOUS
 62
    7
 10
-28.137843651041791
 20
2.7562659603062727
 11
-28.231787680216641
 21
0.188462496193793
  0
LINE
  8
_0-0_
  6
CONTINUOUS
 62
    7
 10
-27.636808828775955
 20
3.0694127242224383
 11
-27.730752857950804
 21
0.5016092601099515
  0
LINE
  8
_0-0_
  6
CONTINUOUS
 62
    7
 10
-27.198403359293323
 20
3.1320420770056714
 11
-27.292347388468173
 21
0.5642386128931846
  0
LINE
  8
_0-0_
  6
CONTINUOUS
 62
    7
 10
-26.634739184244253
 20
3.28861545896374
 11
-26.728683213419103
 21
0.7208119948512603
  0
LINE
  8
_0-0_
  6
CONTINUOUS
 62
    7
 10
-25.97713098002032
 20
3.5078181937050417
 11
-26.07107500919517
 21
0.9400147295925691
  0
LINE
  8
_0-0_
  6
CONTINUOUS
 62
    7
 10
-25.131634717446701
 20
3.8835943104044404
 11
-25.225578746621551
 21
1.3157908462919536
  0
LINE
  8
_0-0_
  6
CONTINUOUS
 62
    7
 10
-24.599285218789234
 20
4.1654263979289894
 11
-24.693229247964084
 21
1.5976229338165027
  0
LINE
  8
_0-0_
  6
CONTINUOUS
 62
    7
 10
-24.098250396523383
 20
4.2906851034954272
 11
-24.192194425698233
 21
1.7228816393829547
  0
LINE
  8
_0-0_
  6
CONTINUOUS
 62
    7
 10
-23.221439457558148
 20
4.3219997798870438
 11
-23.315383486732998
 21
1.7541963157745712
  0
LINE
  8
_0-0_
  6
CONTINUOUS
 62
    7
 10
-22.438572547767762
 20
4.8230346021529087
 11
-22.532516576942612
 21
2.255231138040422
  0
LINE
  8
_0-0_
  6
CONTINUOUS
 62
    7
 10
-21.530446932410911
 20
4.7917199257612921
 11
-21.62439096158576
 21
2.2239164616488054
  0
LINE
  8
_0-0_
  6
CONTINUOUS
 62
    7
 10
-20.93546808097021
 20
4.9169786313277584
 11
-21.02941211014506
 21
2.3491751672152716
  0
LINE
  8
_0-0_
  6
CONTINUOUS
 62
    7
 10
-19.228818217627165
 20
5.6372161883349108
 11
-19.416706275976864
 21
2.7562659603062798
  0
LINE
  8
_0-0_
  6
CONTINUOUS
 62
    7
 10
-18.383321955053532
 20
5.6372161883349108
 11
-18.571210013403231
 21
2.7562659603062798
  0
LINE
  8
_0-0_
  6
CONTINUOUS
 62
    7
 10
-17.56914036887153
 20
5.887733599467829
 11
-17.757028427221229
 21
3.0067833714392052
  0
LINE
  8
_0-0_
  6
CONTINUOUS
 62
    7
 10
-16.848902811864377
 20
5.9816776286426787
 11
-17.036790870214077
 21
3.1007274006140548
  0
LINE
  8
_0-0_
  6
CONTINUOUS
 62
    7
 10
-15.878147843724292
 20
6.1069363342091449
 11
-16.066035902073992
 21
3.2259861061805211
  0
LINE
  8
_0-0_
  6
CONTINUOUS
 62
    7
 10
-14.876078199192591
 20
6.1069363342091449
 11
-15.06396625754229
 21
3.2259861061805211
  0
LINE
  8
_0-0_
  6
CONTINUOUS
 62
    7
 10
-13.936637907444123
 20
6.2948243925588301
 11
-14.124525965793822
 21
3.413874164530192
  0
LINE
  8
_0-0_
  6
CONTINUOUS
 62
    7
 10
-13.028512292087271
 20
6.4200830981252963
 11
-13.21640035043697
 21
3.5391328700966582
  0
LINE
  8
_0-0_
  6
CONTINUOUS
 62
    7
 10
-11.963813294772336
 20
6.5766564800833791
 11
-12.151701353122036
 21
3.695706252054741
  0
LINE
  8
_0-0_
  6
CONTINUOUS
 62
    7
 10
-11.306205090548417
 20
6.6079711564749957
 11
-11.494093148898116
 21
3.7270209284463576
  0
LINE
  8
_0-0_
  6
CONTINUOUS
 62
    7
 10
-10.147562064058633
 20
6.639285832866598
 11
-10.335450122408332
 21
3.7583356048379741
  0
LINE
  8
_0-0_
  6
CONTINUOUS
 62
    7
 10
-9.2707511250933976
 20
6.7645445384330642
 11
-9.458639183443097
 21
3.8835943104044404
  0
LINE
  8
_0-0_
  6
CONTINUOUS
 62
    7
 10
-8.1434227749952441
 20
6.7958592148246808
 11
-8.3313108333449435
 21
3.9149089867960569
  0
LINE
  8
_0-0_
  6
CONTINUOUS
 62
    7
 10
-7.1726678068551593
 20
6.8271738912162974
 11
-7.3605558652048586
 21
3.9462236631876735
  0
LINE
  8
_0-0_
  6
CONTINUOUS
 62
    7
 10
-6.3271715442815264
 20
6.9524325967827636
 11
-6.5150596026312257
 21
4.0714823687541397
  0
LINE
  8
_0-0_
  6
CONTINUOUS
 62
    7
 10
-5.2311578705749895
 20
7.1403206551324629
 11
-5.4190459289246888
 21
4.2593704271038391
  0
LINE
  8
_0-0_
  6
CONTINUOUS
 62
    7
 10
-4.1351441968684384
 20
7.0150619495659967
 11
-4.3230322552181377
 21
4.1341117215373728
  0
LINE
  8
_0-0_
  6
CONTINUOUS
 62
    7
 10
-3.1017598759451204
 20
7.1090059787408464
 11
-3.2896479342948197
 21
4.2280557507122225
  0
LINE
  8
_0-0_
  6
CONTINUOUS
 62
    7
 10
-1.1445926014691707
 20
7.3595233898737504
 11
-1.3011659834272393
 21
4.2280557507121941
  0
LINE
  8
_0-0_
  6
CONTINUOUS
 62
    7
 10
-0.2677816625039355
 20
7.2342646843072842
 11
-0.4243550444620041
 21
4.1027970451457279
  0
LINE
  8
_0-0_
  6
CONTINUOUS
 62
    7
 10
0.7656026584193824
 20
7.2968940370905173
 11
0.6090292764613138
 21
4.165426397928961
  0
LINE
  8
_0-0_
  6
CONTINUOUS
 62
    7
 10
1.8929310085175359
 20
7.2968940370905173
 11
1.7363576265594673
 21
4.165426397928961
  0
LINE
  8
_0-0_
  6
CONTINUOUS
 62
    7
 10
2.8636859766576208
 20
7.390838066265367
 11
2.7071125946995522
 21
4.2593704271038106
  0
LINE
  8
_0-0_
  6
CONTINUOUS
 62
    7
 10
3.8970702975809388
 20
7.2342646843072842
 11
3.7404969156228702
 21
4.1027970451457279
  0
LINE
  8
_0-0_
  6
CONTINUOUS
 62
    7
 10
4.8051959129377906
 20
7.2029500079156676
 11
4.648622530979722
 21
4.0714823687541113
  0
LINE
  8
_0-0_
  6
CONTINUOUS
 62
    7
 10
5.8385802338611086
 20
7.1716353315240511
 11
5.68200685190304
 21
4.0401676923624947
  0
LINE
  8
_0-0_
  6
CONTINUOUS
 62
    7
 10
6.9815659221550845
 20
6.9837472731743659
 11
7.0128805985467011
 21
3.9462236631876593
  0
LINE
  8
_0-0_
  6
CONTINUOUS
 62
    7
 10
21.762093178997659
 20
4.5412025146283597
 11
21.887351884564097
 21
1.8794550213410304
  0
LINE
  8
_0-0_
  6
CONTINUOUS
 62
    7
 10
30.718090626999683
 20
0.4076652309351018
 11
30.780719979782916
 21
-1.7217327636947601
  0
LINE
  8
_0-0_
  6
CONTINUOUS
 62
    7
 10
6.3396150561269593
 20
7.0307192877617908
 11
6.3709297325185759
 21
3.9931956777750841
  0
LINE
  8
_0-0_
  6
CONTINUOUS
 62
    7
 10
7.7487754937496618
 20
6.9054605821953245
 11
7.7800901701412783
 21
3.8679369722086179
  0
LINE
  8
_0-0_
  6
CONTINUOUS
 62
    7
 10
8.5629570799316639
 20
6.6862578474540229
 11
8.5942717563232804
 21
3.6487342374673162
  0
LINE
  8
_0-0_
  6
CONTINUOUS
 62
    7
 10
9.1892506077639666
 20
6.7175725238456394
 11
9.2205652841555832
 21
3.6800489138589327
  0
LINE
  8
_0-0_
  6
CONTINUOUS
 62
    7
 10
10.097376223120833
 20
6.6549431710624063
 11
10.128690899512449
 21
3.6174195610756996
  0
LINE
  8
_0-0_
  6
CONTINUOUS
 62
    7
 10
11.09944586765252
 20
6.5296844654959401
 11
11.130760544044136
 21
3.4921608555092334
  0
LINE
  8
_0-0_
  6
CONTINUOUS
 62
    7
 10
12.007571483009372
 20
6.5609991418875566
 11
12.038886159400988
 21
3.5234755319008499
  0
LINE
  8
_0-0_
  6
CONTINUOUS
 62
    7
 10
12.477291628883606
 20
6.4983697891043235
 11
12.508606305275222
 21
3.4608461791176168
  0
LINE
  8
_0-0_
  6
CONTINUOUS
 62
    7
 10
13.322787891457224
 20
6.3104817307546242
 11
13.354102567848841
 21
3.2729581207679175
  0
LINE
  8
_0-0_
  6
CONTINUOUS
 62
    7
 10
14.293542859597309
 20
6.4044257599294738
 11
14.324857535988926
 21
3.3669021499427672
  0
LINE
  8
_0-0_
  6
CONTINUOUS
 62
    7
 10
14.951151063821257
 20
5.9973349668384728
 11
14.982465740212874
 21
2.9598113568517661
  0
LINE
  8
_0-0_
  6
CONTINUOUS
 62
    7
 10
15.702703297220026
 20
5.9347056140552397
 11
15.734017973611643
 21
2.897182004068533
  0
LINE
  8
_0-0_
  6
CONTINUOUS
 62
    7
 10
16.830031647318165
 20
5.9347056140552397
 11
16.861346323709782
 21
2.897182004068533
  0
LINE
  8
_0-0_
  6
CONTINUOUS
 62
    7
 10
16.328996825052329
 20
5.715502879313938
 11
16.360311501443945
 21
2.6779792693272313
  0
LINE
  8
_0-0_
  6
CONTINUOUS
 62
    7
 10
17.738157262675017
 20
5.5902441737474717
 11
17.769471939066634
 21
2.5527205637607651
  0
LINE
  8
_0-0_
  6
CONTINUOUS
 62
    7
 10
18.489709496073814
 20
5.4023561153977724
 11
18.521024172465431
 21
2.3648325054110657
  0
LINE
  8
_0-0_
  6
CONTINUOUS
 62
    7
 10
19.241261729472583
 20
5.2457827334397038
 11
19.2725764058642
 21
2.2082591234529971
  0
LINE
  8
_0-0_
  6
CONTINUOUS
 62
    7
 10
19.804925904521653
 20
5.1518387042648541
 11
19.83624058091327
 21
2.1143150942781475
  0
LINE
  8
_0-0_
  6
CONTINUOUS
 62
    7
 10
20.493848785137217
 20
4.9326359695235382
 11
20.525163461528834
 21
1.8951123595368315
  0
LINE
  8
_0-0_
  6
CONTINUOUS
 62
    7
 10
21.182771665752753
 20
4.7760625875654696
 11
21.21408634214437
 21
1.738538977578763
  0
LINE
  8
_0-0_
  6
CONTINUOUS
 62
    7
 10
22.388386706829962
 20
4.3063424416912355
 11
22.5136454123964
 21
1.6445949484039062
  0
LINE
  8
_0-0_
  6
CONTINUOUS
 62
    7
 10
23.171253616620376
 20
4.0245103541667007
 11
23.296512322186814
 21
1.3627628608793714
  0
LINE
  8
_0-0_
  6
CONTINUOUS
 62
    7
 10
23.734917791669446
 20
3.8366222958170155
 11
23.860176497235884
 21
1.1748748025296791
  0
LINE
  8
_0-0_
  6
CONTINUOUS
 62
    7
 10
24.235952613935282
 20
3.7113635902505493
 11
24.36121131950172
 21
1.0496160969632129
  0
LINE
  8
_0-0_
  6
CONTINUOUS
 62
    7
 10
24.98750484733408
 20
3.5547902082924665
 11
25.112763552900518
 21
0.8930427150051372
  0
LINE
  8
_0-0_
  6
CONTINUOUS
 62
    7
 10
25.801686433516082
 20
3.3669021499427672
 11
25.92694513908252
 21
0.7051546566554449
  0
LINE
  8
_0-0_
  6
CONTINUOUS
 62
    7
 10
26.271406579390302
 20
3.1163847388098489
 11
26.39666528495674
 21
0.4546372455225196
  0
LINE
  8
_0-0_
  6
CONTINUOUS
 62
    7
 10
25.394595640425067
 20
3.3669021499427672
 11
25.519854345991504
 21
0.7051546566554449
  0
LINE
  8
_0-0_
  6
CONTINUOUS
 62
    7
 10
26.8350707544394
 20
2.8658673276769306
 11
26.960329460005838
 21
0.2041198343895942
  0
LINE
  8
_0-0_
  6
CONTINUOUS
 62
    7
 10
27.336105576705236
 20
2.7092939457188479
 11
27.461364282271674
 21
0.0475464524315185
  0
LINE
  8
_0-0_
  6
CONTINUOUS
 62
    7
 10
27.774511046187868
 20
2.3022031526278397
 11
27.899769751754306
 21
-0.3595443406594895
  0
LINE
  8
_0-0_
  6
CONTINUOUS
 62
    7
 10
28.244231192062088
 20
2.3648325054110728
 11
28.369489897628526
 21
-0.2969149878762564
  0
LINE
  8
_0-0_
  6
CONTINUOUS
 62
    7
 10
28.839210043502774
 20
1.9890563887116883
 11
28.964468749069212
 21
-0.6726911045756409
  0
LINE
  8
_0-0_
  6
CONTINUOUS
 62
    7
 10
29.371559542160256
 20
1.9264270359284552
 11
29.496818247726694
 21
-0.735320457358874
  0
LINE
  8
_0-0_
  6
CONTINUOUS
 62
    7
 10
29.872594364426092
 20
1.5193362428374542
 11
29.99785306999253
 21
-1.1424112504498751
  0
LINE
  8
_0-0_
  6
CONTINUOUS
 62
    7
 10
30.279685157517108
 20
1.2375041553129122
 11
30.404943863083545
 21
-1.424243337974417
  0
LINE
  8
_0-0_
  6
CONTINUOUS
 62
    7
 10
31.156496096482314
 20
0.2197771725854096
 11
31.219125449265547
 21
-1.9096208220444524
  0
LINE
  8
_0-0_
  6
CONTINUOUS
 62
    7
 10
31.626216242356563
 20
-0.1873136205055914
 11
31.688845595139796
 21
-2.3167116151354534
  0
LINE
  8
_0-0_
  6
CONTINUOUS
 62
    7
 10
32.095936388230783
 20
-0.4378310316385167
 11
32.158565741014016
 21
-2.5672290262683788
  0
LINE
  8
_0-0_
  6
CONTINUOUS
 62
    7
 10
32.534341857713386
 20
-0.8449218247295178
 11
32.596971210496619
 21
-2.9743198193593798
  0
LINE
  8
_0-0_
  6
CONTINUOUS
 62
    7
 10
32.910117974412785
 20
-1.314641970603752
 11
32.972747327196018
 21
-3.444039965233614
  0
LINE
  8
_0-0_
  6
CONTINUOUS
 62
    7
 10
33.348523443895417
 20
-1.5651593817366773
 11
33.41115279667865
 21
-3.6945573763665394
  0
LINE
  8
_0-0_
  6
CONTINUOUS
 62
    7
 10
33.69298488420317
 20
-2.2853969387438369
 11
33.755614236986403
 21
-4.4147949333736989
  0
ARC
  8
_0-0_
  6
CONTINUOUS
 62
    7
 10
-2.4047717338612955
 20
13.851924093898809
 40
21.59270553027407
 50
246.41911729326779
 51
272.52770712794347
  0
ARC
  8
_0-0_
  6
CONTINUOUS
 62
    7
 10
0.8082802194001743
 20
38.817399106025185
 40
46.592052180900573
 50
267.21877744281375
 51
278.2051894920761
  0
ARC
  8
_0-0_
  6
CONTINUOUS
 62
    7
 10
5.3811227191716
 20
6.1831075687570305
 40
13.639832016741529
 50
278.75752966743147
 51
295.29688500266445
  0
LINE
  8
_0-0_
  6
CONTINUOUS
 62
    7
 10
-9.3310703090260603
 20
-5.3515050619362583
 11
-9.5421039945657924
 21
-6.5239144260458701
  0
LINE
  8
_0-0_
  6
CONTINUOUS
 62
    7
 10
-5.1103965982314605
 20
-4.2963366342376119
 11
-5.2041893473602272
 21
-7.4149455427691748
  0
LINE
  8
_0-0_
  6
CONTINUOUS
 62
    7
 10
-3.8910908595574654
 20
-4.0618547614156881
 11
-3.9379872341218487
 21
-7.5321864791801332
  0
LINE
  8
_0-0_
  6
CONTINUOUS
 62
    7
 10
-1.8745467532889393
 20
-3.921165637722531
 11
-1.9683395024177059
 21
-7.6494274155910986
  0
LINE
  8
_0-0_
  6
CONTINUOUS
 62
    7
 10
-0.6083446400505607
 20
-3.8039247013115727
 11
-0.7021373891793274
 21
-7.6494274155910986
  0
LINE
  8
_0-0_
  6
CONTINUOUS
 62
    7
 10
4.5268083747495353
 20
-4.2259920723910298
 11
4.5033601874673508
 21
-7.4852901046157498
  0
LINE
  8
_0-0_
  6
CONTINUOUS
 62
    7
 10
-11.400253203070946
 20
-6.8834532977061542
 11
-11.298963414471004
 21
-8.4838319575853021
  0
LINE
  8
_0-0_
  6
CONTINUOUS
 62
    7
 10
-4.1681622970348116
 20
-9.0307968160250098
 11
-4.1681622970348116
 21
-10.529885687304208
  0
LINE
  8
_0-0_
  6
CONTINUOUS
 62
    7
 10
1.2407124142023065
 20
-9.1523445623449433
 11
1.2407124142023065
 21
-10.793239137664067
  0
LINE
  8
_0-0_
  6
CONTINUOUS
 62
    7
 10
6.3254598019195925
 20
-8.5446058307452688
 11
6.2646859287596328
 21
-10.124726532904425
  0
LINE
  8
_0-0_
  6
CONTINUOUS
 62
    7
 10
4.6035333957205182
 20
-8.8484751965451025
 11
4.6035333957205182
 21
-10.44885385642425
  0
LINE
  8
_0-0_
  6
CONTINUOUS
 62
    7
 10
9.6275069102778303
 20
-7.8760932259856204
 11
9.6072489525578533
 21
-9.3549241395448348
  0
LINE
  8
_0-0_
  6
CONTINUOUS
 62
    7
 10
-11.612961759130826
 20
-6.7315186148062267
 11
-11.511671970530884
 21
-8.3318972746853746
  0
LINE
  8
_0-0_
  6
CONTINUOUS
 62
    7
 10
-11.025480985251136
 20
-7.1164198114860255
 11
-10.924191196651194
 21
-8.7167984713651734
  0
LINE
  8
_0-0_
  6
CONTINUOUS
 62
    7
 10
-10.762127534891277
 20
-7.3392573464059083
 11
-10.660837746291335
 21
-8.9396360062850562
  0
LINE
  8
_0-0_
  6
CONTINUOUS
 62
    7
 10
-10.478516126811428
 20
-7.5013210081658173
 11
-10.377226338211486
 21
-9.1016996680449651
  0
LINE
  8
_0-0_
  6
CONTINUOUS
 62
    7
 10
-10.134130845571619
 20
-7.7039005853657088
 11
-10.032841056971677
 21
-9.3042792452448566
  0
LINE
  8
_0-0_
  6
CONTINUOUS
 62
    7
 10
-9.7593586277518227
 20
-7.835577310545645
 11
-9.7593586277518227
 21
-9.3346661818248435
  0
LINE
  8
_0-0_
  6
CONTINUOUS
 62
    7
 10
-9.3541994733520397
 20
-7.9773830145855698
 11
-9.3541994733520397
 21
-9.4764718858647683
  0
LINE
  8
_0-0_
  6
CONTINUOUS
 62
    7
 10
-8.9895562343922393
 20
-8.1191887186254945
 11
-8.9895562343922393
 21
-9.6182775899046931
  0
LINE
  8
_0-0_
  6
CONTINUOUS
 62
    7
 10
-8.6451709531524159
 20
-8.2002205495054525
 11
-8.6451709531524159
 21
-9.6993094207846511
  0
LINE
  8
_0-0_
  6
CONTINUOUS
 62
    7
 10
-8.3615595450725664
 20
-8.321768295825386
 11
-8.3615595450725664
 21
-9.8208571671045846
  0
LINE
  8
_0-0_
  6
CONTINUOUS
 62
    7
 10
-7.915884475232815
 20
-8.2812523803854106
 11
-7.915884475232815
 21
-9.7803412516646091
  0
LINE
  8
_0-0_
  6
CONTINUOUS
 62
    7
 10
-7.5512412362730004
 20
-8.4635739998653108
 11
-7.5512412362730004
 21
-9.9626628711445093
  0
LINE
  8
_0-0_
  6
CONTINUOUS
 62
    7
 10
-7.1663400395932086
 20
-8.6256376616252268
 11
-7.1663400395932086
 21
-10.124726532904425
  0
LINE
  8
_0-0_
  6
CONTINUOUS
 62
    7
 10
-6.8624706737933678
 20
-8.7066694925051848
 11
-6.8624706737933678
 21
-10.205758363784383
  0
LINE
  8
_0-0_
  6
CONTINUOUS
 62
    7
 10
-6.3560217307936426
 20
-8.8484751965451025
 11
-6.3560217307936426
 21
-10.347564067824301
  0
LINE
  8
_0-0_
  6
CONTINUOUS
 62
    7
 10
-6.6801490543134747
 20
-8.7066694925051848
 11
-6.6801490543134747
 21
-10.205758363784383
  0
LINE
  8
_0-0_
  6
CONTINUOUS
 62
    7
 10
-5.9913784918338422
 20
-8.8687331542650938
 11
-5.9913784918338422
 21
-10.367822025544292
  0
LINE
  8
_0-0_
  6
CONTINUOUS
 62
    7
 10
-5.5862193374340592
 20
-8.9295070274250605
 11
-5.5862193374340592
 21
-10.428595898704259
  0
LINE
  8
_0-0_
  6
CONTINUOUS
 62
    7
 10
-5.1202863098743023
 20
-9.0105388583050186
 11
-5.1202863098743023
 21
-10.509627729584217
  0
LINE
  8
_0-0_
  6
CONTINUOUS
 62
    7
 10
-4.6746112400345368
 20
-9.0713127314649853
 11
-4.6746112400345368
 21
-10.570401602744184
  0
LINE
  8
_0-0_
  6
CONTINUOUS
 62
    7
 10
-4.8569328595144441
 20
-9.051054773744994
 11
-4.8569328595144441
 21
-10.550143645024193
  0
LINE
  8
_0-0_
  6
CONTINUOUS
 62
    7
 10
-5.2823499716342184
 20
-8.9295070274250605
 11
-5.2823499716342184
 21
-10.428595898704259
  0
LINE
  8
_0-0_
  6
CONTINUOUS
 62
    7
 10
-3.6819713117550634
 20
-9.1523445623449433
 11
-3.6819713117550634
 21
-10.651433433624142
  0
LINE
  8
_0-0_
  6
CONTINUOUS
 62
    7
 10
-3.2970701150752717
 20
-9.3144082241048594
 11
-3.2970701150752717
 21
-10.813497095384058
  0
LINE
  8
_0-0_
  6
CONTINUOUS
 62
    7
 10
-2.91216891839548
 20
-9.2333763932249013
 11
-2.91216891839548
 21
-10.7324652645041
  0
LINE
  8
_0-0_
  6
CONTINUOUS
 62
    7
 10
-2.5475256794356795
 20
-9.2333763932249013
 11
-2.5475256794356795
 21
-10.7324652645041
  0
LINE
  8
_0-0_
  6
CONTINUOUS
 62
    7
 10
-2.26391427135583
 20
-9.2738923086648768
 11
-2.26391427135583
 21
-10.772981179944075
  0
LINE
  8
_0-0_
  6
CONTINUOUS
 62
    7
 10
-1.8182392015160644
 20
-9.1016996680449722
 11
-1.8182392015160644
 21
-10.742594243364096
  0
LINE
  8
_0-0_
  6
CONTINUOUS
 62
    7
 10
-1.2510163853563654
 20
-9.2637633298048812
 11
-1.2510163853563654
 21
-10.904657905124004
  0
LINE
  8
_0-0_
  6
CONTINUOUS
 62
    7
 10
-0.7040515269166576
 20
-9.162473541204939
 11
-0.7040515269166576
 21
-10.803368116524062
  0
LINE
  8
_0-0_
  6
CONTINUOUS
 62
    7
 10
0.0252349510029574
 20
-9.2637633298048812
 11
0.0252349510029574
 21
-10.904657905124004
  0
LINE
  8
_0-0_
  6
CONTINUOUS
 62
    7
 10
0.6532316403226161
 20
-9.162473541204939
 11
0.6532316403226161
 21
-10.803368116524062
  0
LINE
  8
_0-0_
  6
CONTINUOUS
 62
    7
 10
1.8079352303620055
 20
-9.162473541204939
 11
1.8079352303620055
 21
-10.803368116524062
  0
LINE
  8
_0-0_
  6
CONTINUOUS
 62
    7
 10
2.4359319196816642
 20
-9.1827314989249302
 11
2.4359319196816642
 21
-10.823626074244054
  0
LINE
  8
_0-0_
  6
CONTINUOUS
 62
    7
 10
2.982896778121372
 20
-9.1219576257649564
 11
2.982896778121372
 21
-10.76285220108408
  0
LINE
  8
_0-0_
  6
CONTINUOUS
 62
    7
 10
3.5703775520010623
 20
-9.1827314989249302
 11
3.5703775520010623
 21
-10.823626074244054
  0
LINE
  8
_0-0_
  6
CONTINUOUS
 62
    7
 10
4.0970844527207788
 20
-8.9801519217250316
 11
4.0970844527207788
 21
-10.621046497044155
  0
LINE
  8
_0-0_
  6
CONTINUOUS
 62
    7
 10
5.2011431484602042
 20
-8.888991111985078
 11
5.1403692753002446
 21
-10.469111814144235
  0
LINE
  8
_0-0_
  6
CONTINUOUS
 62
    7
 10
5.7278500491799207
 20
-8.8687331542650938
 11
5.6670761760199611
 21
-10.44885385642425
  0
LINE
  8
_0-0_
  6
CONTINUOUS
 62
    7
 10
6.9028115969392871
 20
-8.483831957585295
 11
6.8420377237793275
 21
-10.063952659744452
  0
LINE
  8
_0-0_
  6
CONTINUOUS
 62
    7
 10
7.3890025822190353
 20
-8.5243478730252775
 11
7.3282287090590756
 21
-10.104468575184434
  0
LINE
  8
_0-0_
  6
CONTINUOUS
 62
    7
 10
7.8549356097787779
 20
-8.4230580844253282
 11
7.7941617366188183
 21
-10.003178786584485
  0
LINE
  8
_0-0_
  6
CONTINUOUS
 62
    7
 10
8.341126595058526
 20
-8.240736464945428
 11
8.2803527218985664
 21
-9.8208571671045846
  0
LINE
  8
_0-0_
  6
CONTINUOUS
 62
    7
 10
8.7462857494583091
 20
-8.2002205495054454
 11
8.6855118762983494
 21
-9.780341251664602
  0
LINE
  8
_0-0_
  6
CONTINUOUS
 62
    7
 10
9.1919608192980746
 20
-7.9166091414255959
 11
9.131186946138115
 21
-9.4967298435847525
  0
LINE
  8
_0-0_
  6
CONTINUOUS
 62
    7
 10
9.9009893394976842
 20
-7.8457062894056335
 11
9.8807313817777072
 21
-9.3245372029648479
  0
LINE
  8
_0-0_
  6
CONTINUOUS
 62
    7
 10
10.245374620737508
 20
-7.562094881325784
 11
10.225116663017531
 21
-9.0409257948849984
  0
LINE
  8
_0-0_
  6
CONTINUOUS
 62
    7
 10
10.528986028817357
 20
-7.4405471350058505
 11
10.50872807109738
 21
-8.9193780485650649
  0
LINE
  8
_0-0_
  6
CONTINUOUS
 62
    7
 10
10.731565606017242
 20
-7.318999388685917
 11
10.711307648297264
 21
-8.7978303022451314
  0
LINE
  8
_0-0_
  6
CONTINUOUS
 62
    7
 10
10.93414518321714
 20
-7.2177096000859677
 11
10.913887225497163
 21
-8.6965405136451821
  0
LINE
  8
_0-0_
  6
CONTINUOUS
 62
    7
 10
11.075950887257065
 20
-7.0151300228860762
 11
11.055692929537088
 21
-8.4939609364452906
  0
LINE
  8
_0-0_
  6
CONTINUOUS
 62
    7
 10
11.298788422176941
 20
-6.7922924879661934
 11
11.278530464456964
 21
-8.2711234015254078
  0
ARC
  8
_0-0_
  6
CONTINUOUS
 62
    7
 10
-21.690060366941381
 20
-0.9168730439114583
 40
2.4335888946373165
 50
202.16831015900942
 51
266.41830703978462
  0
ARC
  8
_0-0_
  6
CONTINUOUS
 62
    7
 10
-21.911981606748697
 20
-0.9256056067422093
 40
2.4211118928009032
 50
271.65420460347536
 51
327.42335991564084
  0
ARC
  8
_0-0_
  6
CONTINUOUS
 62
    7
 10
-16.717780094235223
 20
-1.8526619017546011
 40
2.4335888946373165
 50
202.16831015900942
 51
266.41830703978462
  0
ARC
  8
_0-0_
  6
CONTINUOUS
 62
    7
 10
-16.939701334042539
 20
-1.8613944645853522
 40
2.4211118928009032
 50
271.65420460347536
 51
327.42335991564084
  0
ARC
  8
_0-0_
  6
CONTINUOUS
 62
    7
 10
-24.204966429649829
 20
-2.4218632021077582
 40
2.4335888946373165
 50
202.16831015900942
 51
266.41830703978462
  0
ARC
  8
_0-0_
  6
CONTINUOUS
 62
    7
 10
-24.426887669457145
 20
-2.4305957649385093
 40
2.4211118928009032
 50
271.65420460347536
 51
327.42335991564084
  0
ARC
  8
_0-0_
  6
CONTINUOUS
 62
    7
 10
-25.825000899885737
 20
-4.0637900300495602
 40
2.4335888946373165
 50
202.16831015900942
 51
266.41830703978462
  0
ARC
  8
_0-0_
  6
CONTINUOUS
 62
    7
 10
-26.046922139693052
 20
-4.0725225928803113
 40
2.4211118928009032
 50
271.65420460347536
 51
327.42335991564084
  0
ARC
  8
_0-0_
  6
CONTINUOUS
 62
    7
 10
-25.9125703307093
 20
-5.9246404350502644
 40
2.4335888946373165
 50
202.16831015900942
 51
266.41830703978462
  0
ARC
  8
_0-0_
  6
CONTINUOUS
 62
    7
 10
-26.134491570516616
 20
-5.9333729978810155
 40
2.4211118928009032
 50
271.65420460347536
 51
327.42335991564084
  0
ARC
  8
_0-0_
  6
CONTINUOUS
 62
    7
 10
-23.373056836825981
 20
-7.4571054744626153
 40
2.4335888946373165
 50
202.16831015900942
 51
266.41830703978462
  0
ARC
  8
_0-0_
  6
CONTINUOUS
 62
    7
 10
-23.594978076633296
 20
-7.4658380372933664
 40
2.4211118928009032
 50
271.65420460347536
 51
327.42335991564084
  0
ARC
  8
_0-0_
  6
CONTINUOUS
 62
    7
 10
-21.27139049706048
 20
-9.3836329525809887
 40
2.4335888946373165
 50
202.16831015900942
 51
266.41830703978462
  0
ARC
  8
_0-0_
  6
CONTINUOUS
 62
    7
 10
-21.493311736867796
 20
-9.3923655154117398
 40
2.4211118928009032
 50
271.65420460347536
 51
327.42335991564084
  0
ARC
  8
_0-0_
  6
CONTINUOUS
 62
    7
 10
-19.979741392412933
 20
-6.1654563698150682
 40
2.4335888946373165
 50
202.16831015900942
 51
266.41830703978462
  0
ARC
  8
_0-0_
  6
CONTINUOUS
 62
    7
 10
-20.201662632220248
 20
-6.1741889326458192
 40
2.4211118928009032
 50
271.65420460347536
 51
327.42335991564084
  0
ARC
  8
_0-0_
  6
CONTINUOUS
 62
    7
 10
-20.680296839001429
 20
-4.5235295418732662
 40
2.4335888946373165
 50
202.16831015900942
 51
266.41830703978462
  0
ARC
  8
_0-0_
  6
CONTINUOUS
 62
    7
 10
-20.902218078808744
 20
-4.5322621047040172
 40
2.4211118928009032
 50
271.65420460347536
 51
327.42335991564084
  0
ARC
  8
_0-0_
  6
CONTINUOUS
 62
    7
 10
-18.381599279882906
 20
-7.9387373439922087
 40
2.4335888946373165
 50
202.16831015900942
 51
266.41830703978462
  0
ARC
  8
_0-0_
  6
CONTINUOUS
 62
    7
 10
-18.603520519690221
 20
-7.9474699068229597
 40
2.4211118928009032
 50
271.65420460347536
 51
327.42335991564084
  0
ARC
  8
_0-0_
  6
CONTINUOUS
 62
    7
 10
-14.791252616116836
 20
-11.310160430699369
 40
2.4335888946373165
 50
202.16831015900942
 51
266.41830703978462
  0
ARC
  8
_0-0_
  6
CONTINUOUS
 62
    7
 10
-15.013173855924151
 20
-11.31889299353012
 40
2.4211118928009032
 50
271.65420460347536
 51
327.42335991564084
  0
ARC
  8
_0-0_
  6
CONTINUOUS
 62
    7
 10
-18.622415214647702
 20
-10.543927910993197
 40
2.4335888946373165
 50
202.16831015900942
 51
266.41830703978462
  0
ARC
  8
_0-0_
  6
CONTINUOUS
 62
    7
 10
-18.844336454455018
 20
-10.552660473823948
 40
2.4211118928009032
 50
271.65420460347536
 51
327.42335991564084
  0
ARC
  8
_0-0_
  6
CONTINUOUS
 62
    7
 10
-9.8873644899973385
 20
-11.988823519581977
 40
2.4335888946373165
 50
202.16831015900942
 51
266.41830703978462
  0
ARC
  8
_0-0_
  6
CONTINUOUS
 62
    7
 10
-10.109285729804654
 20
-11.997556082412729
 40
2.4211118928009032
 50
271.65420460347536
 51
327.42335991564084
  0
ARC
  8
_0-0_
  6
CONTINUOUS
 62
    7
 10
-4.0858896979363095
 20
-12.339101242876232
 40
2.4335888946373165
 50
202.16831015900942
 51
266.41830703978462
  0
ARC
  8
_0-0_
  6
CONTINUOUS
 62
    7
 10
-4.3078109377436249
 20
-12.347833805706983
 40
2.4211118928009032
 50
271.65420460347536
 51
327.42335991564084
  0
ARC
  8
_0-0_
  6
CONTINUOUS
 62
    7
 10
2.0001857443012909
 20
-12.623701893052811
 40
2.4335888946373165
 50
202.16831015900942
 51
266.41830703978462
  0
ARC
  8
_0-0_
  6
CONTINUOUS
 62
    7
 10
1.7782645044939756
 20
-12.632434455883562
 40
2.4211118928009032
 50
271.65420460347536
 51
327.42335991564084
  0
ARC
  8
_0-0_
  6
CONTINUOUS
 62
    7
 10
13.931520694011695
 20
-11.485299292346504
 40
2.4335888946373165
 50
202.16831015900942
 51
266.41830703978462
  0
ARC
  8
_0-0_
  6
CONTINUOUS
 62
    7
 10
8.2176153327742441
 20
-12.054500592699661
 40
2.4335888946373165
 50
202.16831015900942
 51
266.41830703978462
  0
ARC
  8
_0-0_
  6
CONTINUOUS
 62
    7
 10
7.9956940929669287
 20
-12.063233155530412
 40
2.4211118928009032
 50
271.65420460347536
 51
327.42335991564084
  0
ARC
  8
_0-0_
  6
CONTINUOUS
 62
    7
 10
20.083273209366993
 20
-10.325004333934295
 40
2.4335888946373165
 50
202.16831015900942
 51
266.41830703978462
  0
ARC
  8
_0-0_
  6
CONTINUOUS
 62
    7
 10
23.586050442309485
 20
-8.2014456364628998
 40
2.4335888946373165
 50
202.16831015900942
 51
266.41830703978462
  0
ARC
  8
_0-0_
  6
CONTINUOUS
 62
    7
 10
23.364129202502156
 20
-8.2101781992936509
 40
2.4211118928009032
 50
271.65420460347536
 51
327.42335991564084
  0
ARC
  8
_0-0_
  6
CONTINUOUS
 62
    7
 10
26.432056944075285
 20
-5.5086856386383474
 40
2.4335888946373165
 50
202.16831015900942
 51
266.41830703978462
  0
ARC
  8
_0-0_
  6
CONTINUOUS
 62
    7
 10
26.210135704267984
 20
-5.5174182014690984
 40
2.4211118928009032
 50
271.65420460347536
 51
327.42335991564084
  0
ARC
  8
_0-0_
  6
CONTINUOUS
 62
    7
 10
25.687716782074986
 20
-3.6040505182258613
 40
2.4335888946373165
 50
202.16831015900942
 51
266.41830703978462
  0
ARC
  8
_0-0_
  6
CONTINUOUS
 62
    7
 10
25.465795542267685
 20
-3.6127830810566124
 40
2.4211118928009032
 50
271.65420460347536
 51
327.42335991564084
  0
ARC
  8
_0-0_
  6
CONTINUOUS
 62
    7
 10
23.23577271901523
 20
-1.8964466171663901
 40
2.4335888946373165
 50
202.16831015900942
 51
266.41830703978462
  0
ARC
  8
_0-0_
  6
CONTINUOUS
 62
    7
 10
23.013851479207901
 20
-1.9051791799971411
 40
2.4211118928009032
 50
271.65420460347536
 51
327.42335991564084
  0
ARC
  8
_0-0_
  6
CONTINUOUS
 62
    7
 10
19.426502478190272
 20
-0.7361516587541814
 40
2.4335888946373165
 50
202.16831015900942
 51
266.41830703978462
  0
ARC
  8
_0-0_
  6
CONTINUOUS
 62
    7
 10
19.204581238382943
 20
-0.7448842215849325
 40
2.4211118928009032
 50
271.65420460347536
 51
327.42335991564084
  0
ARC
  8
_0-0_
  6
CONTINUOUS
 62
    7
 10
13.187180532011425
 20
1.3874070387172068
 40
2.4335888946373165
 50
202.16831015900942
 51
266.41830703978462
  0
ARC
  8
_0-0_
  6
CONTINUOUS
 62
    7
 10
12.965259292204095
 20
1.3786744758864558
 40
2.4211118928009032
 50
271.65420460347536
 51
327.42335991564084
  0
ARC
  8
_0-0_
  6
CONTINUOUS
 62
    7
 10
13.384211751364447
 20
-0.6923669433423995
 40
2.4335888946373165
 50
202.16831015900942
 51
266.41830703978462
  0
ARC
  8
_0-0_
  6
CONTINUOUS
 62
    7
 10
13.162290511557146
 20
-0.7010995061731506
 40
2.4211118928009032
 50
271.65420460347536
 51
327.42335991564084
  0
ARC
  8
_0-0_
  6
CONTINUOUS
 62
    7
 10
7.7797681786564254
 20
0.0519732186578778
 40
2.4335888946373165
 50
202.16831015900942
 51
266.41830703978462
  0
ARC
  8
_0-0_
  6
CONTINUOUS
 62
    7
 10
7.5578469388491101
 20
0.0432406558271267
 40
2.4211118928009032
 50
271.65420460347536
 51
327.42335991564084
  0
ARC
  8
_0-0_
  6
CONTINUOUS
 62
    7
 10
6.0283795621851795
 20
2.1755319161292732
 40
2.4335888946373165
 50
202.16831015900942
 51
266.41830703978462
  0
ARC
  8
_0-0_
  6
CONTINUOUS
 62
    7
 10
5.8064583223778641
 20
2.1667993532985221
 40
2.4211118928009032
 50
271.65420460347536
 51
327.42335991564084
  0
ARC
  8
_0-0_
  6
CONTINUOUS
 62
    7
 10
1.6280156633011558
 20
0.5336050881874712
 40
2.4335888946373165
 50
202.16831015900942
 51
266.41830703978462
  0
ARC
  8
_0-0_
  6
CONTINUOUS
 62
    7
 10
1.4060944234938404
 20
0.5248725253567201
 40
2.4211118928009032
 50
271.65420460347536
 51
327.42335991564084
  0
ARC
  8
_0-0_
  6
CONTINUOUS
 62
    7
 10
-1.8747615696413504
 20
2.2193166315410551
 40
2.4335888946373165
 50
202.16831015900942
 51
266.41830703978462
  0
ARC
  8
_0-0_
  6
CONTINUOUS
 62
    7
 10
-2.0966828094486658
 20
2.210584068710304
 40
2.4211118928009032
 50
271.65420460347536
 51
327.42335991564084
  0
ARC
  8
_0-0_
  6
CONTINUOUS
 62
    7
 10
-4.370490348112881
 20
0.2052197225991108
 40
2.4335888946373165
 50
202.16831015900942
 51
266.41830703978462
  0
ARC
  8
_0-0_
  6
CONTINUOUS
 62
    7
 10
-4.5924115879201963
 20
0.1964871597683597
 40
2.4211118928009032
 50
271.65420460347536
 51
327.42335991564084
  0
ARC
  8
_0-0_
  6
CONTINUOUS
 62
    7
 10
-8.530038312232108
 20
1.5844382580702217
 40
2.4335888946373165
 50
202.16831015900942
 51
266.41830703978462
  0
ARC
  8
_0-0_
  6
CONTINUOUS
 62
    7
 10
-8.7519595520394233
 20
1.5757056952394706
 40
2.4211118928009032
 50
271.65420460347536
 51
327.42335991564084
  0
ARC
  8
_0-0_
  6
CONTINUOUS
 62
    7
 10
-18.096998629706334
 20
0.3365738688344563
 40
2.4335888946373165
 50
202.16831015900942
 51
266.41830703978462
  0
ARC
  8
_0-0_
  6
CONTINUOUS
 62
    7
 10
-18.31891986951365
 20
0.3278413060037053
 40
2.4211118928009032
 50
271.65420460347536
 51
327.42335991564084
  0
ARC
  8
_0-0_
  6
CONTINUOUS
 62
    7
 10
-14.819557716784971
 20
-9.5235888693946364
 40
1.9142501465468185
 50
203.78326953518498
 51
321.88611299898338
  0
ARC
  8
_0-0_
  6
CONTINUOUS
 62
    7
 10
-11.020226454334079
 20
-10.233524562281289
 40
2.2702701643291694
 50
216.37864622833149
 51
311.50337832371144
  0
ARC
  8
_0-0_
  6
CONTINUOUS
 62
    7
 10
-6.221160094299961
 20
-11.422221830506416
 40
1.8437032579151578
 50
207.33565192413477
 51
320.13736684719623
  0
ARC
  8
_0-0_
  6
CONTINUOUS
 62
    7
 10
4.3196766901662045
 20
-11.546657923484332
 40
1.812014583851328
 50
219.40911684958712
 51
330.59217234552995
  0
ARC
  8
_0-0_
  6
CONTINUOUS
 62
    7
 10
9.4877619640092377
 20
-10.931667980279016
 40
2.0283336953796787
 50
217.17030005792236
 51
339.68363798503913
  0
ARC
  8
_0-0_
  6
CONTINUOUS
 62
    7
 10
14.170665279513642
 20
-9.9148682610180643
 40
2.0809512734717583
 50
217.75930088205016
 51
330.84963703896608
  0
ARC
  8
_0-0_
  6
CONTINUOUS
 62
    7
 10
18.117761788863945
 20
-9.1342059571803276
 40
1.6406997031826642
 50
191.37663076708759
 51
349.28574080974334
  0
ARC
  8
_0-0_
  6
CONTINUOUS
 62
    7
 10
20.312963183983143
 20
-6.9486280999327477
 40
2.1306054107206345
 50
203.03765603295835
 51
340.18942183280382
  0
ARC
  8
_0-0_
  6
CONTINUOUS
 62
    7
 10
20.500004119530715
 20
-4.9879944836526064
 40
2.2014385697108727
 50
212.82809329539134
 51
332.22414052784802
  0
ARC
  8
_0-0_
  6
CONTINUOUS
 62
    7
 10
19.813235563176946
 20
-3.1300990695675566
 40
2.5009531523162183
 50
212.36187958456983
 51
326.11032349356992
  0
ARC
  8
_0-0_
  6
CONTINUOUS
 62
    7
 10
16.94257477518569
 20
-2.3312265497262956
 40
1.6007619065855494
 50
201.00549859638548
 51
333.16048683035888
  0
ARC
  8
_0-0_
  6
CONTINUOUS
 62
    7
 10
-2.5433774959296187
 20
23.334967036296398
 40
3.0675411030318855
 50
96.288550678764111
 51
203.6448884492456
  0
ARC
  8
_0-0_
  6
CONTINUOUS
 62
    7
 10
1.0322310163807913
 20
18.103910709645014
 40
9.1575888794443614
 50
64.713520958843091
 51
115.28647904115691
  0
ARC
  8
_0-0_
  6
CONTINUOUS
 62
    7
 10
3.6118058863819869
 20
23.456197310173117
 40
3.2166210256258729
 50
339.03453369138703
 51
65.536641602278493
  0
ARC
  8
_0-0_
  6
CONTINUOUS
 62
    7
 10
-0.9204888694642647
 20
22.572268419355247
 40
5.4344149280018907
 50
100.13106231223051
 51
159.8427101776978
  0
ARC
  8
_0-0_
  6
CONTINUOUS
 62
    7
 10
0.800038218124115
 20
18.98983251874035
 40
9.3244874149384724
 50
57.478063178814281
 51
106.68045701790363
  0
ARC
  8
_0-0_
  6
CONTINUOUS
 62
    7
 10
-0.0453272710219465
 20
21.114558844377349
 40
8.2000325807766181
 50
24.475185118896334
 51
44.402793498710849
  0
ARC
  8
_0-0_
  6
CONTINUOUS
 62
    7
 10
-0.33520924937703
 20
23.627980121155623
 40
7.5278562802267439
 50
94.610361224997973
 51
143.97236311697054
  0
ARC
  8
_0-0_
  6
CONTINUOUS
 62
    7
 10
1.0037940956203073
 20
22.303352197083264
 40
9.0396511830714363
 50
60.81433322859106
 51
102.41916980955024
  0
ARC
  8
_0-0_
  6
CONTINUOUS
 62
    7
 10
3.5970600251882416
 20
26.158006057535765
 40
4.426502640553462
 50
14.326048767053809
 51
65.795520148693825
  0
ARC
  8
_0-0_
  6
CONTINUOUS
 62
    7
 10
0.2909737364387012
 20
24.470169950738558
 40
8.5618984241467917
 50
94.665052847807715
 51
133.66820683816329
  0
ARC
  8
_0-0_
  6
CONTINUOUS
 62
    7
 10
1.1146462531039134
 20
25.263669608115926
 40
7.8878760717649525
 50
53.440722068330558
 51
101.11056656082465
  0
ARC
  8
_0-0_
  6
CONTINUOUS
 62
    7
 10
3.9742994669506118
 20
28.423438683992181
 40
3.6699793801715623
 50
23.061519532293399
 51
59.931417178137707
  0
ARC
  8
_0-0_
  6
CONTINUOUS
 62
    7
 10
0.9153631171212453
 20
25.687655338904442
 40
8.6459235119751501
 50
80.426567217938739
 51
131.01859298973736
  0
ARC
  8
_0-0_
  6
CONTINUOUS
 62
    7
 10
1.1973322875069243
 20
27.797727742036862
 40
6.5187503076594515
 50
43.328221590099261
 51
79.785921161174045
  0
ARC
  8
_0-0_
  6
CONTINUOUS
 62
    7
 10
0.4556784447306796
 20
27.933108999051747
 40
7.413642405319921
 50
85.028288855097273
 51
133.09686517398242
  0
ARC
  8
_0-0_
  6
CONTINUOUS
 62
    7
 10
0.6567128196956844
 20
27.715548149568157
 40
7.6161154084905203
 50
47.012784395816183
 51
86.677044096252629
  0
ARC
  8
_0-0_
  6
CONTINUOUS
 62
    7
 10
1.0563415458534138
 20
28.940130544933517
 40
7.6661037826498069
 50
88.570471126012535
 51
138.65807301013072
  0
ARC
  8
_0-0_
  6
CONTINUOUS
 62
    7
 10
0.6817038677018558
 20
30.255068104034358
 40
6.3739500291544688
 50
35.36516604453508
 51
84.906504962960966
  0
ARC
  8
_0-0_
  6
CONTINUOUS
 62
    7
 10
0.535929780909953
 20
30.573894987506442
 40
7.0788052399114845
 50
88.351497842423129
 51
134.213800154735
  0
ARC
  8
_0-0_
  6
CONTINUOUS
 62
    7
 10
0.9508602407957198
 20
31.831885944321819
 40
5.8217199421525638
 50
32.156170720810373
 51
92.079902113447162
  0
LINE
  8
_0-0_
  6
CONTINUOUS
 62
    7
 10
-4.4003883829716983
 20
35.64757674827252
 11
-4.7589902410174005
 21
31.434004916235402
  0
LINE
  8
_0-0_
  6
CONTINUOUS
 62
    7
 10
5.8795315476720873
 20
34.930373032181116
 11
5.9392985240130258
 21
31.493771892576369
  0
LINE
  8
_0-0_
  6
CONTINUOUS
 62
    7
 10
-5.6208555934304769
 20
30.663422617948733
 11
-5.8945627914954883
 21
28.654840516381121
  0
LINE
  8
_0-0_
  6
CONTINUOUS
 62
    7
 10
-4.4900388474830919
 20
31.702956309769696
 11
-4.5796893119945281
 21
30.02948097222302
  0
LINE
  8
_0-0_
  6
CONTINUOUS
 62
    7
 10
-2.697029557254524
 20
32.539693978543006
 11
-2.7269130454250217
 21
30.866218640996358
  0
LINE
  8
_0-0_
  6
CONTINUOUS
 62
    7
 10
-0.3661174799573814
 20
32.987946301100145
 11
-0.3960009681278791
 21
31.34435445172398
  0
LINE
  8
_0-0_
  6
CONTINUOUS
 62
    7
 10
1.9946780855102304
 20
32.95806281292969
 11
1.9647945973397185
 21
31.374237939894464
  0
LINE
  8
_0-0_
  6
CONTINUOUS
 62
    7
 10
4.3853571391482689
 20
32.240859096838257
 11
4.3853571391482689
 21
30.866218640996358
  0
LINE
  8
_0-0_
  6
CONTINUOUS
 62
    7
 10
5.9094150358425424
 20
31.284587475383013
 11
5.9392985240130258
 21
30.149014924904925
  0
LINE
  8
_0-0_
  6
CONTINUOUS
 62
    7
 10
7.403589444366375
 20
29.790413066859209
 11
7.403589444366375
 21
28.385889122846841
  0
LINE
  8
_0-0_
  6
CONTINUOUS
 62
    7
 10
-6.4232378981313474
 20
28.055680127670946
 11
-6.4922325549049873
 21
24.979171471412577
  0
LINE
  8
_0-0_
  6
CONTINUOUS
 62
    7
 10
-6.4922325549049873
 20
24.979171471412577
 11
-6.0220467457809264
 21
24.444959756517058
  0
LINE
  8
_0-0_
  6
CONTINUOUS
 62
    7
 10
7.8859132023672913
 20
27.253297822970104
 11
7.7024243260710961
 21
24.740103566048766
  0
LINE
  8
_0-0_
  6
CONTINUOUS
 62
    7
 10
7.7024243260710961
 20
24.740103566048766
 11
7.4178568579584407
 21
24.511824948575516
  0
LINE
  8
_0-0_
  6
CONTINUOUS
 62
    7
 10
7.4178568579584407
 20
24.511824948575516
 11
7.4334729325368158
 21
23.305696133865915
  0
LINE
  8
_0-0_
  6
CONTINUOUS
 62
    7
 10
7.4334729325368158
 20
23.305696133865915
 11
7.2242885153435026
 21
22.678142882285918
  0
LINE
  8
_0-0_
  6
CONTINUOUS
 62
    7
 10
7.2242885153435026
 20
22.678142882285918
 11
6.6863857282749279
 21
22.259774047899249
  0
LINE
  8
_0-0_
  6
CONTINUOUS
 62
    7
 10
-6.0220467457809264
 20
24.444959756517058
 11
-6.0439802323478489
 21
23.843598920934504
  0
LINE
  8
_0-0_
  6
CONTINUOUS
 62
    7
 10
-6.0439802323478489
 20
23.843598920934504
 11
-5.9244462796659292
 21
22.976977763990696
  0
LINE
  8
_0-0_
  6
CONTINUOUS
 62
    7
 10
-5.9244462796659292
 20
22.976977763990696
 11
-5.5957279097907104
 21
22.319541024240216
  0
LINE
  8
_0-0_
  6
CONTINUOUS
 62
    7
 10
-5.5957279097907104
 20
22.319541024240216
 11
-5.3533948251968582
 21
22.104678034472904
  0
LINE
  8
_0-0_
  6
CONTINUOUS
 62
    7
 10
-3.3050270429298791
 20
25.414727137759677
 11
-3.7249377800807082
 21
20.645740908689639
  0
LINE
  8
_0-0_
  6
CONTINUOUS
 62
    7
 10
1.4339655620579634
 20
25.474714385924081
 11
1.4339655620579634
 21
21.635530503402286
  0
LINE
  8
_0-0_
  6
CONTINUOUS
 62
    7
 10
-5.3937302431918681
 20
23.27468607701298
 11
-6.1307795927077535
 21
16.930797032965579
  0
LINE
  8
_0-0_
  6
CONTINUOUS
 62
    7
 10
6.4517057311705202
 20
23.406302032283683
 11
6.9518463611991592
 21
16.930797032965579
  0
ARC
  8
_0-0_
  6
CONTINUOUS
 62
    7
 10
-1.5787837179012314
 20
-44.197877288011703
 40
42.258997163082313
 50
95.969333556029326
 51
105.62676483148931
  0
ARC
  8
_0-0_
  6
CONTINUOUS
 62
    7
 10
-1.4027470312794321
 20
-25.981337383553253
 40
24.700451633219746
 50
94.165173984296743
 51
97.1767870202887
  0
ARC
  8
_0-0_
  6
CONTINUOUS
 62
    7
 10
-1.4027470312794321
 20
-25.981337383553253
 40
24.700451633219746
 50
100.47592944254046
 51
110.89244143400644
  0
ARC
  8
_0-0_
  6
CONTINUOUS
 62
    7
 10
0.2939499604863016
 20
-42.578150266930329
 40
41.379526649992194
 50
90.517216629968019
 51
94.141454596440639
  0
ARC
  8
_0-0_
  6
CONTINUOUS
 62
    7
 10
0.2939499604863016
 20
-42.578150266930329
 40
41.379526649992194
 50
76.424273140259089
 51
78.222701757852775
  0
ARC
  8
_0-0_
  6
CONTINUOUS
 62
    7
 10
0.2939499604863016
 20
-42.578150266930329
 40
41.379526649992194
 50
82.094447502935708
 51
86.235220251178959
  0
ARC
  8
_0-0_
  6
CONTINUOUS
 62
    7
 10
19.861351969559664
 20
-10.333736896765046
 40
2.4211118928009032
 50
271.65420460347536
 51
342.94136877073623
  0
ARC
  8
_0-0_
  6
CONTINUOUS
 62
    7
 10
-0.0601305352334406
 20
31.313720667573428
 40
48.23618618323097
 50
301.60167425103606
 51
304.27912232805767
  0
ARC
  8
_0-0_
  6
CONTINUOUS
 62
    7
 10
-0.0601305352334406
 20
31.313720667573428
 40
48.23618618323097
 50
299.09361304765577
 51
299.70543370842523
  0
ARC
  8
_0-0_
  6
CONTINUOUS
 62
    7
 10
0.8354438462376663
 20
62.317977701778069
 40
76.553561831198195
 50
286.13903072820563
 51
287.13826166738676
  0
ARC
  8
_0-0_
  6
CONTINUOUS
 62
    7
 10
13.709599454204394
 20
-11.494031855177255
 40
2.4211118928009032
 50
271.65420460347536
 51
339.12478032035494
  0
ARC
  8
_0-0_
  6
CONTINUOUS
 62
    7
 10
0.8354438462376663
 20
62.317977701778069
 40
76.553561831198195
 50
281.25018303145441
 51
283.33866594128779
  0
ARC
  8
_0-0_
  6
CONTINUOUS
 62
    7
 10
0.8354438462376663
 20
62.317977701778069
 40
76.553561831198195
 50
276.70077864751585
 51
278.67344609754895
  0
ARC
  8
_0-0_
  6
CONTINUOUS
 62
    7
 10
0.8354438462376663
 20
62.317977701778069
 40
76.553561831198195
 50
272.09697225872532
 51
274.44108680922733
  0
ARC
  8
_0-0_
  6
CONTINUOUS
 62
    7
 10
-3.0388085871370976
 20
38.921054630845568
 40
53.227340358949704
 50
263.84328285681124
 51
273.45941982508913
  0
ARC
  8
_0-0_
  6
CONTINUOUS
 62
    7
 10
-3.0388085871370976
 20
38.921054630845568
 40
53.227340358949704
 50
258.59875028709001
 51
260.61731250578009
  0
ARC
  8
_0-0_
  6
CONTINUOUS
 62
    7
 10
-3.0388085871370976
 20
38.921054630845568
 40
53.227340358949704
 50
254.51534500675209
 51
254.86512718226473
  0
ARC
  8
_0-0_
  6
CONTINUOUS
 62
    7
 10
-3.0388085871370976
 20
38.921054630845568
 40
53.227340358949704
 50
243.4220166610416
 51
247.40323249523013
  0
ENDBLK
  0
ENDSEC
  0
SECTION
  2
ENTITIES
  0
INSERT
  2
-000-4
  8
_0-0_
 10
148.66836734693879
 20
100.45408163265307
 41
1
 42
1
 50
0
  0
ENDSEC
  0
EOF
