  0
SECTION
  2
HEADER
  9
$ACADVER
  1
AC1009
  9
$INSBASE
 10
0
 20
0
 30
0
  9
$EXTMIN
 10
0
 20
0
  9
$EXTMAX
 10
297
 20
210
  9
$LIMMIN
 10
0
 20
0
  9
$LIMMAX
 10
297
 20
210
  9
$LTSCALE
 40
1
  0
ENDSEC
  0
SECTION
  2
TABLES
  0
TABLE
  2
LTYPE
 70
     9
  0
LTYPE
  2
CONTINUOUS
 70
    64
  3
実線
 72
    65
 73
     0
 40
0.0
  0
LTYPE
  2
DASHED1
 70
    64
  3
--  --  --  --  --  --  --  --  
 72
    65
 73
     2
 40
2.5
 49
1.25
 49
-1.25
  0
LTYPE
  2
DASHED2
 70
    64
  3
----    ----    ----    ----    
 72
    65
 73
     2
 40
5.0
 49
2.5
 49
-2.5
  0
LTYPE
  2
DASHED3
 70
    64
  3
------  ------  ------  ------  
 72
    65
 73
     2
 40
5.0
 49
3.75
 49
-1.25
  0
LTYPE
  2
CENTER1
 70
    64
  3
----- - ----- - ----- - ----- - 
 72
    65
 73
     4
 40
10.0
 49
6.25
 49
-1.25
 49
1.25
 49
-1.25
  0
LTYPE
  2
CENTER2
 70
    64
  3
----------  --  ----------  --  
 72
    65
 73
     4
 40
20.0
 49
12.5
 49
-2.5
 49
2.5
 49
-2.5
  0
LTYPE
  2
PHANTOM1
 70
    64
  3
--- - - --- - - --- - - --- - - 
 72
    65
 73
     6
 40
10.0
 49
3.25
 49
-1.25
 49
1.25
 49
-1.25
 49
1.25
 49
-1.25
  0
LTYPE
  2
PHANTOM2
 70
    64
  3
--------  -  -  --------  -  -  
 72
    65
 73
     6
 40
20.0
 49
10.0
 49
-2.5
 49
1.25
 49
-2.5
 49
1.25
 49
-2.5
  0
LTYPE
  2
DOT
 70
    64
  3
-   -   -   -   -   -   -   -   
 72
    65
 73
     2
 40
2.5
 49
0.625
 49
-1.875
  0
LTYPE
  2
DUMMY
 70
    64
  3
ダミー
 72
    65
 73
     0
 40
0.0
  0
LTYPE
  2
RAND1
 70
    64
  3
ランダム線1
 72
    65
 73
     4
 40
10.0
 49
1.0
 49
-2.0
 49
3.0
 49
-4.0
  0
LTYPE
  2
RAND2
 70
    64
  3
ランダム線2
 72
    65
 73
     4
 40
14.0
 49
2.0
 49
-3.0
 49
4.0
 49
-5.0
  0
LTYPE
  2
RAND3
 70
    64
  3
ランダム線3
 72
    65
 73
     4
 40
18.0
 49
3.0
 49
-4.0
 49
5.0
 49
-6.0
  0
LTYPE
  2
RAND4
 70
    64
  3
ランダム線4
 72
    65
 73
     4
 40
22.0
 49
4.0
 49
-5.0
 49
6.0
 49
-7.0
  0
LTYPE
  2
RAND5
 70
    64
  3
ランダム線5
 72
    65
 73
     4
 40
26.0
 49
5.0
 49
-6.0
 49
7.0
 49
-8.0
  0
LTYPE
  2
LONG1
 70
    64
  3
----------  --  ----------  --  
 72
    65
 73
     4
 40
40.0
 49
32.5
 49
-2.5
 49
2.5
 49
-2.5
  0
LTYPE
  2
LONG2
 70
    64
  3
--------  -  -  --------  -  -  
 72
    65
 73
     6
 40
40.0
 49
30.0
 49
-2.5
 49
1.25
 49
-2.5
 49
1.25
 49
-2.5
  0
LTYPE
  2
LONG3
 70
    64
  3
+++++++++++++++..+++++++++++++++
 72
    65
 73
     2
 40
40.0
 49
37.5
 49
-2.5
  0
LTYPE
  2
LONG4
 70
    64
  3
+++++++++++++++..+++++++++++++++
 72
    65
 73
     2
 40
80.0
 49
75.0
 49
-5.0
  0
LTYPE
  2
LONG5
 70
    64
  3
----------  --  ----------  --  
 72
    65
 73
     4
 40
60.0
 49
37.5
 49
-7.5
 49
7.5
 49
-7.5
  0
LTYPE
  2
dashed
 70
   64
  3
-------   -------------   ------
 72
   65
 73
    2
 40
7.5
 49
6
 49
-1.5
  0
LTYPE
  2
dashed_spaced
 70
   64
  3
----        --------        ----
 72
   65
 73
    2
 40
12
 49
6
 49
-6
  0
LTYPE
  2
long_dashed_dotted
 70
   64
  3
------------- --- --------------
 72
   65
 73
    4
 40
15.25
 49
12
 49
-1.5
 49
0.25
 49
-1.5
  0
LTYPE
  2
long_dashed_double-dotted
 70
   64
  3
----------- --- --- ------------
 72
   65
 73
    6
 40
17
 49
12
 49
-1.5
 49
0.25
 49
-1.5
 49
0.25
 49
-1.5
  0
LTYPE
  2
long_dashed_triplicate-dotted
 70
   64
  3
--------- --- --- --- ----------
 72
   65
 73
    8
 40
18.75
 49
12
 49
-1.5
 49
0.25
 49
-1.5
 49
0.25
 49
-1.5
 49
0.25
 49
-1.5
  0
LTYPE
  2
dotted
 70
   64
  3
   -       -       -       -    
 72
   65
 73
    2
 40
1.75
 49
0.25
 49
-1.5
  0
LTYPE
  2
chain
 70
   64
  3
-------------- -- --------------
 72
   65
 73
    4
 40
18.5
 49
12
 49
-1.5
 49
3.5
 49
-1.5
  0
LTYPE
  2
chain_double_dash
 70
   64
  3
------------ -- -- -------------
 72
   65
 73
    6
 40
23.5
 49
12
 49
-1.5
 49
3.5
 49
-1.5
 49
3.5
 49
-1.5
  0
LTYPE
  2
dashed_dotted
 70
   64
  3
-----------     -     ----------
 72
   65
 73
    4
 40
9.25
 49
6
 49
-1.5
 49
0.25
 49
-1.5
  0
LTYPE
  2
double-dashed_dotted
 70
   64
  3
------   -----------   -   -----
 72
   65
 73
    6
 40
16.75
 49
6
 49
-1.5
 49
6
 49
-1.5
 49
0.25
 49
-1.5
  0
LTYPE
  2
dashed_double-dotted
 70
   64
  3
---------    -    -    ---------
 72
   65
 73
    6
 40
11
 49
6
 49
-1.5
 49
0.25
 49
-1.5
 49
0.25
 49
-1.5
  0
LTYPE
  2
double-dashed_double-dotted
 70
   64
  3
-----   ---------   -   -   ----
 72
   65
 73
    8
 40
18.5
 49
6
 49
-1.5
 49
6
 49
-1.5
 49
0.25
 49
-1.5
 49
0.25
 49
-1.5
  0
LTYPE
  2
dashed_triplicate-dotted
 70
   64
  3
-------    -    -    -    ------
 72
   65
 73
    8
 40
12.75
 49
6
 49
-1.5
 49
0.25
 49
-1.5
 49
0.25
 49
-1.5
 49
0.25
 49
-1.5
  0
LTYPE
  2
double-dashed_triplicate-dotted
 70
   64
  3
-----  ---------  -  -  -  -----
 72
   65
 73
   10
 40
20.25
 49
6
 49
-1.5
 49
6
 49
-1.5
 49
0.25
 49
-1.5
 49
0.25
 49
-1.5
 49
0.25
 49
-1.5
  0
LTYPE
  2
undefined
 70
   64
  3
--------------------------------
 72
   65
 73
    0
 40
0
  0
LTYPE
  2
_
 70
   64
  3
                                
 72
   65
 73
    0
 40
0
  0
LTYPE
  2
__18
 70
   64
  3
                                
 72
   65
 73
    0
 40
0
  0
LTYPE
  2
__19
 70
   64
  3
                                
 72
   65
 73
    0
 40
0
  0
LTYPE
  2
__20
 70
   64
  3
                                
 72
   65
 73
    0
 40
0
  0
LTYPE
  2
__21
 70
   64
  3
                                
 72
   65
 73
    0
 40
0
  0
LTYPE
  2
__22
 70
   64
  3
                                
 72
   65
 73
    0
 40
0
  0
LTYPE
  2
__23
 70
   64
  3
                                
 72
   65
 73
    0
 40
0
  0
LTYPE
  2
__24
 70
   64
  3
                                
 72
   65
 73
    0
 40
0
  0
LTYPE
  2
__25
 70
   64
  3
                                
 72
   65
 73
    0
 40
0
  0
LTYPE
  2
__26
 70
   64
  3
                                
 72
   65
 73
    0
 40
0
  0
LTYPE
  2
__27
 70
   64
  3
                                
 72
   65
 73
    0
 40
0
  0
LTYPE
  2
__28
 70
   64
  3
                                
 72
   65
 73
    0
 40
0
  0
LTYPE
  2
__29
 70
   64
  3
                                
 72
   65
 73
    0
 40
0
  0
LTYPE
  2
__30
 70
   64
  3
                                
 72
   65
 73
    0
 40
0
  0
LTYPE
  2
__31
 70
   64
  3
                                
 72
   65
 73
    0
 40
0
  0
LTYPE
  2
__32
 70
   64
  3
                                
 72
   65
 73
    0
 40
0
  0
ENDTAB
  0
TABLE
  2
STYLE
  5
3
100
AcDbSymbolTable
 70
     1
  0
STYLE
  5
10
100
AcDbSymbolTableRecord
100
AcDbTextStyleTableRecord
  2
STANDARD
 70
     0
 40
0.0
 41
1.0
 50
0.0
 71
     0
 42
0.2
  3
txt
  4
bigfont.shx
  0
STYLE
  5
26
100
AcDbSymbolTableRecord
100
AcDbTextStyleTableRecord
  2
TATEGAKI
 70
    68
 40
0.0
 41
1.0
 50
0.0
 71
     0
 42
1.0
  3
txt
  4
bigfont.shx
  0
ENDTAB
  0
TABLE
  2
LAYER
 70
    2
  0
LAYER
  2
_0-0_
 70
   64
 62
    7
  6
CONTINUOUS
  0
LAYER
  2
ADD_LINE
 70
   64
 62
    7
  6
CONTINUOUS
  0
ENDTAB
  0
ENDSEC
  0
SECTION
  2
BLOCKS
  0
BLOCK
  2
-000-3
 70
   64
 10
0
 20
0
 30
0
  0
ARC
  8
_0-0_
  6
CONTINUOUS
 62
    7
 10
-4.5290280737779369
 20
-19.610786195303746
 40
14.526203388720404
 50
89.641720850725008
 51
108.02902557617416
  0
ARC
  8
_0-0_
  6
CONTINUOUS
 62
    7
 10
-8.5077193621187917
 20
-6.760310547015024
 40
1.0926251270626277
 50
118.24937930419976
 51
193.20173842692228
  0
ARC
  8
_0-0_
  6
CONTINUOUS
 62
    7
 10
-6.6721191125503623
 20
-5.2749880821939712
 40
3.3787504788760585
 50
210.89464223566478
 51
254.49746120836812
  0
ARC
  8
_0-0_
  6
CONTINUOUS
 62
    7
 10
-2.6163655928252894
 20
5.2275839029445734
 40
14.624757403048379
 50
250.17972192537349
 51
267.79661773133785
  0
ARC
  8
_0-0_
  6
CONTINUOUS
 62
    7
 10
-0.3332794665949023
 20
25.507092995708362
 40
35.009272896866918
 50
265.33817211505936
 51
276.63734868422011
  0
ARC
  8
_0-0_
  6
CONTINUOUS
 62
    7
 10
1.2803813669139856
 20
4.6007186159894928
 40
14.080033079953495
 50
279.95001452452686
 51
295.31890762879175
  0
ARC
  8
_0-0_
  6
CONTINUOUS
 62
    7
 10
5.8064852564152574
 20
-4.8550752845129637
 40
3.5972461640550391
 50
294.56225335278697
 51
329.12806091762911
  0
ARC
  8
_0-0_
  6
CONTINUOUS
 62
    7
 10
8.120250242997443
 20
-6.3823346152735212
 40
0.8368180444174365
 50
337.62395772296912
 51
79.261899525758395
  0
ARC
  8
_0-0_
  6
CONTINUOUS
 62
    7
 10
5.6944487367477592
 20
-11.821776306007891
 40
6.7729593614097157
 50
67.593199055493855
 51
95.914159315568938
  0
ARC
  8
_0-0_
  6
CONTINUOUS
 62
    7
 10
-0.0416396295891985
 20
-51.064509027698186
 40
46.254849443842943
 50
83.746768972688244
 51
93.47579784820914
  0
ARC
  8
_0-0_
  6
CONTINUOUS
 62
    7
 10
-6.5942222010620384
 20
19.734541508804867
 40
24.912877918746844
 50
274.9647428351297
 51
278.65335752409692
  0
ARC
  8
_0-0_
  6
CONTINUOUS
 62
    7
 10
-3.0238882051535683
 20
-32.419374673662432
 40
27.573511156544072
 50
89.432673911026782
 51
110.2989399751421
  0
ARC
  8
_0-0_
  6
CONTINUOUS
 62
    7
 10
-11.622244388495886
 20
-9.0049560949875911
 40
2.6309608411160967
 50
111.57372586026051
 51
180.02530587920276
  0
ARC
  8
_0-0_
  6
CONTINUOUS
 62
    7
 10
-10.864017485632772
 20
-7.6556192505932046
 40
3.6483474346744065
 50
201.72593452615178
 51
259.25871458810309
  0
ARC
  8
_0-0_
  6
CONTINUOUS
 62
    7
 10
-2.6311346640313786
 20
9.2215849643718428
 40
22.318534404666487
 50
246.46263070999063
 51
270.9738700821481
  0
ARC
  8
_0-0_
  6
CONTINUOUS
 62
    7
 10
0.7138774723900809
 20
15.553321148376156
 40
28.800147976108853
 50
264.08952647217552
 51
285.02719113421517
  0
ARC
  8
_0-0_
  6
CONTINUOUS
 62
    7
 10
3.094001717936024
 20
6.3574662891642788
 40
19.301841891264576
 50
285.28112949655224
 51
302.30510749959967
  0
ARC
  8
_0-0_
  6
CONTINUOUS
 62
    7
 10
12.103016986105459
 20
-8.2337504321175174
 40
2.1622632352472642
 50
307.17077031765109
 51
0.9446387026051184
  0
ARC
  8
_0-0_
  6
CONTINUOUS
 62
    7
 10
12.216993816907149
 20
-8.5645306764558597
 40
2.0805150538053807
 50
10.144056411648686
 51
77.347040342987754
  0
ARC
  8
_0-0_
  6
CONTINUOUS
 62
    7
 10
6.1972058108247268
 20
-21.086983448641305
 40
15.928146734907321
 50
66.011993544996329
 51
87.051176678381594
  0
ARC
  8
_0-0_
  6
CONTINUOUS
 62
    7
 10
-6.3020272673077358
 20
-14.682046395263839
 40
9.5157449356724086
 50
103.80918293573524
 51
123.25551418606709
  0
ARC
  8
_0-0_
  6
CONTINUOUS
 62
    7
 10
-10.478391500818489
 20
-7.4604424023752927
 40
1.2754453376655055
 50
144.76856582245088
 51
241.22066776138263
  0
ARC
  8
_0-0_
  6
CONTINUOUS
 62
    7
 10
-4.3505549503286716
 20
1.5344951957845581
 40
12.15411614099164
 50
236.30997094843238
 51
260.58198921060966
  0
ARC
  8
_0-0_
  6
CONTINUOUS
 62
    7
 10
-0.4660947187073388
 20
24.34848115688574
 40
35.296363611055284
 50
260.42143154200778
 51
277.50003799922376
  0
ARC
  8
_0-0_
  6
CONTINUOUS
 62
    7
 10
1.5022343167660495
 20
9.6006116408851057
 40
20.417762844208344
 50
277.42568396028622
 51
297.37424066559117
  0
ARC
  8
_0-0_
  6
CONTINUOUS
 62
    7
 10
8.6087010535925685
 20
-4.5749799904151018
 40
4.566670298579715
 50
299.97533828237823
 51
317.64742979113885
  0
ARC
  8
_0-0_
  6
CONTINUOUS
 62
    7
 10
11.062631117413019
 20
-7.0172713334290648
 40
1.1181716263379271
 50
325.44443937124851
 51
21.589413242955743
  0
ARC
  8
_0-0_
  6
CONTINUOUS
 62
    7
 10
8.5613480866543767
 20
-11.430164376412321
 40
5.9843861458656056
 50
53.721697797981363
 51
73.14819984786223
  0
ARC
  8
_0-0_
  6
CONTINUOUS
 62
    7
 10
-5.9097436001521118
 20
-3.1238360651879589
 40
3.7763735718077269
 50
223.07149481484961
 51
266.00181506140649
  0
ARC
  8
_0-0_
  6
CONTINUOUS
 62
    7
 10
-0.8488448745619193
 20
9.7054341807316149
 40
17.429556047471465
 50
252.21355959859758
 51
276.73136009809019
  0
ARC
  8
_0-0_
  6
CONTINUOUS
 62
    7
 10
0.6606474062376007
 20
10.378925028778241
 40
17.990810724684973
 50
271.6993037442453
 51
289.47983797188999
  0
ARC
  8
_0-0_
  6
CONTINUOUS
 62
    7
 10
4.3795375314711009
 20
-1.5496155891900258
 40
5.5251011172415705
 50
294.37898168699428
 51
308.57469701217468
  0
ARC
  8
_0-0_
  6
CONTINUOUS
 62
    7
 10
7.6701546077617309
 20
-5.6433480534695946
 40
0.2735575285147616
 50
304.38034472384192
 51
92.48955292200327
  0
ARC
  8
_0-0_
  6
CONTINUOUS
 62
    7
 10
-3.1163782972279392
 20
-47.354083700847603
 40
47.564965448201157
 50
86.992156578407787
 51
111.79274210323008
  0
ARC
  8
_0-0_
  6
CONTINUOUS
 62
    7
 10
-15.301666071706308
 20
-21.746466874506822
 40
19.348283549807714
 50
106.43208587046881
 51
125.48545265265253
  0
ARC
  8
_0-0_
  6
CONTINUOUS
 62
    7
 10
-23.921569233254701
 20
-8.3181419274070407
 40
3.497499084277722
 50
138.30828017670771
 51
226.16567795016752
  0
ARC
  8
_0-0_
  6
CONTINUOUS
 62
    7
 10
-14.900667777480194
 20
1.8744173470371521
 40
17.106416344018012
 50
228.01461655142168
 51
257.97720204305904
  0
ARC
  8
_0-0_
  6
CONTINUOUS
 62
    7
 10
0.7564229045535738
 20
57.71603458735548
 40
75.074856849077335
 50
255.16619767434975
 51
269.61412801054632
  0
ARC
  8
_0-0_
  6
CONTINUOUS
 62
    7
 10
0.4476819832865003
 20
43.139532914685148
 40
60.496972921608268
 50
269.81355210037964
 51
287.74877336839143
  0
ARC
  8
_0-0_
  6
CONTINUOUS
 62
    7
 10
10.990254219198533
 20
6.0166136557668608
 40
21.964270515015929
 50
291.07901488859602
 51
313.15064631199732
  0
ARC
  8
_0-0_
  6
CONTINUOUS
 62
    7
 10
23.585227616786952
 20
-7.9620405100708922
 40
3.173907558779498
 50
319.87246325376941
 51
49.815537496392096
  0
ARC
  8
_0-0_
  6
CONTINUOUS
 62
    7
 10
15.246578416455989
 20
-16.196735087791012
 40
14.883078468146545
 50
45.742773127933212
 51
76.731311715405141
  0
ARC
  8
_0-0_
  6
CONTINUOUS
 62
    7
 10
4.5290478218914103
 20
-51.186370186287583
 40
51.454544384406368
 50
74.057137311078108
 51
87.549550905664333
  0
ARC
  8
_0-0_
  6
CONTINUOUS
 62
    7
 10
3.6640229328579466
 20
-58.965325901141533
 40
59.2657558418584
 50
87.035573856350823
 51
94.145740572942515
  0
ARC
  8
_0-0_
  6
CONTINUOUS
 62
    7
 10
-25.616375406627441
 20
-5.3446337066809946
 40
2.4984713636435409
 50
138.24989616805431
 51
213.17179717430736
  0
ARC
  8
_0-0_
  6
CONTINUOUS
 62
    7
 10
-13.752303226483349
 20
-18.82799381544865
 40
20.442433355117199
 50
104.74842509491253
 51
132.18664123711616
  0
ARC
  8
_0-0_
  6
CONTINUOUS
 62
    7
 10
-1.054159336897726
 20
-68.42071337668709
 40
71.634685354086898
 50
89.986470181603195
 51
104.47223578012381
  0
ARC
  8
_0-0_
  6
CONTINUOUS
 62
    7
 10
1.177639498757145
 20
-72.844282878040829
 40
76.090495692149631
 50
79.310944509361121
 51
91.668031945928021
  0
ARC
  8
_0-0_
  6
CONTINUOUS
 62
    7
 10
9.7978310714682095
 20
-27.153945107989117
 40
29.594101986821027
 50
61.978769122946204
 51
79.303242525664615
  0
ARC
  8
_0-0_
  6
CONTINUOUS
 62
    7
 10
21.901605084576303
 20
-6.2684310248415471
 40
5.5397887947614173
 50
32.375028269929658
 51
71.044645345584215
  0
ARC
  8
_0-0_
  6
CONTINUOUS
 62
    7
 10
25.047601048779981
 20
-5.0040679017441079
 40
2.29038030070173
 50
336.5339958212918
 51
47.995551634492585
  0
ARC
  8
_0-0_
  6
CONTINUOUS
 62
    7
 10
19.957186409231994
 20
-6.5778783266298007
 40
7.2217572352727952
 50
5.25770715820489
 51
30.75061605362162
  0
ARC
  8
_0-0_
  6
CONTINUOUS
 62
    7
 10
-21.326296231911456
 20
-6.6866415044826653
 40
6.3814331089280287
 50
141.29147482905609
 51
180.22476861489531
  0
ARC
  8
_0-0_
  6
CONTINUOUS
 62
    7
 10
-24.335492800083969
 20
-5.4518308845943153
 40
5.8557537209340911
 50
193.94702588168772
 51
251.12145612831682
  0
ARC
  8
_0-0_
  6
CONTINUOUS
 62
    7
 10
-24.342158691970752
 20
-7.3019633087947682
 40
5.6933852620045382
 50
129.12783500166836
 51
175.58021427085436
  0
ARC
  8
_0-0_
  6
CONTINUOUS
 62
    7
 10
-13.819600150635466
 20
-23.727766541079362
 40
25.172391459949612
 50
105.86049194708342
 51
124.10758884715129
  0
ARC
  8
_0-0_
  6
CONTINUOUS
 62
    7
 10
11.764968062199301
 20
-26.991378731692564
 40
29.022899838198157
 50
60.42903618037078
 51
80.831439749826501
  0
ARC
  8
_0-0_
  6
CONTINUOUS
 62
    7
 10
23.439838618624592
 20
-7.1582098323488452
 40
6.022695304848261
 50
13.009198491982595
 51
63.917534210423625
  0
ARC
  8
_0-0_
  6
CONTINUOUS
 62
    7
 10
24.150460328597788
 20
-5.6355407816197669
 40
5.160195007808964
 50
306.56170205147896
 51
358.14634722104313
  0
ARC
  8
_0-0_
  6
CONTINUOUS
 62
    7
 10
19.606842419686515
 20
-2.2154745211149987
 40
10.735572819781952
 50
288.53319412303887
 51
315.1987612641687
  0
ARC
  8
_0-0_
  6
CONTINUOUS
 62
    7
 10
22.520781108433496
 20
-1.7796044403042686
 40
9.9437968731625439
 50
286.86642199574283
 51
331.26524708515905
  0
ARC
  8
_0-0_
  6
CONTINUOUS
 62
    7
 10
27.538035576711408
 20
-5.4704798550140339
 40
3.8590465956620177
 50
343.5986034676892
 51
54.799091100015119
  0
ARC
  8
_0-0_
  6
CONTINUOUS
 62
    7
 10
13.34495190610896
 20
-22.714652031444558
 40
26.183917447205971
 50
51.170033646522938
 51
79.88672528606736
  0
ARC
  8
_0-0_
  6
CONTINUOUS
 62
    7
 10
0.9407927183872999
 20
-78.854315593016238
 40
83.662530626156638
 50
78.274666700475606
 51
93.484260914100389
  0
ARC
  8
_0-0_
  6
CONTINUOUS
 62
    7
 10
-2.3848915803926047
 20
-65.854231584378454
 40
70.529733298169361
 50
91.428975007481995
 51
105.36921428822293
  0
ARC
  8
_0-0_
  6
CONTINUOUS
 62
    7
 10
-15.636975973834836
 20
-21.601504196769923
 40
24.369876700363022
 50
102.90096823562607
 51
123.56143279545702
  0
ARC
  8
_0-0_
  6
CONTINUOUS
 62
    7
 10
-25.378154960262705
 20
-7.0088359204135742
 40
6.8248599270120041
 50
123.14179117777623
 51
170.14172402813784
  0
ARC
  8
_0-0_
  6
CONTINUOUS
 62
    7
 10
-27.35160404863332
 20
-5.4028189049645761
 40
4.7707415280028069
 50
185.26194875243382
 51
231.49653741978153
  0
ARC
  8
_0-0_
  6
CONTINUOUS
 62
    7
 10
-22.050216218689059
 20
-0.3077754740041314
 40
12.097907450806675
 50
226.86569756746658
 51
256.90788468042166
  0
ARC
  8
_0-0_
  6
CONTINUOUS
 62
    7
 10
-23.628830655290542
 20
-5.5146131713155739
 40
9.212132389768664
 50
112.65587523164238
 51
153.5258199023651
  0
ARC
  8
_0-0_
  6
CONTINUOUS
 62
    7
 10
-8.9237053790955088
 20
-30.116418469196631
 40
37.802221381776576
 50
94.473356130040358
 51
118.87308075895754
  0
ARC
  8
_0-0_
  6
CONTINUOUS
 62
    7
 10
-0.9976101810397466
 20
-68.491920743088329
 40
76.83598660469967
 50
87.203463608931926
 51
98.136315915083415
  0
ARC
  8
_0-0_
  6
CONTINUOUS
 62
    7
 10
3.631977099526182
 20
-48.725190139087289
 40
56.984558832082428
 50
74.864315191538182
 51
90.885652110658313
  0
ARC
  8
_0-0_
  6
CONTINUOUS
 62
    7
 10
14.16964817809685
 20
-17.931752876151336
 40
24.600432894177136
 50
61.223817902606648
 51
79.835578078459548
  0
ARC
  8
_0-0_
  6
CONTINUOUS
 62
    7
 10
21.390034334409805
 20
-6.8665151365528203
 40
11.469713107985013
 50
43.94059166767741
 51
66.235747899102762
  0
ARC
  8
_0-0_
  6
CONTINUOUS
 62
    7
 10
25.077917514828599
 20
-3.5349494859070774
 40
6.5043749454440993
 50
21.579375363584596
 51
45.351383329125419
  0
LINE
  8
_0-0_
  6
CONTINUOUS
 62
    7
 10
-31.874935972507942
 20
-1.4078954717428473
 11
-32.10224083079784
 21
-5.9161084944924056
  0
LINE
  8
_0-0_
  6
CONTINUOUS
 62
    7
 10
31.126393916840996
 20
-1.142706470404633
 11
31.315814632082592
 21
-5.5751512070575728
  0
LINE
  8
_0-0_
  6
CONTINUOUS
 62
    7
 10
-11.417498726417492
 20
-7.469358359473361
 11
-10.318858578016332
 21
-7.014748642893565
  0
LINE
  8
_0-0_
  6
CONTINUOUS
 62
    7
 10
-11.038657295934328
 20
-6.5222547832654669
 11
-10.2430902919197
 21
-6.2570657819272526
  0
LINE
  8
_0-0_
  6
CONTINUOUS
 62
    7
 10
-10.053669576678118
 20
-8.7953033661644042
 11
-9.1444501435185401
 21
-8.1512729343430408
  0
LINE
  8
_0-0_
  6
CONTINUOUS
 62
    7
 10
-8.8034928560837074
 20
-9.477217941034084
 11
-8.0836941381657113
 21
-8.7953033661644042
  0
LINE
  8
_0-0_
  6
CONTINUOUS
 62
    7
 10
-5.6212248400251923
 20
-10.310669088097029
 11
-4.9014261221071962
 21
-9.5151020840824003
  0
LINE
  8
_0-0_
  6
CONTINUOUS
 62
    7
 10
-2.893566540546459
 20
-9.7424069423722983
 11
-3.0829872557880407
 21
-10.61374223248356
  0
LINE
  8
_0-0_
  6
CONTINUOUS
 62
    7
 10
0.8569636212367868
 20
-9.9697118006621963
 11
1.0085001934300521
 21
-10.689510518580192
  0
LINE
  8
_0-0_
  6
CONTINUOUS
 62
    7
 10
3.092128061087422
 20
-9.6666386562756657
 11
3.5467377776672038
 21
-10.462205660290294
  0
LINE
  8
_0-0_
  6
CONTINUOUS
 62
    7
 10
6.3501643632425697
 20
-8.9468399383576696
 11
7.0699630811605658
 21
-9.7424069423722983
  0
LINE
  8
_0-0_
  6
CONTINUOUS
 62
    7
 10
7.6382252268852966
 20
-8.3406936495846224
 11
8.6610970891898234
 21
-9.2120289396958839
  0
LINE
  8
_0-0_
  6
CONTINUOUS
 62
    7
 10
9.5703165223494011
 20
-7.355705930328412
 11
10.934145672088761
 21
-7.6966632177632448
  0
LINE
  8
_0-0_
  6
CONTINUOUS
 62
    7
 10
9.7597372375909686
 20
-6.3707182110722016
 11
11.085682244282026
 21
-6.5601389263137833
  0
LINE
  8
_0-0_
  6
CONTINUOUS
 62
    7
 10
-27.934985095483114
 20
-10.651626375531876
 11
-27.594027808048281
 21
-10.500089803338611
  0
LINE
  8
_0-0_
  6
CONTINUOUS
 62
    7
 10
-31.344557969831527
 20
-5.9161084944924056
 11
-30.208033678382066
 21
-6.3328340680238853
  0
LINE
  8
_0-0_
  6
CONTINUOUS
 62
    7
 10
-31.00360068239668
 20
-5.0068890613328421
 11
-30.094381249237117
 21
-5.3478463487676748
  0
LINE
  8
_0-0_
  6
CONTINUOUS
 62
    7
 10
-24.866369508569548
 20
0.2590068223830427
 11
-23.919265932361654
 21
-0.2713711802933714
  0
LINE
  8
_0-0_
  6
CONTINUOUS
 62
    7
 10
-22.820625783960494
 20
1.1682262555426206
 11
-22.02505877994588
 21
0.3347751084796755
  0
LINE
  8
_0-0_
  6
CONTINUOUS
 62
    7
 10
-6.9471698467162355
 20
4.1989576994078703
 11
-6.6819808453780212
 21
3.4033906953932416
  0
LINE
  8
_0-0_
  6
CONTINUOUS
 62
    7
 10
-3.9543225458993021
 20
4.388378414649452
 11
-3.8406701167543531
 21
3.5928114106348232
  0
LINE
  8
_0-0_
  6
CONTINUOUS
 62
    7
 10
14.267950260340541
 20
3.5549272675865069
 11
13.472383256325912
 21
2.3426346900403985
  0
LINE
  8
_0-0_
  6
CONTINUOUS
 62
    7
 10
16.881956130674311
 20
3.1382016940550272
 11
16.237925698852948
 21
2.0016774026055657
  0
LINE
  8
_0-0_
  6
CONTINUOUS
 62
    7
 10
28.285083188217342
 20
-1.4457796147911637
 11
27.37586375505775
 21
-2.3549990479507414
  0
LINE
  8
_0-0_
  6
CONTINUOUS
 62
    7
 10
29.307955050521869
 20
-2.3928831909990578
 11
28.133546616024077
 21
-3.0369136228204212
  0
LINE
  8
_0-0_
  6
CONTINUOUS
 62
    7
 10
28.701808761748808
 20
-8.2270412204396735
 11
29.8762171962466
 21
-7.9618522191014591
  0
LINE
  8
_0-0_
  6
CONTINUOUS
 62
    7
 10
28.20931490212071
 20
-8.9847240814059859
 11
29.307955050521869
 21
-8.8331875092127206
  0
ARC
  8
_0-0_
  6
CONTINUOUS
 62
    7
 10
-4.7039816875603009
 20
-14.084576373003742
 40
27.352525792066089
 50
109.01259731401579
 51
138.79575532248447
  0
ARC
  8
_0-0_
  6
CONTINUOUS
 62
    7
 10
-3.004109077351643
 20
-2.728468846210589
 40
17.971080499226044
 50
100.20963347884249
 51
149.34602925388529
  0
ARC
  8
_0-0_
  6
CONTINUOUS
 62
    7
 10
-0.0885058348724925
 20
6.3139706523169536
 40
9.6315476572833116
 50
117.66516657546883
 51
170.90868844952519
  0
ARC
  8
_0-0_
  6
CONTINUOUS
 62
    7
 10
-12.75784960463109
 20
4.0288639453873571
 40
18.480878184882233
 50
12.970206367642556
 51
36.254877887714152
  0
ARC
  8
_0-0_
  6
CONTINUOUS
 62
    7
 10
1.1352741107174182
 20
0.318813820140562
 40
15.27761288660246
 50
26.894755972418288
 51
72.888788388536184
  0
ARC
  8
_0-0_
  6
CONTINUOUS
 62
    7
 10
3.4373850380786735
 20
-12.394261920351966
 40
26.456690187981827
 50
40.011061853938585
 51
78.361290159385334
  0
LINE
  8
_0-0_
  6
CONTINUOUS
 62
    7
 10
-6.1894869857499231
 20
14.958054325129524
 11
5.6303656453245594
 21
14.920170182081208
  0
LINE
  8
_0-0_
  6
CONTINUOUS
 62
    7
 10
-2.9314506835947753
 20
14.806517752936259
 11
-2.9693348266430917
 21
13.442688603196899
  0
LINE
  8
_0-0_
  6
CONTINUOUS
 62
    7
 10
-2.9693348266430917
 20
13.442688603196899
 11
0.516006333801954
 21
13.518456889293518
  0
LINE
  8
_0-0_
  6
CONTINUOUS
 62
    7
 10
0.516006333801954
 20
13.518456889293518
 11
0.5538904768502702
 21
14.99593846817784
  0
LINE
  8
_0-0_
  6
CONTINUOUS
 62
    7
 10
-2.9693348266430917
 20
13.442688603196899
 11
-2.893566540546459
 21
8.9344755804473266
  0
LINE
  8
_0-0_
  6
CONTINUOUS
 62
    7
 10
0.516006333801954
 20
13.518456889293518
 11
0.781195335140154
 21
8.9723597234956429
  0
ARC
  8
_0-0_
  6
CONTINUOUS
 62
    7
 10
-3.2988328087597125
 20
20.369350921156453
 40
2.7886737300289868
 50
96.288550678764111
 51
203.6448884492456
  0
ARC
  8
_0-0_
  6
CONTINUOUS
 62
    7
 10
-0.0482796157502463
 20
15.613845169655207
 40
8.3250807994948737
 50
64.713520958843091
 51
115.28647904115691
  0
ARC
  8
_0-0_
  6
CONTINUOUS
 62
    7
 10
2.2967884478872094
 20
20.479560261044384
 40
2.9242009323871572
 50
339.03453369138703
 51
65.536641602278507
  0
ARC
  8
_0-0_
  6
CONTINUOUS
 62
    7
 10
-1.8234795119730194
 20
19.675988542119043
 40
4.9403772072744454
 50
100.13106231223051
 51
159.8427101776978
  0
ARC
  8
_0-0_
  6
CONTINUOUS
 62
    7
 10
-0.2593639778017689
 20
16.419228632469142
 40
8.4768067408531564
 50
57.478063178814281
 51
106.68045701790363
  0
ARC
  8
_0-0_
  6
CONTINUOUS
 62
    7
 10
-1.0278780588436405
 20
18.350798019411869
 40
7.4545750734332881
 50
24.475185118896334
 51
44.402793498710849
  0
ARC
  8
_0-0_
  6
CONTINUOUS
 62
    7
 10
-1.291407130075541
 20
20.635726452846669
 40
6.8435057092970393
 50
94.610361224997973
 51
143.97236311697054
  0
ARC
  8
_0-0_
  6
CONTINUOUS
 62
    7
 10
-0.0741313618961356
 20
19.431519249144515
 40
8.2178647118831236
 50
60.81433322859106
 51
102.41916980955024
  0
ARC
  8
_0-0_
  6
CONTINUOUS
 62
    7
 10
2.2833831195292618
 20
22.93575003137407
 40
4.0240933095940559
 50
14.326048767053809
 51
65.795520148693825
  0
ARC
  8
_0-0_
  6
CONTINUOUS
 62
    7
 10
-0.7221498702430578
 20
21.401353570649334
 40
7.7835440219516281
 50
94.665052847807715
 51
133.66820683816329
  0
ARC
  8
_0-0_
  6
CONTINUOUS
 62
    7
 10
0.0266433267253205
 20
22.122716895537849
 40
7.170796428877229
 50
53.440722068330558
 51
101.11056656082465
  0
ARC
  8
_0-0_
  6
CONTINUOUS
 62
    7
 10
2.6263280665859554
 20
24.995234237243537
 40
3.3363448910650564
 50
23.061519532293399
 51
59.931417178137707
  0
ARC
  8
_0-0_
  6
CONTINUOUS
 62
    7
 10
-0.1545231605316529
 20
22.508158468981946
 40
7.8599304654319537
 50
80.426567217938739
 51
131.01859298973736
  0
ARC
  8
_0-0_
  6
CONTINUOUS
 62
    7
 10
0.1018124489098822
 20
24.426406108193248
 40
5.9261366433267737
 50
43.328221590099261
 51
79.785921161174045
  0
ARC
  8
_0-0_
  6
CONTINUOUS
 62
    7
 10
-0.5724183172503386
 20
24.549479978206776
 40
6.7396749139272005
 50
85.028288855097273
 51
133.09686517398242
  0
ARC
  8
_0-0_
  6
CONTINUOUS
 62
    7
 10
-0.3896597945548875
 20
24.351697387767146
 40
6.9237412804459266
 50
47.012784395816183
 51
86.677044096252629
  0
ARC
  8
_0-0_
  6
CONTINUOUS
 62
    7
 10
-0.0263609525933077
 20
25.464954110826568
 40
6.9691852569543693
 50
88.570471126012535
 51
138.65807301013072
  0
ARC
  8
_0-0_
  6
CONTINUOUS
 62
    7
 10
-0.3669406600038199
 20
26.660351891827332
 40
5.7945000265040623
 50
35.36516604453508
 51
84.906504962960966
  0
ARC
  8
_0-0_
  6
CONTINUOUS
 62
    7
 10
-0.4994625570873694
 20
26.950194513165584
 40
6.4352774908286214
 50
88.351497842423129
 51
134.213800154735
  0
ARC
  8
_0-0_
  6
CONTINUOUS
 62
    7
 10
-0.1222530481003048
 20
28.09382265572502
 40
5.2924726746841486
 50
32.156170720810373
 51
92.079902113447162
  0
LINE
  8
_0-0_
  6
CONTINUOUS
 62
    7
 10
-4.9870245242525044
 20
31.562632477498383
 11
-5.3130262133849584
 21
27.732112630191921
  0
LINE
  8
_0-0_
  6
CONTINUOUS
 62
    7
 10
4.3583572308782124
 20
30.910629099233475
 11
4.4126908457336071
 21
27.786446245047344
  0
LINE
  8
_0-0_
  6
CONTINUOUS
 62
    7
 10
-6.0965401701241291
 20
27.031583268113124
 11
-6.345364895637772
 21
25.205599539415303
  0
LINE
  8
_0-0_
  6
CONTINUOUS
 62
    7
 10
-5.0685249465355895
 20
27.976613897041275
 11
-5.1500253688187172
 21
26.455272681089752
  0
LINE
  8
_0-0_
  6
CONTINUOUS
 62
    7
 10
-3.4385165008732628
 20
28.737284505017016
 11
-3.4656833083009815
 21
27.215943289065507
  0
LINE
  8
_0-0_
  6
CONTINUOUS
 62
    7
 10
-1.3195055215122125
 20
29.144786616432597
 11
-1.3466723289399454
 21
27.650612207908807
  0
LINE
  8
_0-0_
  6
CONTINUOUS
 62
    7
 10
0.8266722652765139
 20
29.117619809004907
 11
0.799505457848781
 21
27.677779015336512
  0
LINE
  8
_0-0_
  6
CONTINUOUS
 62
    7
 10
3.0000168594929164
 20
28.465616430739971
 11
3.0000168594929164
 21
27.215943289065507
  0
LINE
  8
_0-0_
  6
CONTINUOUS
 62
    7
 10
4.3855240383058884
 20
27.596278593053384
 11
4.4126908457336071
 21
26.56393991080057
  0
LINE
  8
_0-0_
  6
CONTINUOUS
 62
    7
 10
5.7438644096911986
 20
26.237938221668102
 11
5.7438644096911986
 21
24.961098272565948
  0
LINE
  8
_0-0_
  6
CONTINUOUS
 62
    7
 10
-6.8259786289430906
 20
24.660908276951503
 11
-6.8887010441918619
 21
21.864082225807536
  0
LINE
  8
_0-0_
  6
CONTINUOUS
 62
    7
 10
-6.8887010441918619
 20
21.864082225807536
 11
-6.4612593995336169
 21
21.378435212266155
  0
LINE
  8
_0-0_
  6
CONTINUOUS
 62
    7
 10
6.1823405533283875
 20
23.931469818132555
 11
6.0155324839682152
 21
21.646747766385886
  0
LINE
  8
_0-0_
  6
CONTINUOUS
 62
    7
 10
6.0155324839682152
 20
21.646747766385886
 11
5.7568347856839779
 21
21.439221750501105
  0
LINE
  8
_0-0_
  6
CONTINUOUS
 62
    7
 10
5.7568347856839779
 20
21.439221750501105
 11
5.7710312171188747
 21
20.342741009856013
  0
LINE
  8
_0-0_
  6
CONTINUOUS
 62
    7
 10
5.7710312171188747
 20
20.342741009856013
 11
5.5808635651249432
 21
19.772238053874204
  0
LINE
  8
_0-0_
  6
CONTINUOUS
 62
    7
 10
5.5808635651249432
 20
19.772238053874204
 11
5.091861031426248
 21
19.391902749886327
  0
LINE
  8
_0-0_
  6
CONTINUOUS
 62
    7
 10
-6.4612593995336169
 20
21.378435212266155
 11
-6.4811989327762802
 21
20.831743543554737
  0
LINE
  8
_0-0_
  6
CONTINUOUS
 62
    7
 10
-6.4811989327762802
 20
20.831743543554737
 11
-6.372531703065448
 21
20.043906128151278
  0
LINE
  8
_0-0_
  6
CONTINUOUS
 62
    7
 10
-6.372531703065448
 20
20.043906128151278
 11
-6.0736968213606986
 21
19.44623636474175
  0
LINE
  8
_0-0_
  6
CONTINUOUS
 62
    7
 10
-6.0736968213606986
 20
19.44623636474175
 11
-5.8533940171844705
 21
19.250906374044192
  0
LINE
  8
_0-0_
  6
CONTINUOUS
 62
    7
 10
-5.8864138413634066
 20
20.451255067135293
 11
-6.1894869857499231
 21
14.958054325129524
  0
LINE
  8
_0-0_
  6
CONTINUOUS
 62
    7
 10
5.6303656453245594
 20
14.920170182081208
 11
4.9105669274065633
 21
20.716444068473493
  0
LINE
  8
_0-0_
  6
CONTINUOUS
 62
    7
 10
-3.9912414878508571
 20
22.260041922486707
 11
-4.3729785216243329
 21
17.924599896059405
  0
LINE
  8
_0-0_
  6
CONTINUOUS
 62
    7
 10
0.3169336075926452
 20
22.314575784454348
 11
0.3169336075926452
 21
18.824408618525453
  0
LINE
  8
_0-0_
  6
CONTINUOUS
 62
    7
 10
-8.9394079251757148
 20
-6.1453847401604236
 11
-9.1721320494962129
 21
-7.2314306536560906
  0
LINE
  8
_0-0_
  6
CONTINUOUS
 62
    7
 10
-4.6534053022732138
 20
-7.6774852252703738
 11
-4.6146179482198022
 21
-8.976861586059826
  0
LINE
  8
_0-0_
  6
CONTINUOUS
 62
    7
 10
-1.8413221334005243
 20
-7.8714219955374602
 11
-1.8607158104272372
 21
-9.1707983563268982
  0
LINE
  8
_0-0_
  6
CONTINUOUS
 62
    7
 10
2.308924750315029
 20
-7.7938472874306228
 11
2.2507437192349045
 21
-9.1320110022734866
  0
LINE
  8
_0-0_
  6
CONTINUOUS
 62
    7
 10
5.1597952732411301
 20
-7.3283990387896267
 11
5.1210079191877043
 21
-8.608381722552366
  0
LINE
  8
_0-0_
  6
CONTINUOUS
 62
    7
 10
8.3015709515678537
 20
-6.0678100320536004
 11
8.3015709515678537
 21
-7.0374938833890042
  0
LINE
  8
_0-0_
  6
CONTINUOUS
 62
    7
 10
7.8555163799535705
 20
-6.5332582806945965
 11
7.7779416718467331
 21
-7.4641547779765887
  0
LINE
  8
_0-0_
  6
CONTINUOUS
 62
    7
 10
-6.7673160981844092
 20
-7.2896116847362151
 11
-6.7673160981844092
 21
-8.4338386293119925
  0
LINE
  8
_0-0_
  6
CONTINUOUS
 62
    7
 10
-8.7842585089620542
 20
-6.2811404793473855
 11
-9.0169826332825522
 21
-7.3671863928430525
  0
LINE
  8
_0-0_
  6
CONTINUOUS
 62
    7
 10
-8.6485027697750922
 20
-6.4168962185343332
 11
-8.8812268940955903
 21
-7.5029421320300003
  0
LINE
  8
_0-0_
  6
CONTINUOUS
 62
    7
 10
-8.4157786454545942
 20
-6.5138646036678836
 11
-8.6485027697750922
 21
-7.5999105171635506
  0
LINE
  8
_0-0_
  6
CONTINUOUS
 62
    7
 10
-8.221841875187522
 20
-6.6302266658281326
 11
-8.45456599950802
 21
-7.7162725793237996
  0
LINE
  8
_0-0_
  6
CONTINUOUS
 62
    7
 10
-7.9503303968135981
 20
-6.7853760820417932
 11
-8.1830545211340961
 21
-7.8714219955374602
  0
LINE
  8
_0-0_
  6
CONTINUOUS
 62
    7
 10
-7.7757873035732246
 20
-6.8435571131219177
 11
-8.0085114278937226
 21
-7.9296030266175848
  0
LINE
  8
_0-0_
  6
CONTINUOUS
 62
    7
 10
-7.5818505333061523
 20
-6.9405254982554538
 11
-7.8145746576266504
 21
-8.0265714117511209
  0
LINE
  8
_0-0_
  6
CONTINUOUS
 62
    7
 10
-7.3297327319589414
 20
-7.0568875604157029
 11
-7.5624568562794394
 21
-8.1429334739113699
  0
LINE
  8
_0-0_
  6
CONTINUOUS
 62
    7
 10
-7.1939769927719794
 20
-7.1247654300091909
 11
-7.1939769927719794
 21
-8.2689923745849683
  0
LINE
  8
_0-0_
  6
CONTINUOUS
 62
    7
 10
-7.0388275765583188
 20
-7.1829464610893154
 11
-7.0388275765583188
 21
-8.3271734056650928
  0
LINE
  8
_0-0_
  6
CONTINUOUS
 62
    7
 10
-6.5927730049440356
 20
-7.3380958773029761
 11
-6.5927730049440356
 21
-8.4823228218787534
  0
LINE
  8
_0-0_
  6
CONTINUOUS
 62
    7
 10
-6.3406552035968105
 20
-7.3380958773029761
 11
-6.3018678495433988
 21
-8.6374722380924283
  0
LINE
  8
_0-0_
  6
CONTINUOUS
 62
    7
 10
-6.1079310792763124
 20
-7.4544579394632251
 11
-6.0691437252229008
 21
-8.7538343002526773
  0
LINE
  8
_0-0_
  6
CONTINUOUS
 62
    7
 10
-5.8170259238756898
 20
-7.4932452935166367
 11
-5.7782385698222782
 21
-8.7926216543060889
  0
LINE
  8
_0-0_
  6
CONTINUOUS
 62
    7
 10
-5.5067270914483686
 20
-7.6096073556768857
 11
-5.467939737394957
 21
-8.9089837164663379
  0
LINE
  8
_0-0_
  6
CONTINUOUS
 62
    7
 10
-5.1964282590210331
 20
-7.6483947097302973
 11
-5.1576409049676215
 21
-8.9477710705197495
  0
LINE
  8
_0-0_
  6
CONTINUOUS
 62
    7
 10
-4.9443104576738222
 20
-7.6483947097302973
 11
-4.9055231036204106
 21
-8.9477710705197495
  0
LINE
  8
_0-0_
  6
CONTINUOUS
 62
    7
 10
-4.4109843394393522
 20
-7.7453630948638619
 11
-4.4303780164660651
 21
-9.0447394556532998
  0
LINE
  8
_0-0_
  6
CONTINUOUS
 62
    7
 10
-4.1200791840387296
 20
-7.8229378029706851
 11
-4.1394728610654425
 21
-9.1223141637601231
  0
LINE
  8
_0-0_
  6
CONTINUOUS
 62
    7
 10
-3.8291740286381071
 20
-7.8811188340508096
 11
-3.84856770566482
 21
-9.1804951948402476
  0
LINE
  8
_0-0_
  6
CONTINUOUS
 62
    7
 10
-3.2085763637834361
 20
-7.9005125110775225
 11
-3.227970040810149
 21
-9.1998888718669605
  0
LINE
  8
_0-0_
  6
CONTINUOUS
 62
    7
 10
-3.4606941651306471
 20
-7.9005125110775225
 11
-3.48008784215736
 21
-9.1998888718669605
  0
LINE
  8
_0-0_
  6
CONTINUOUS
 62
    7
 10
-2.8982775313561149
 20
-7.958693542157647
 11
-2.9176712083828278
 21
-9.258069902947085
  0
LINE
  8
_0-0_
  6
CONTINUOUS
 62
    7
 10
-2.5297976678486549
 20
-7.958693542157647
 11
-2.5491913448753678
 21
-9.258069902947085
  0
LINE
  8
_0-0_
  6
CONTINUOUS
 62
    7
 10
-2.3552545746082814
 20
-7.9780872191843599
 11
-2.3746482516349943
 21
-9.2774635799737979
  0
LINE
  8
_0-0_
  6
CONTINUOUS
 62
    7
 10
-1.5213264624598253
 20
-7.9780872191843599
 11
-1.5407201394865382
 21
-9.2774635799737979
  0
LINE
  8
_0-0_
  6
CONTINUOUS
 62
    7
 10
-1.1140592448989537
 20
-8.0168745732377715
 11
-1.1334529219256666
 21
-9.3162509340272095
  0
LINE
  8
_0-0_
  6
CONTINUOUS
 62
    7
 10
-0.6486109962579574
 20
-8.0168745732377715
 11
-0.6680046732846705
 21
-9.3162509340272095
  0
LINE
  8
_0-0_
  6
CONTINUOUS
 62
    7
 10
-0.1443753935635498
 20
-8.0168745732377715
 11
-0.1637690705902628
 21
-9.3162509340272095
  0
LINE
  8
_0-0_
  6
CONTINUOUS
 62
    7
 10
0.2047107929171971
 20
-8.0168745732377715
 11
0.1853171158904841
 21
-9.3162509340272095
  0
LINE
  8
_0-0_
  6
CONTINUOUS
 62
    7
 10
0.6701590415581931
 20
-7.958693542157647
 11
0.6507653645314802
 21
-9.258069902947085
  0
LINE
  8
_0-0_
  6
CONTINUOUS
 62
    7
 10
1.0192452280389404
 20
-7.9392998651309341
 11
0.9998515510122274
 21
-9.2386762259203721
  0
LINE
  8
_0-0_
  6
CONTINUOUS
 62
    7
 10
1.3877250915464003
 20
-7.8811188340508096
 11
1.3683314145196874
 21
-9.1804951948402476
  0
LINE
  8
_0-0_
  6
CONTINUOUS
 62
    7
 10
1.7174176010004345
 20
-7.8811188340508096
 11
1.6980239239737216
 21
-9.1804951948402476
  0
LINE
  8
_0-0_
  6
CONTINUOUS
 62
    7
 10
1.9501417253209326
 20
-7.8617251570241109
 11
1.9307480482942196
 21
-9.1611015178135489
  0
LINE
  8
_0-0_
  6
CONTINUOUS
 62
    7
 10
2.6289204212557138
 20
-7.842331479997398
 11
2.5707393901755893
 21
-9.1804951948402618
  0
LINE
  8
_0-0_
  6
CONTINUOUS
 62
    7
 10
2.9974002847631596
 20
-7.6677883867570245
 11
2.939219253683035
 21
-9.0059521015998882
  0
LINE
  8
_0-0_
  6
CONTINUOUS
 62
    7
 10
3.3852738252973325
 20
-7.6871820637837232
 11
3.3270927942172079
 21
-9.0253457786265869
  0
LINE
  8
_0-0_
  6
CONTINUOUS
 62
    7
 10
3.6955726577246537
 20
-7.6677883867570245
 11
3.6373916266445292
 21
-9.0059521015998882
  0
LINE
  8
_0-0_
  6
CONTINUOUS
 62
    7
 10
4.0834461982588266
 20
-7.6096073556768999
 11
4.0252651671787021
 21
-8.9477710705197637
  0
LINE
  8
_0-0_
  6
CONTINUOUS
 62
    7
 10
4.3743513536594492
 20
-7.6096073556768999
 11
4.3161703225793246
 21
-8.9477710705197637
  0
LINE
  8
_0-0_
  6
CONTINUOUS
 62
    7
 10
4.7622248941936078
 20
-7.4350642624365264
 11
4.7040438631134833
 21
-8.7732279772793902
  0
LINE
  8
_0-0_
  6
CONTINUOUS
 62
    7
 10
5.460397267155102
 20
-7.2799148462228516
 11
5.4022162360749775
 21
-8.6180785610657153
  0
LINE
  8
_0-0_
  6
CONTINUOUS
 62
    7
 10
5.6931213914756
 20
-7.1635527840626025
 11
5.6349403603954755
 21
-8.5017164989054663
  0
LINE
  8
_0-0_
  6
CONTINUOUS
 62
    7
 10
6.0422075779563471
 20
-7.0665843989290664
 11
5.9840265468762226
 21
-8.4047481137719302
  0
LINE
  8
_0-0_
  6
CONTINUOUS
 62
    7
 10
6.2361443482234336
 20
-6.9696160137955303
 11
6.177963317143309
 21
-8.3077797286383941
  0
LINE
  8
_0-0_
  6
CONTINUOUS
 62
    7
 10
8.0494531502206428
 20
-6.3005341563740984
 11
7.9718784421138054
 21
-7.2314306536560906
  0
LINE
  8
_0-0_
  6
CONTINUOUS
 62
    7
 10
7.6033985786063596
 20
-6.6108329888014197
 11
7.5258238704995222
 21
-7.5417294860834119
  0
LINE
  8
_0-0_
  6
CONTINUOUS
 62
    7
 10
7.2930997461790241
 20
-6.7853760820417932
 11
7.2155250380721867
 21
-7.7162725793237854
  0
LINE
  8
_0-0_
  6
CONTINUOUS
 62
    7
 10
6.9828009137516887
 20
-6.8435571131219177
 11
6.9052262056448512
 21
-7.7744536104039099
  0
LINE
  8
_0-0_
  6
CONTINUOUS
 62
    7
 10
6.6918957583510661
 20
-6.9987065293355926
 11
6.6143210502442287
 21
-7.9296030266175848
  0
LINE
  8
_0-0_
  6
CONTINUOUS
 62
    7
 10
6.478565311057281
 20
-7.0568875604157171
 11
6.4009906029504435
 21
-7.9877840576977093
  0
LINE
  8
_0-0_
  6
CONTINUOUS
 62
    7
 10
-31.589040389011174
 20
-1.1183048367341542
 11
-31.70309662120647
 21
-3.6503531914696055
  0
LINE
  8
_0-0_
  6
CONTINUOUS
 62
    7
 10
-13.705023180789681
 20
6.8884426633752156
 11
-13.705023180789681
 21
4.3107718157616546
  0
LINE
  8
_0-0_
  6
CONTINUOUS
 62
    7
 10
-20.548397112507089
 20
5.382900398397382
 11
-20.662453344702385
 21
2.6911733185885254
  0
LINE
  8
_0-0_
  6
CONTINUOUS
 62
    7
 10
-26.023096257881022
 20
3.1702094938087555
 11
-26.137152490076303
 21
0.8890848499029431
  0
LINE
  8
_0-0_
  6
CONTINUOUS
 62
    7
 10
-29.056992034275737
 20
1.0943860678544723
 11
-29.079803280714799
 21
-0.7989473865873435
  0
LINE
  8
_0-0_
  6
CONTINUOUS
 62
    7
 10
-31.349522301401052
 20
-0.5822405454162975
 11
-31.463578533596348
 21
-3.1142889001517489
  0
LINE
  8
_0-0_
  6
CONTINUOUS
 62
    7
 10
-31.052976097693303
 20
-0.3769393274647683
 11
-31.167032329888599
 21
-2.9089876822002196
  0
LINE
  8
_0-0_
  6
CONTINUOUS
 62
    7
 10
-30.779241140424617
 20
-0.0803931237570195
 11
-30.893297372619912
 21
-2.612441478492471
  0
LINE
  8
_0-0_
  6
CONTINUOUS
 62
    7
 10
-30.414261197399682
 20
0.2845868192679147
 11
-30.528317429594978
 21
-2.2474615354675365
  0
LINE
  8
_0-0_
  6
CONTINUOUS
 62
    7
 10
-30.003658761496638
 20
0.8092454873662545
 11
-30.117714993691934
 21
-1.7228028673691966
  0
LINE
  8
_0-0_
  6
CONTINUOUS
 62
    7
 10
-29.707112557788875
 20
1.151414183952113
 11
-29.821168789984171
 21
-1.3806341707833383
  0
LINE
  8
_0-0_
  6
CONTINUOUS
 62
    7
 10
-29.410566354081126
 20
1.3339041554645803
 11
-29.524622586276422
 21
-1.198144199270871
  0
LINE
  8
_0-0_
  6
CONTINUOUS
 62
    7
 10
-28.794662700226567
 20
1.6304503591723432
 11
-28.908718932421863
 21
-0.901597995563108
  0
LINE
  8
_0-0_
  6
CONTINUOUS
 62
    7
 10
-28.361249017884461
 20
1.9726190557582015
 11
-28.475305250079757
 21
-0.5594292989772498
  0
LINE
  8
_0-0_
  6
CONTINUOUS
 62
    7
 10
-27.882212842664245
 20
2.337598998783136
 11
-27.996269074859541
 21
-0.1944493559523151
  0
LINE
  8
_0-0_
  6
CONTINUOUS
 62
    7
 10
-27.56285539251742
 20
2.6113339560518369
 11
-27.676911624712716
 21
0.0792856013163855
  0
LINE
  8
_0-0_
  6
CONTINUOUS
 62
    7
 10
-27.15225295661439
 20
2.7482014346861803
 11
-27.266309188809686
 21
0.2161530799507289
  0
LINE
  8
_0-0_
  6
CONTINUOUS
 62
    7
 10
-26.832895506467565
 20
2.8394464204424139
 11
-26.946951738662861
 21
0.3073980657069626
  0
LINE
  8
_0-0_
  6
CONTINUOUS
 62
    7
 10
-26.513538056320755
 20
3.0447476383939431
 11
-26.62759428851605
 21
0.5126992836584918
  0
LINE
  8
_0-0_
  6
CONTINUOUS
 62
    7
 10
-25.692333184514681
 20
3.4667556975165184
 11
-25.806389416709962
 21
1.185631053610706
  0
LINE
  8
_0-0_
  6
CONTINUOUS
 62
    7
 10
-25.304541995050698
 20
3.6036231761508617
 11
-25.41859822724598
 21
1.3224985322450493
  0
LINE
  8
_0-0_
  6
CONTINUOUS
 62
    7
 10
-24.871128312708592
 20
3.8317356405414387
 11
-24.985184544903873
 21
1.5506109966356263
  0
LINE
  8
_0-0_
  6
CONTINUOUS
 62
    7
 10
-24.506148369683672
 20
3.9686031191757962
 11
-24.620204601878953
 21
1.6874784752699838
  0
LINE
  8
_0-0_
  6
CONTINUOUS
 62
    7
 10
-24.095545933780613
 20
4.1282818442492015
 11
-24.209602165975895
 21
1.8471572003433891
  0
LINE
  8
_0-0_
  6
CONTINUOUS
 62
    7
 10
-23.639321004999459
 20
4.2879605693226068
 11
-23.753377237194741
 21
2.0068359254167945
  0
LINE
  8
_0-0_
  6
CONTINUOUS
 62
    7
 10
-23.137473583340181
 20
4.5388842801522458
 11
-23.251529815535463
 21
2.2577596362464334
  0
LINE
  8
_0-0_
  6
CONTINUOUS
 62
    7
 10
-22.840927379632433
 20
4.6757517587865891
 11
-22.954983611827714
 21
2.3946271148807767
  0
LINE
  8
_0-0_
  6
CONTINUOUS
 62
    7
 10
-22.361891204412217
 20
4.6985630052256511
 11
-22.475947436607498
 21
2.4174383613198387
  0
LINE
  8
_0-0_
  6
CONTINUOUS
 62
    7
 10
-21.97410001494822
 20
4.8126192374209324
 11
-22.088156247143502
 21
2.5314945935151201
  0
LINE
  8
_0-0_
  6
CONTINUOUS
 62
    7
 10
-21.426630100410833
 20
4.9951092089333997
 11
-21.540686332606114
 21
2.7139845650275873
  0
LINE
  8
_0-0_
  6
CONTINUOUS
 62
    7
 10
-21.038838910946851
 20
5.0635429482505714
 11
-21.152895143142132
 21
2.782418304344759
  0
LINE
  8
_0-0_
  6
CONTINUOUS
 62
    7
 10
-19.966710328311095
 20
5.4285228912755059
 11
-20.08076656050639
 21
2.7367958114666493
  0
LINE
  8
_0-0_
  6
CONTINUOUS
 62
    7
 10
-19.213939195822192
 20
5.6794466021051306
 11
-19.327995428017488
 21
2.987719522296274
  0
LINE
  8
_0-0_
  6
CONTINUOUS
 62
    7
 10
-18.712091774162914
 20
5.7478803414223165
 11
-18.82614800635821
 21
3.0561532616134599
  0
LINE
  8
_0-0_
  6
CONTINUOUS
 62
    7
 10
-18.118999366747403
 20
6.1128602844472368
 11
-18.233055598942698
 21
3.4211332046383802
  0
LINE
  8
_0-0_
  6
CONTINUOUS
 62
    7
 10
-17.434661973575658
 20
6.2269165166425324
 11
-17.548718205770953
 21
3.5351894368336758
  0
LINE
  8
_0-0_
  6
CONTINUOUS
 62
    7
 10
-16.818758319721098
 20
6.3637839952768758
 11
-16.932814551916394
 21
3.6720569154680192
  0
LINE
  8
_0-0_
  6
CONTINUOUS
 62
    7
 10
-16.202854665866525
 20
6.5006514739112191
 11
-16.31691089806182
 21
3.8089243941023625
  0
LINE
  8
_0-0_
  6
CONTINUOUS
 62
    7
 10
-15.746629737085371
 20
6.6375189525455767
 11
-15.860685969280667
 21
3.9457918727367201
  0
LINE
  8
_0-0_
  6
CONTINUOUS
 62
    7
 10
-15.039481097474564
 20
6.6375189525455767
 11
-15.153537329669859
 21
3.9457918727367201
  0
LINE
  8
_0-0_
  6
CONTINUOUS
 62
    7
 10
-14.469199936498114
 20
6.7515751847408723
 11
-14.58325616869341
 21
4.0598481049320156
  0
LINE
  8
_0-0_
  6
CONTINUOUS
 62
    7
 10
-13.134742019813231
 20
6.9454707794728421
 11
-13.134742019813231
 21
4.3677999318592811
  0
LINE
  8
_0-0_
  6
CONTINUOUS
 62
    7
 10
-12.359159640885267
 20
6.9454707794728421
 11
-12.359159640885267
 21
4.3677999318592811
  0
LINE
  8
_0-0_
  6
CONTINUOUS
 62
    7
 10
-11.492332276201054
 20
7.1507719974243571
 11
-11.492332276201054
 21
4.5731011498107961
  0
LINE
  8
_0-0_
  6
CONTINUOUS
 62
    7
 10
-10.853617375907433
 20
7.0823382581071854
 11
-10.853617375907433
 21
4.5046674104936244
  0
LINE
  8
_0-0_
  6
CONTINUOUS
 62
    7
 10
-10.237713722052874
 20
7.1735832438634191
 11
-10.237713722052874
 21
4.595912396249858
  0
LINE
  8
_0-0_
  6
CONTINUOUS
 62
    7
 10
-9.5533763288811286
 20
7.2876394760587146
 11
-9.5533763288811286
 21
4.7099686284451536
  0
LINE
  8
_0-0_
  6
CONTINUOUS
 62
    7
 10
-8.8006051963922118
 20
7.3788844618149483
 11
-8.8006051963922118
 21
4.8012136142013873
  0
LINE
  8
_0-0_
  6
CONTINUOUS
 62
    7
 10
-8.2303240354157623
 20
7.4929406940102297
 11
-8.2303240354157623
 21
4.9152698463966686
  0
LINE
  8
_0-0_
  6
CONTINUOUS
 62
    7
 10
-7.4547416564877835
 20
7.4701294475711677
 11
-7.4547416564877835
 21
4.8924585999576067
  0
LINE
  8
_0-0_
  6
CONTINUOUS
 62
    7
 10
-6.7247817704379287
 20
7.7210531584008066
 11
-6.7247817704379287
 21
5.1433823107872456
  0
LINE
  8
_0-0_
  6
CONTINUOUS
 62
    7
 10
-5.9263881450709022
 20
7.7894868977179925
 11
-5.9263881450709022
 21
5.2118160501044315
  0
LINE
  8
_0-0_
  6
CONTINUOUS
 62
    7
 10
-5.1964282590210473
 20
7.7894868977179925
 11
-5.1964282590210473
 21
5.2118160501044315
  0
LINE
  8
_0-0_
  6
CONTINUOUS
 62
    7
 10
-4.7858258231180031
 20
7.9491656227913978
 11
-4.7858258231180031
 21
5.3714947751778368
  0
LINE
  8
_0-0_
  6
CONTINUOUS
 62
    7
 10
-4.078677183507196
 20
7.9035431299132739
 11
-4.078677183507196
 21
5.3258722822997129
  0
LINE
  8
_0-0_
  6
CONTINUOUS
 62
    7
 10
-3.3487172974573411
 20
7.9491656227913978
 11
-3.3487172974573411
 21
5.3714947751778368
  0
LINE
  8
_0-0_
  6
CONTINUOUS
 62
    7
 10
-2.5503236720903146
 20
7.9947881156695075
 11
-2.5503236720903146
 21
5.4171172680559465
  0
LINE
  8
_0-0_
  6
CONTINUOUS
 62
    7
 10
-2.1397212361872704
 20
8.0632218549866792
 11
-2.1397212361872704
 21
5.4855510073731182
  0
LINE
  8
_0-0_
  6
CONTINUOUS
 62
    7
 10
-1.6834963074061022
 20
8.0632218549866792
 11
-1.6834963074061022
 21
5.4855510073731182
  0
LINE
  8
_0-0_
  6
CONTINUOUS
 62
    7
 10
-0.9763476677953093
 20
7.9947881156695075
 11
-0.9763476677953093
 21
5.4171172680559465
  0
LINE
  8
_0-0_
  6
CONTINUOUS
 62
    7
 10
-0.0410865637939252
 20
7.8807318834742119
 11
-0.0410865637939252
 21
5.3030610358606509
  0
LINE
  8
_0-0_
  6
CONTINUOUS
 62
    7
 10
0.9397970330855685
 20
7.9263543763523359
 11
0.9397970330855685
 21
5.3486835287387748
  0
LINE
  8
_0-0_
  6
CONTINUOUS
 62
    7
 10
1.6697569191354233
 20
7.8807318834742119
 11
1.6697569191354233
 21
5.3030610358606509
  0
LINE
  8
_0-0_
  6
CONTINUOUS
 62
    7
 10
2.1716043407947012
 20
7.8807318834742119
 11
2.1716043407947012
 21
5.3030610358606509
  0
LINE
  8
_0-0_
  6
CONTINUOUS
 62
    7
 10
2.9928092126007897
 20
7.9035431299132739
 11
2.9928092126007897
 21
5.3258722822997129
  0
LINE
  8
_0-0_
  6
CONTINUOUS
 62
    7
 10
3.7227690986506445
 20
7.9263543763523359
 11
3.7227690986506445
 21
5.3486835287387748
  0
LINE
  8
_0-0_
  6
CONTINUOUS
 62
    7
 10
4.566785216895795
 20
7.8807318834742119
 11
4.566785216895795
 21
5.3030610358606509
  0
LINE
  8
_0-0_
  6
CONTINUOUS
 62
    7
 10
5.1826888707503684
 20
7.8122981441570403
 11
5.1826888707503684
 21
5.2346272965434792
  0
LINE
  8
_0-0_
  6
CONTINUOUS
 62
    7
 10
5.981082496117395
 20
7.7210531584008066
 11
5.981082496117395
 21
5.1433823107872456
  0
LINE
  8
_0-0_
  6
CONTINUOUS
 62
    7
 10
6.5057411642157206
 20
7.652619419083635
 11
6.5057411642157206
 21
5.0749485714700739
  0
LINE
  8
_0-0_
  6
CONTINUOUS
 62
    7
 10
7.372568528899933
 20
7.652619419083635
 11
7.372568528899933
 21
5.0749485714700739
  0
LINE
  8
_0-0_
  6
CONTINUOUS
 62
    7
 10
8.0340946756326161
 20
7.652619419083635
 11
8.0340946756326161
 21
5.0749485714700739
  0
LINE
  8
_0-0_
  6
CONTINUOUS
 62
    7
 10
8.6728095759262374
 20
7.5841856797664633
 11
8.6728095759262374
 21
5.0065148321529023
  0
LINE
  8
_0-0_
  6
CONTINUOUS
 62
    7
 10
9.4483919548542161
 20
7.3332619689368244
 11
9.4483919548542161
 21
4.7555911213232633
  0
LINE
  8
_0-0_
  6
CONTINUOUS
 62
    7
 10
10.109918101586899
 20
7.4929406940102297
 11
10.109918101586899
 21
4.9152698463966686
  0
LINE
  8
_0-0_
  6
CONTINUOUS
 62
    7
 10
10.817066741197692
 20
7.401695708253996
 11
10.817066741197692
 21
4.824024860640435
  0
LINE
  8
_0-0_
  6
CONTINUOUS
 62
    7
 10
11.432970395052266
 20
7.2876394760587146
 11
11.432970395052266
 21
4.7099686284451536
  0
LINE
  8
_0-0_
  6
CONTINUOUS
 62
    7
 10
12.185741527541182
 20
7.2192057367415288
 11
12.185741527541182
 21
4.6415348891279677
  0
LINE
  8
_0-0_
  6
CONTINUOUS
 62
    7
 10
12.77883393495668
 20
7.2192057367415288
 11
12.77883393495668
 21
4.6415348891279677
  0
LINE
  8
_0-0_
  6
CONTINUOUS
 62
    7
 10
13.417548835250315
 20
7.1051495045462474
 11
13.417548835250315
 21
4.5274786569326864
  0
LINE
  8
_0-0_
  6
CONTINUOUS
 62
    7
 10
13.965018749787703
 20
6.7629808079603748
 11
13.965018749787703
 21
4.1853099603468138
  0
LINE
  8
_0-0_
  6
CONTINUOUS
 62
    7
 10
14.580922403642276
 20
6.6261133293260315
 11
14.580922403642276
 21
4.0484424817124705
  0
LINE
  8
_0-0_
  6
CONTINUOUS
 62
    7
 10
15.424938521887412
 20
6.5348683435697978
 11
15.424938521887412
 21
3.9571974959562368
  0
LINE
  8
_0-0_
  6
CONTINUOUS
 62
    7
 10
16.063653422181048
 20
6.3751896184963925
 11
16.063653422181048
 21
3.7975187708828315
  0
LINE
  8
_0-0_
  6
CONTINUOUS
 62
    7
 10
16.656745829596545
 20
6.3751896184963925
 11
16.656745829596545
 21
3.7975187708828315
  0
LINE
  8
_0-0_
  6
CONTINUOUS
 62
    7
 10
17.158593251255823
 20
6.2611333863010969
 11
17.158593251255823
 21
3.6834625386875359
  0
LINE
  8
_0-0_
  6
CONTINUOUS
 62
    7
 10
17.409516962085476
 20
6.2839446327401589
 11
17.409516962085476
 21
3.7062737851265979
  0
LINE
  8
_0-0_
  6
CONTINUOUS
 62
    7
 10
17.842930644427568
 20
6.0786434147886297
 11
17.842930644427568
 21
3.5009725671750687
  0
LINE
  8
_0-0_
  6
CONTINUOUS
 62
    7
 10
18.527268037599313
 20
5.9303703129347696
 11
18.618513023355533
 21
3.4895669439555519
  0
LINE
  8
_0-0_
  6
CONTINUOUS
 62
    7
 10
18.185099341013441
 20
5.9189646897152386
 11
18.27634432676966
 21
3.4781613207360209
  0
LINE
  8
_0-0_
  6
CONTINUOUS
 62
    7
 10
18.960681719941405
 20
5.8733421968371147
 11
19.051926705697625
 21
3.432538827857897
  0
LINE
  8
_0-0_
  6
CONTINUOUS
 62
    7
 10
19.32566166296634
 20
5.7592859646418333
 11
19.416906648722559
 21
3.3184825956626156
  0
LINE
  8
_0-0_
  6
CONTINUOUS
 62
    7
 10
19.804697838186556
 20
5.599607239568428
 11
19.895942823942775
 21
3.1588038705892103
  0
LINE
  8
_0-0_
  6
CONTINUOUS
 62
    7
 10
20.26092276696771
 20
5.4855510073731324
 11
20.352167752723929
 21
3.0447476383939147
  0
LINE
  8
_0-0_
  6
CONTINUOUS
 62
    7
 10
20.831203927944173
 20
5.3943060216168988
 11
20.922448913700393
 21
2.9535026526376811
  0
LINE
  8
_0-0_
  6
CONTINUOUS
 62
    7
 10
21.333051349603423
 20
5.2118160501044315
 11
21.424296335359642
 21
2.7710126811252138
  0
LINE
  8
_0-0_
  6
CONTINUOUS
 62
    7
 10
21.834898771262701
 20
5.0749485714700882
 11
21.92614375701892
 21
2.6341452024908705
  0
LINE
  8
_0-0_
  6
CONTINUOUS
 62
    7
 10
22.245501207165759
 20
4.9152698463966829
 11
22.336746192921979
 21
2.4744664774174652
  0
LINE
  8
_0-0_
  6
CONTINUOUS
 62
    7
 10
22.542047410873508
 20
4.7555911213232775
 11
22.633292396629727
 21
2.3147877523440599
  0
LINE
  8
_0-0_
  6
CONTINUOUS
 62
    7
 10
23.066706078971848
 20
4.5502899033717483
 11
23.157951064728067
 21
2.1094865343925306
  0
LINE
  8
_0-0_
  6
CONTINUOUS
 62
    7
 10
23.294818543362439
 20
4.4362336711764669
 11
23.386063529118658
 21
1.9954303021972493
  0
LINE
  8
_0-0_
  6
CONTINUOUS
 62
    7
 10
23.614175993509249
 20
4.3677999318592953
 11
23.705420979265469
 21
1.9269965628800776
  0
LINE
  8
_0-0_
  6
CONTINUOUS
 62
    7
 10
23.773854718582655
 20
4.2993661925421094
 11
23.865099704338874
 21
1.8585628235628917
  0
LINE
  8
_0-0_
  6
CONTINUOUS
 62
    7
 10
24.001967182973218
 20
4.2765549461030616
 11
24.093212168729437
 21
1.835751577123844
  0
LINE
  8
_0-0_
  6
CONTINUOUS
 62
    7
 10
24.321324633120028
 20
4.0028199888343607
 11
24.412569618876248
 21
1.5620166198551431
  0
LINE
  8
_0-0_
  6
CONTINUOUS
 62
    7
 10
24.77754956190121
 20
3.8659525102000174
 11
24.86879454765743
 21
1.4251491412207997
  0
LINE
  8
_0-0_
  6
CONTINUOUS
 62
    7
 10
25.370641969316708
 20
3.5922175529313165
 11
25.461886955072927
 21
1.1514141839520988
  0
LINE
  8
_0-0_
  6
CONTINUOUS
 62
    7
 10
24.640682083266839
 20
3.9343862495171891
 11
24.731927069023058
 21
1.4935828805379714
  0
LINE
  8
_0-0_
  6
CONTINUOUS
 62
    7
 10
25.689999419463518
 20
3.4097275814188492
 11
25.781244405219738
 21
0.9689242124396314
  0
LINE
  8
_0-0_
  6
CONTINUOUS
 62
    7
 10
26.100601855366577
 20
3.2044263634673342
 11
26.191846841122796
 21
0.7636229944881165
  0
LINE
  8
_0-0_
  6
CONTINUOUS
 62
    7
 10
26.351525566196202
 20
2.9306914061986333
 11
26.442770551952421
 21
0.4898880372194156
  0
LINE
  8
_0-0_
  6
CONTINUOUS
 62
    7
 10
26.64807176990395
 20
2.7253901882471041
 11
26.73931675566017
 21
0.2845868192678864
  0
LINE
  8
_0-0_
  6
CONTINUOUS
 62
    7
 10
27.058674205807009
 20
2.6341452024908847
 11
27.149919191563228
 21
0.193341833511667
  0
LINE
  8
_0-0_
  6
CONTINUOUS
 62
    7
 10
27.355220409514757
 20
2.3375989987831218
 11
27.446465395270977
 21
-0.1032043701960958
  0
LINE
  8
_0-0_
  6
CONTINUOUS
 62
    7
 10
27.743011598978754
 20
2.0410527950753732
 11
27.834256584734973
 21
-0.3997505739038445
  0
LINE
  8
_0-0_
  6
CONTINUOUS
 62
    7
 10
28.10799154200366
 20
1.7673178378066723
 11
28.199236527759879
 21
-0.6734855311725452
  0
LINE
  8
_0-0_
  6
CONTINUOUS
 62
    7
 10
28.427348992150499
 20
1.6304503591723289
 11
28.518593977906718
 21
-0.8103530098068887
  0
LINE
  8
_0-0_
  6
CONTINUOUS
 62
    7
 10
28.655461456541062
 20
1.4707716340989236
 11
28.746706442297281
 21
-0.970031734880294
  0
LINE
  8
_0-0_
  6
CONTINUOUS
 62
    7
 10
29.088875138883154
 20
1.1742254303911608
 11
29.180120124639373
 21
-1.2665779385880569
  0
LINE
  8
_0-0_
  6
CONTINUOUS
 62
    7
 10
29.362610096151869
 20
0.8776792266834121
 11
29.453855081908088
 21
-1.5631241422958055
  0
LINE
  8
_0-0_
  6
CONTINUOUS
 62
    7
 10
29.567911314103398
 20
0.6951892551709447
 11
29.659156299859617
 21
-1.7456141138082728
  0
LINE
  8
_0-0_
  6
CONTINUOUS
 62
    7
 10
29.864457517811147
 20
0.5811330229756491
 11
29.955702503567366
 21
-1.8596703460035684
  0
LINE
  8
_0-0_
  6
CONTINUOUS
 62
    7
 10
30.069758735762676
 20
0.193341833511667
 11
30.161003721518895
 21
-2.2474615354675507
  0
LINE
  8
_0-0_
  6
CONTINUOUS
 62
    7
 10
30.320682446592301
 20
-0.011959384439848
 11
30.41192743234852
 21
-2.4527627534190657
  0
LINE
  8
_0-0_
  6
CONTINUOUS
 62
    7
 10
30.594417403860987
 20
-0.3997505739038445
 11
30.685662389617207
 21
-2.8405539428830622
  0
LINE
  8
_0-0_
  6
CONTINUOUS
 62
    7
 10
-7.8322137804634053
 20
-5.4186726930418558
 11
-6.8821963520956473
 21
-5.8657397181560924
  0
LINE
  8
_0-0_
  6
CONTINUOUS
 62
    7
 10
-6.8821963520956473
 20
-5.8657397181560924
 11
-5.8204121674493337
 21
-6.1172149197828531
  0
LINE
  8
_0-0_
  6
CONTINUOUS
 62
    7
 10
-5.8204121674493337
 20
-6.1172149197828531
 11
-5.5689369658225729
 21
-5.8377980290864571
  0
LINE
  8
_0-0_
  6
CONTINUOUS
 62
    7
 10
-5.5689369658225729
 20
-5.8377980290864571
 11
-5.3454034532654617
 21
-5.0554307351365395
  0
LINE
  8
_0-0_
  6
CONTINUOUS
 62
    7
 10
-1.6850421851426489
 20
-4.8598389116490637
 11
-1.8247506304908541
 21
-6.5922236339667251
  0
LINE
  8
_0-0_
  6
CONTINUOUS
 62
    7
 10
-1.8247506304908541
 20
-6.5922236339667251
 11
2.1988525955372751
 21
-6.5642819448970897
  0
LINE
  8
_0-0_
  6
CONTINUOUS
 62
    7
 10
2.1988525955372751
 20
-6.5642819448970897
 11
2.3106193518158449
 21
-4.8598389116490637
  0
ENDBLK
  0
ENDSEC
  0
SECTION
  2
ENTITIES
  0
INSERT
  2
-000-3
  8
_0-0_
 10
144.45438404174197
 20
104.36559251068675
 41
1
 42
1
 50
0
  0
ENDSEC
  0
EOF
