  0
SECTION
  2
HEADER
  9
$ACADVER
  1
AC1009
  9
$INSBASE
 10
0
 20
0
 30
0
  9
$EXTMIN
 10
0
 20
0
  9
$EXTMAX
 10
297
 20
210
  9
$LIMMIN
 10
0
 20
0
  9
$LIMMAX
 10
297
 20
210
  9
$LTSCALE
 40
1
  0
ENDSEC
  0
SECTION
  2
TABLES
  0
TABLE
  2
LTYPE
 70
     9
  0
LTYPE
  2
CONTINUOUS
 70
    64
  3
実線
 72
    65
 73
     0
 40
0.0
  0
LTYPE
  2
DASHED1
 70
    64
  3
--  --  --  --  --  --  --  --  
 72
    65
 73
     2
 40
2.5
 49
1.25
 49
-1.25
  0
LTYPE
  2
DASHED2
 70
    64
  3
----    ----    ----    ----    
 72
    65
 73
     2
 40
5.0
 49
2.5
 49
-2.5
  0
LTYPE
  2
DASHED3
 70
    64
  3
------  ------  ------  ------  
 72
    65
 73
     2
 40
5.0
 49
3.75
 49
-1.25
  0
LTYPE
  2
CENTER1
 70
    64
  3
----- - ----- - ----- - ----- - 
 72
    65
 73
     4
 40
10.0
 49
6.25
 49
-1.25
 49
1.25
 49
-1.25
  0
LTYPE
  2
CENTER2
 70
    64
  3
----------  --  ----------  --  
 72
    65
 73
     4
 40
20.0
 49
12.5
 49
-2.5
 49
2.5
 49
-2.5
  0
LTYPE
  2
PHANTOM1
 70
    64
  3
--- - - --- - - --- - - --- - - 
 72
    65
 73
     6
 40
10.0
 49
3.25
 49
-1.25
 49
1.25
 49
-1.25
 49
1.25
 49
-1.25
  0
LTYPE
  2
PHANTOM2
 70
    64
  3
--------  -  -  --------  -  -  
 72
    65
 73
     6
 40
20.0
 49
10.0
 49
-2.5
 49
1.25
 49
-2.5
 49
1.25
 49
-2.5
  0
LTYPE
  2
DOT
 70
    64
  3
-   -   -   -   -   -   -   -   
 72
    65
 73
     2
 40
2.5
 49
0.625
 49
-1.875
  0
LTYPE
  2
DUMMY
 70
    64
  3
ダミー
 72
    65
 73
     0
 40
0.0
  0
LTYPE
  2
RAND1
 70
    64
  3
ランダム線1
 72
    65
 73
     4
 40
10.0
 49
1.0
 49
-2.0
 49
3.0
 49
-4.0
  0
LTYPE
  2
RAND2
 70
    64
  3
ランダム線2
 72
    65
 73
     4
 40
14.0
 49
2.0
 49
-3.0
 49
4.0
 49
-5.0
  0
LTYPE
  2
RAND3
 70
    64
  3
ランダム線3
 72
    65
 73
     4
 40
18.0
 49
3.0
 49
-4.0
 49
5.0
 49
-6.0
  0
LTYPE
  2
RAND4
 70
    64
  3
ランダム線4
 72
    65
 73
     4
 40
22.0
 49
4.0
 49
-5.0
 49
6.0
 49
-7.0
  0
LTYPE
  2
RAND5
 70
    64
  3
ランダム線5
 72
    65
 73
     4
 40
26.0
 49
5.0
 49
-6.0
 49
7.0
 49
-8.0
  0
LTYPE
  2
LONG1
 70
    64
  3
----------  --  ----------  --  
 72
    65
 73
     4
 40
40.0
 49
32.5
 49
-2.5
 49
2.5
 49
-2.5
  0
LTYPE
  2
LONG2
 70
    64
  3
--------  -  -  --------  -  -  
 72
    65
 73
     6
 40
40.0
 49
30.0
 49
-2.5
 49
1.25
 49
-2.5
 49
1.25
 49
-2.5
  0
LTYPE
  2
LONG3
 70
    64
  3
+++++++++++++++..+++++++++++++++
 72
    65
 73
     2
 40
40.0
 49
37.5
 49
-2.5
  0
LTYPE
  2
LONG4
 70
    64
  3
+++++++++++++++..+++++++++++++++
 72
    65
 73
     2
 40
80.0
 49
75.0
 49
-5.0
  0
LTYPE
  2
LONG5
 70
    64
  3
----------  --  ----------  --  
 72
    65
 73
     4
 40
60.0
 49
37.5
 49
-7.5
 49
7.5
 49
-7.5
  0
LTYPE
  2
dashed
 70
   64
  3
-------   -------------   ------
 72
   65
 73
    2
 40
7.5
 49
6
 49
-1.5
  0
LTYPE
  2
dashed_spaced
 70
   64
  3
----        --------        ----
 72
   65
 73
    2
 40
12
 49
6
 49
-6
  0
LTYPE
  2
long_dashed_dotted
 70
   64
  3
------------- --- --------------
 72
   65
 73
    4
 40
15.25
 49
12
 49
-1.5
 49
0.25
 49
-1.5
  0
LTYPE
  2
long_dashed_double-dotted
 70
   64
  3
----------- --- --- ------------
 72
   65
 73
    6
 40
17
 49
12
 49
-1.5
 49
0.25
 49
-1.5
 49
0.25
 49
-1.5
  0
LTYPE
  2
long_dashed_triplicate-dotted
 70
   64
  3
--------- --- --- --- ----------
 72
   65
 73
    8
 40
18.75
 49
12
 49
-1.5
 49
0.25
 49
-1.5
 49
0.25
 49
-1.5
 49
0.25
 49
-1.5
  0
LTYPE
  2
dotted
 70
   64
  3
   -       -       -       -    
 72
   65
 73
    2
 40
1.75
 49
0.25
 49
-1.5
  0
LTYPE
  2
chain
 70
   64
  3
-------------- -- --------------
 72
   65
 73
    4
 40
18.5
 49
12
 49
-1.5
 49
3.5
 49
-1.5
  0
LTYPE
  2
chain_double_dash
 70
   64
  3
------------ -- -- -------------
 72
   65
 73
    6
 40
23.5
 49
12
 49
-1.5
 49
3.5
 49
-1.5
 49
3.5
 49
-1.5
  0
LTYPE
  2
dashed_dotted
 70
   64
  3
-----------     -     ----------
 72
   65
 73
    4
 40
9.25
 49
6
 49
-1.5
 49
0.25
 49
-1.5
  0
LTYPE
  2
double-dashed_dotted
 70
   64
  3
------   -----------   -   -----
 72
   65
 73
    6
 40
16.75
 49
6
 49
-1.5
 49
6
 49
-1.5
 49
0.25
 49
-1.5
  0
LTYPE
  2
dashed_double-dotted
 70
   64
  3
---------    -    -    ---------
 72
   65
 73
    6
 40
11
 49
6
 49
-1.5
 49
0.25
 49
-1.5
 49
0.25
 49
-1.5
  0
LTYPE
  2
double-dashed_double-dotted
 70
   64
  3
-----   ---------   -   -   ----
 72
   65
 73
    8
 40
18.5
 49
6
 49
-1.5
 49
6
 49
-1.5
 49
0.25
 49
-1.5
 49
0.25
 49
-1.5
  0
LTYPE
  2
dashed_triplicate-dotted
 70
   64
  3
-------    -    -    -    ------
 72
   65
 73
    8
 40
12.75
 49
6
 49
-1.5
 49
0.25
 49
-1.5
 49
0.25
 49
-1.5
 49
0.25
 49
-1.5
  0
LTYPE
  2
double-dashed_triplicate-dotted
 70
   64
  3
-----  ---------  -  -  -  -----
 72
   65
 73
   10
 40
20.25
 49
6
 49
-1.5
 49
6
 49
-1.5
 49
0.25
 49
-1.5
 49
0.25
 49
-1.5
 49
0.25
 49
-1.5
  0
LTYPE
  2
undefined
 70
   64
  3
--------------------------------
 72
   65
 73
    0
 40
0
  0
LTYPE
  2
_
 70
   64
  3
                                
 72
   65
 73
    0
 40
0
  0
LTYPE
  2
__18
 70
   64
  3
                                
 72
   65
 73
    0
 40
0
  0
LTYPE
  2
__19
 70
   64
  3
                                
 72
   65
 73
    0
 40
0
  0
LTYPE
  2
__20
 70
   64
  3
                                
 72
   65
 73
    0
 40
0
  0
LTYPE
  2
__21
 70
   64
  3
                                
 72
   65
 73
    0
 40
0
  0
LTYPE
  2
__22
 70
   64
  3
                                
 72
   65
 73
    0
 40
0
  0
LTYPE
  2
__23
 70
   64
  3
                                
 72
   65
 73
    0
 40
0
  0
LTYPE
  2
__24
 70
   64
  3
                                
 72
   65
 73
    0
 40
0
  0
LTYPE
  2
__25
 70
   64
  3
                                
 72
   65
 73
    0
 40
0
  0
LTYPE
  2
__26
 70
   64
  3
                                
 72
   65
 73
    0
 40
0
  0
LTYPE
  2
__27
 70
   64
  3
                                
 72
   65
 73
    0
 40
0
  0
LTYPE
  2
__28
 70
   64
  3
                                
 72
   65
 73
    0
 40
0
  0
LTYPE
  2
__29
 70
   64
  3
                                
 72
   65
 73
    0
 40
0
  0
LTYPE
  2
__30
 70
   64
  3
                                
 72
   65
 73
    0
 40
0
  0
LTYPE
  2
__31
 70
   64
  3
                                
 72
   65
 73
    0
 40
0
  0
LTYPE
  2
__32
 70
   64
  3
                                
 72
   65
 73
    0
 40
0
  0
ENDTAB
  0
TABLE
  2
STYLE
  5
3
100
AcDbSymbolTable
 70
     1
  0
STYLE
  5
10
100
AcDbSymbolTableRecord
100
AcDbTextStyleTableRecord
  2
STANDARD
 70
     0
 40
0.0
 41
1.0
 50
0.0
 71
     0
 42
0.2
  3
txt
  4
bigfont.shx
  0
STYLE
  5
26
100
AcDbSymbolTableRecord
100
AcDbTextStyleTableRecord
  2
TATEGAKI
 70
    68
 40
0.0
 41
1.0
 50
0.0
 71
     0
 42
1.0
  3
txt
  4
bigfont.shx
  0
ENDTAB
  0
TABLE
  2
LAYER
 70
    2
  0
LAYER
  2
_0-0_
 70
   64
 62
    7
  6
CONTINUOUS
  0
LAYER
  2
ADD_LINE
 70
   64
 62
    7
  6
CONTINUOUS
  0
ENDTAB
  0
ENDSEC
  0
SECTION
  2
BLOCKS
  0
BLOCK
  2
-001-4
 70
   64
 10
0
 20
0
 30
0
  0
ARC
  8
_0-0_
  6
CONTINUOUS
 62
    7
 10
-2.6569455847118064
 20
-0.9116492470851227
 40
10.046324046020334
 50
228.70199376421297
 51
276.17141412675358
  0
ARC
  8
_0-0_
  6
CONTINUOUS
 62
    7
 10
-0.6496613507862889
 20
11.768405633864511
 40
22.687115385561071
 50
267.65754673459116
 51
282.22088434966133
  0
ARC
  8
_0-0_
  6
CONTINUOUS
 62
    7
 10
4.0021498915154865
 20
-6.4585612628766071
 40
3.9489048413729875
 50
272.18593578934082
 51
329.55823093681948
  0
ARC
  8
_0-0_
  6
CONTINUOUS
 62
    7
 10
-4.2163441683962901
 20
-14.891801795620118
 40
8.1909162954648682
 50
98.786077552818469
 51
128.249845794566
  0
ARC
  8
_0-0_
  6
CONTINUOUS
 62
    7
 10
-0.873181356053621
 20
-26.404812735739078
 40
20.138861910759559
 50
80.997097009343435
 51
103.18703554961681
  0
ARC
  8
_0-0_
  6
CONTINUOUS
 62
    7
 10
-0.0414585373157478
 20
-21.7352147288812
 40
15.396907168761231
 50
64.328827969611581
 51
81.33482716002473
  0
ARC
  8
_0-0_
  6
CONTINUOUS
 62
    7
 10
6.3097674336914906
 20
-9.4709600046070648
 40
1.6441070511366358
 50
8.165919673624952
 51
78.819208808824669
  0
ARC
  8
_0-0_
  6
CONTINUOUS
 62
    7
 10
6.2806566107106079
 20
-9.7012933872147116
 40
1.7202674634792985
 50
304.91226245295161
 51
15.643182018154549
  0
ARC
  8
_0-0_
  6
CONTINUOUS
 62
    7
 10
0.8900233987964583
 20
-2.1637230365181281
 40
10.986988302826241
 50
285.73638060835788
 51
305.46799449452595
  0
ARC
  8
_0-0_
  6
CONTINUOUS
 62
    7
 10
-0.0557575214077132
 20
-0.0974471653169786
 40
13.236952695722385
 50
266.16843404341603
 51
287.2512395720978
  0
ARC
  8
_0-0_
  6
CONTINUOUS
 62
    7
 10
-1.1926198926436058
 20
4.4189107101535683
 40
17.725519374443895
 50
254.15148795527216
 51
270.81562861218879
  0
ARC
  8
_0-0_
  6
CONTINUOUS
 62
    7
 10
-4.7629724417268022
 20
-5.8990336929764453
 40
6.8525655331222248
 50
229.07479318566624
 51
259.31614201443949
  0
ARC
  8
_0-0_
  6
CONTINUOUS
 62
    7
 10
-8.216629560058081
 20
-9.7890521135150905
 40
1.6521384217256112
 50
157.8706564720801
 51
231.19825368900021
  0
ARC
  8
_0-0_
  6
CONTINUOUS
 62
    7
 10
-7.8950947196230743
 20
-9.8673566178874665
 40
1.9800810359370244
 50
134.67559356520459
 51
159.27667132320298
  0
ARC
  8
_0-0_
  6
CONTINUOUS
 62
    7
 10
-1.6299849741161978
 20
5.1540275930348258
 40
15.919467610551918
 50
247.1891922590174
 51
271.71873971480215
  0
ARC
  8
_0-0_
  6
CONTINUOUS
 62
    7
 10
-0.1880515761800438
 20
4.8055606208489792
 40
15.593692610865958
 50
266.45403604766943
 51
296.06609736852283
  0
ARC
  8
_0-0_
  6
CONTINUOUS
 62
    7
 10
-4.2557940615361503
 20
-2.4991143505178854
 40
7.0626760131304112
 50
231.15090621581641
 51
267.62970790911947
  0
ARC
  8
_0-0_
  6
CONTINUOUS
 62
    7
 10
-0.3519048675600373
 20
9.1523745444047222
 40
19.172900675331807
 50
257.35851767467705
 51
281.09998483453899
  0
ARC
  8
_0-0_
  6
CONTINUOUS
 62
    7
 10
1.5432894041490215
 20
1.8735785821468767
 40
11.674408837208324
 50
278.84959696488562
 51
299.54809760281819
  0
LINE
  8
_0-0_
  6
CONTINUOUS
 62
    7
 10
-7.801794954092216
 20
-8.6007970557484512
 11
-7.695689338390622
 21
-7.4690038215981289
  0
LINE
  8
_0-0_
  6
CONTINUOUS
 62
    7
 10
-4.477152328775631
 20
-6.5847903574181785
 11
-4.583257944477225
 21
-9.5557475970627905
  0
LINE
  8
_0-0_
  6
CONTINUOUS
 62
    7
 10
-3.5222017874612845
 20
-9.7325902898987806
 11
-3.5222017874612845
 21
-6.4786847417165916
  0
LINE
  8
_0-0_
  6
CONTINUOUS
 62
    7
 10
-2.2489343990421702
 20
-6.3018420488806015
 11
-2.284302937609354
 21
-9.8033273670331766
  0
LINE
  8
_0-0_
  6
CONTINUOUS
 62
    7
 10
-1.0817726263246357
 20
-6.2664735103134035
 11
-1.1525097034590317
 21
-9.9801700598691667
  0
LINE
  8
_0-0_
  6
CONTINUOUS
 62
    7
 10
2.5258183075295335
 20
-9.7679588284659786
 11
2.5258183075295335
 21
-6.5847903574181785
  0
LINE
  8
_0-0_
  6
CONTINUOUS
 62
    7
 10
3.2685576174406776
 20
-6.7616330502541757
 11
3.3039261560078756
 21
-9.5557475970627905
  0
LINE
  8
_0-0_
  6
CONTINUOUS
 62
    7
 10
5.0016160072333804
 20
-9.0252195185548274
 11
4.7894047758301923
 21
-7.2214240516277428
  0
ARC
  8
_0-0_
  6
CONTINUOUS
 62
    7
 10
-3.6363270136519219
 20
-21.384467437408727
 40
14.823543061041461
 50
93.251693115846564
 51
118.46703941736479
  0
ARC
  8
_0-0_
  6
CONTINUOUS
 62
    7
 10
-9.5930138698392966
 20
-10.505831350372716
 40
2.4214935631574295
 50
117.25698692857678
 51
176.76596984415428
  0
ARC
  8
_0-0_
  6
CONTINUOUS
 62
    7
 10
-9.0093779137437195
 20
-9.8866960650844717
 40
3.0398147299740477
 50
189.13353462428853
 51
251.79092035989817
  0
ARC
  8
_0-0_
  6
CONTINUOUS
 62
    7
 10
-3.4249383064013443
 20
-0.5014017238597787
 40
13.904000173441542
 50
241.96823652769032
 51
264.05011688833713
  0
ARC
  8
_0-0_
  6
CONTINUOUS
 62
    7
 10
-0.9687811004595374
 20
8.5898776674925372
 40
23.249379543529663
 50
260.34962014170287
 51
277.94018506576379
  0
ARC
  8
_0-0_
  6
CONTINUOUS
 62
    7
 10
0.9129343521128987
 20
4.1184367837874447
 40
18.602643321301869
 50
274.09967327601379
 51
292.30250107539729
  0
ARC
  8
_0-0_
  6
CONTINUOUS
 62
    7
 10
4.7442116432165449
 20
-6.8264753709606367
 40
7.0488761323927971
 50
297.25790988609299
 51
320.72407819891737
  0
ARC
  8
_0-0_
  6
CONTINUOUS
 62
    7
 10
8.4622343165372058
 20
-10.290016290594423
 40
2.0050338683095839
 50
330.12291046847054
 51
40.424881446233044
  0
ARC
  8
_0-0_
  6
CONTINUOUS
 62
    7
 10
5.1877064372173152
 20
-14.400101693751296
 40
7.2332011741351181
 50
48.415234280156533
 51
72.429088357320751
  0
ARC
  8
_0-0_
  6
CONTINUOUS
 62
    7
 10
1.3056037269612091
 20
-22.652288718937783
 40
16.317234430109288
 50
68.177275770434008
 51
90.931480116515829
  0
ARC
  8
_0-0_
  6
CONTINUOUS
 62
    7
 10
-2.6123709238517705
 20
-26.420425372462269
 40
22.029003480049166
 50
89.606671308063753
 51
109.57959721739698
  0
ARC
  8
_0-0_
  6
CONTINUOUS
 62
    7
 10
-8.6034870867623425
 20
-10.88301431978855
 40
5.4000757038658493
 50
104.92877560977678
 51
148.6092741878426
  0
ARC
  8
_0-0_
  6
CONTINUOUS
 62
    7
 10
-11.931246347627905
 20
-9.3688993308163333
 40
1.8247734538923508
 50
134.629321717294
 51
218.73511594603684
  0
ARC
  8
_0-0_
  6
CONTINUOUS
 62
    7
 10
-7.5906976924077156
 20
-6.3966223057759848
 40
7.0815838390495571
 50
215.51768359335696
 51
260.23231952586787
  0
ARC
  8
_0-0_
  6
CONTINUOUS
 62
    7
 10
4.7644117431250663
 20
-4.6923531793467532
 40
9.0842089611086241
 50
282.75497661425209
 51
319.29457214287157
  0
ARC
  8
_0-0_
  6
CONTINUOUS
 62
    7
 10
10.253843984462222
 20
-9.2374307499580084
 40
1.963272500105101
 50
315.36493633573116
 51
29.10473162741819
  0
ARC
  8
_0-0_
  6
CONTINUOUS
 62
    7
 10
7.4187763929966195
 20
-10.332924694526433
 40
4.9910762730864322
 50
24.256488936172502
 51
59.010589736967681
  0
ARC
  8
_0-0_
  6
CONTINUOUS
 62
    7
 10
-6.5554983749790523
 20
-13.496428025846264
 40
9.1201398365846735
 50
96.06338831309489
 51
130.72555720162822
  0
ARC
  8
_0-0_
  6
CONTINUOUS
 62
    7
 10
-10.725545425318757
 20
-9.0659956435970912
 40
3.0538047916822224
 50
125.65944516569368
 51
179.23493168087111
  0
ARC
  8
_0-0_
  6
CONTINUOUS
 62
    7
 10
-1.2443538116738466
 20
-27.948528572604609
 40
23.587992750253214
 50
76.331422061345265
 51
92.956927852944432
  0
ARC
  8
_0-0_
  6
CONTINUOUS
 62
    7
 10
2.1236437964029733
 20
-19.899904207367875
 40
15.034052881268089
 50
59.557493011985812
 51
81.562437331661712
  0
ARC
  8
_0-0_
  6
CONTINUOUS
 62
    7
 10
4.9194243465855294
 20
-14.274634089306986
 40
8.7787705717948441
 50
38.472589900916013
 51
56.685705099650932
  0
ARC
  8
_0-0_
  6
CONTINUOUS
 62
    7
 10
10.718593192176996
 20
-9.6362358133348778
 40
1.3530379949448741
 50
313.55479355938309
 51
37.475994421528398
  0
ARC
  8
_0-0_
  6
CONTINUOUS
 62
    7
 10
-1.9067544415786983
 20
-53.298107265273671
 40
52.692819642065338
 50
90.525910905130658
 51
100.93745113499627
  0
ARC
  8
_0-0_
  6
CONTINUOUS
 62
    7
 10
-8.7720413026721502
 20
-22.848479635619391
 40
21.515280714829014
 50
98.37170038072415
 51
120.37146186284069
  0
ARC
  8
_0-0_
  6
CONTINUOUS
 62
    7
 10
-14.752872406761853
 20
-13.757356035213647
 40
10.662741861679518
 50
117.34186007550019
 51
143.86072921450867
  0
ARC
  8
_0-0_
  6
CONTINUOUS
 62
    7
 10
-20.014380870557446
 20
-9.3454539370276848
 40
3.8393607899587732
 50
150.74218518511128
 51
200.46040410489798
  0
ARC
  8
_0-0_
  6
CONTINUOUS
 62
    7
 10
-16.942351640052408
 20
-7.2907307834524815
 40
7.4844025204153404
 50
206.99108555475453
 51
249.36857468497379
  0
ARC
  8
_0-0_
  6
CONTINUOUS
 62
    7
 10
-7.2712528441618645
 20
7.6702133387893952
 40
25.178756601315481
 50
240.73594098058214
 51
263.3046313324553
  0
ARC
  8
_0-0_
  6
CONTINUOUS
 62
    7
 10
0.1630411649507834
 20
34.500423057656178
 40
52.864308912370689
 50
258.68746699484063
 51
279.15475494615532
  0
ARC
  8
_0-0_
  6
CONTINUOUS
 62
    7
 10
6.3574915739669819
 20
6.0593397978683043
 40
23.85304232990886
 50
275.33142714513679
 51
306.44796343868097
  0
ARC
  8
_0-0_
  6
CONTINUOUS
 62
    7
 10
17.474839858511018
 20
-9.3815696571329141
 40
4.8331948144314065
 50
309.18231584902617
 51
352.03966121833321
  0
ARC
  8
_0-0_
  6
CONTINUOUS
 62
    7
 10
18.209692970740733
 20
-9.5098061731316719
 40
4.0877413359344885
 50
352.39333896155699
 51
42.244537901472128
  0
ARC
  8
_0-0_
  6
CONTINUOUS
 62
    7
 10
12.780729573207921
 20
-14.961239241415711
 40
11.778002309526894
 50
44.121299272087768
 51
68.498565675952719
  0
ARC
  8
_0-0_
  6
CONTINUOUS
 62
    7
 10
7.2346356259776172
 20
-22.49629948111081
 40
20.959138303643083
 50
61.927833218477822
 51
79.610822030199529
  0
ARC
  8
_0-0_
  6
CONTINUOUS
 62
    7
 10
2.2251857297084001
 20
-34.382854010391284
 40
33.669468620159968
 50
74.868212390569568
 51
90.2106553570937
  0
ARC
  8
_0-0_
  6
CONTINUOUS
 62
    7
 10
-0.7317044775515313
 20
-25.51861403198626
 40
24.966267960035548
 50
83.484204230294495
 51
93.809411862146149
  0
ARC
  8
_0-0_
  6
CONTINUOUS
 62
    7
 10
-8.3769181464468403
 20
-20.347124413301184
 40
19.198168381131921
 50
111.47742108312016
 51
131.08788628015927
  0
ARC
  8
_0-0_
  6
CONTINUOUS
 62
    7
 10
-19.235996284448618
 20
-7.9102974838359614
 40
2.6877654802422755
 50
130.85697066989965
 51
184.92413264259673
  0
ARC
  8
_0-0_
  6
CONTINUOUS
 62
    7
 10
-18.207936664521355
 20
-8.0661659980291489
 40
3.7066607912637575
 50
181.1569202059155
 51
240.39115199658076
  0
ARC
  8
_0-0_
  6
CONTINUOUS
 62
    7
 10
16.622707250741286
 20
-8.1359534060082055
 40
4.0056540963125933
 50
304.67229921273548
 51
347.17331022700313
  0
ARC
  8
_0-0_
  6
CONTINUOUS
 62
    7
 10
18.228746387020777
 20
-8.2989747105748464
 40
2.4116091461146612
 50
342.47359331911582
 51
53.015749930998332
  0
ARC
  8
_0-0_
  6
CONTINUOUS
 62
    7
 10
10.058813221334745
 20
-15.22565222698951
 40
13.074236594634712
 50
42.620462675795693
 51
71.872203043564767
  0
ARC
  8
_0-0_
  6
CONTINUOUS
 62
    7
 10
-7.737213175106163
 20
11.185066881387698
 40
28.564635356082004
 50
239.99903508321222
 51
259.23672289452833
  0
ARC
  8
_0-0_
  6
CONTINUOUS
 62
    7
 10
-17.668818121622067
 20
-5.8998289253430372
 40
8.8030707756233593
 50
205.29973197291335
 51
240.37810905063404
  0
ARC
  8
_0-0_
  6
CONTINUOUS
 62
    7
 10
-21.375867755776767
 20
-8.1140142749420221
 40
4.5246556306553201
 50
127.68788171109044
 51
200.00425259070747
  0
ARC
  8
_0-0_
  6
CONTINUOUS
 62
    7
 10
-10.241622400228778
 20
-21.520019891674703
 40
21.949189068887037
 50
95.920929999858544
 51
129.29406612604183
  0
ARC
  8
_0-0_
  6
CONTINUOUS
 62
    7
 10
-1.654718596342974
 20
-65.429385824584728
 40
66.630967457927724
 50
83.226417171969061
 51
99.372567546301212
  0
ARC
  8
_0-0_
  6
CONTINUOUS
 62
    7
 10
3.4587076346678032
 20
-35.49341713647032
 40
36.333787595461821
 50
64.909396465900201
 51
85.66650951543167
  0
ARC
  8
_0-0_
  6
CONTINUOUS
 62
    7
 10
13.066295670848547
 20
-14.889726289439587
 40
13.600236191174092
 50
38.965367359159629
 51
64.757676702665222
  0
ARC
  8
_0-0_
  6
CONTINUOUS
 62
    7
 10
20.009856026013978
 20
-8.7118466607121334
 40
4.3385378681061493
 50
340.54297093886379
 51
33.184412890390156
  0
ARC
  8
_0-0_
  6
CONTINUOUS
 62
    7
 10
18.648167291177202
 20
-8.2286495003846767
 40
5.7834159364329549
 50
299.3555145846085
 51
340.522916499644
  0
ARC
  8
_0-0_
  6
CONTINUOUS
 62
    7
 10
9.9277349271440727
 20
3.3633068476602901
 40
20.252919800196523
 50
283.29876789188512
 51
304.78967864685069
  0
ARC
  8
_0-0_
  6
CONTINUOUS
 62
    7
 10
-16.156953244683507
 20
-8.5224897628202214
 40
10.903816414125091
 50
116.12880445613786
 51
150.29137432736985
  0
ARC
  8
_0-0_
  6
CONTINUOUS
 62
    7
 10
-4.7855192567162135
 20
-31.270580086675018
 40
36.335571020282671
 50
92.972881714318035
 51
116.43045779829777
  0
ARC
  8
_0-0_
  6
CONTINUOUS
 62
    7
 10
-0.4931533444859468
 20
-44.844794251416701
 40
50.2420268636467
 50
79.726077579540714
 51
97.061916441894795
  0
ARC
  8
_0-0_
  6
CONTINUOUS
 62
    7
 10
4.6514674754181442
 20
-25.956138930672363
 40
30.785262363721326
 50
60.251036353259707
 51
82.879066000896344
  0
ARC
  8
_0-0_
  6
CONTINUOUS
 62
    7
 10
16.064304223490424
 20
-7.0569919891238584
 40
8.7299774831005763
 50
25.265759687204234
 51
63.737817087568672
  0
ARC
  8
_0-0_
  6
CONTINUOUS
 62
    7
 10
22.487989896468534
 20
-4.5342572285816232
 40
1.9006380805106213
 50
11.837668038686338
 51
39.282262304959417
  0
ARC
  8
_0-0_
  6
CONTINUOUS
 62
    7
 10
7.6071413757700554
 20
-9.0242836721885311
 40
27.105016282186707
 50
116.30967916487509
 51
134.03221018392094
  0
ARC
  8
_0-0_
  6
CONTINUOUS
 62
    7
 10
7.9548889775950329
 20
-9.7856430977500537
 40
27.895498436504525
 50
133.4587813562764
 51
152.80142335203561
  0
ARC
  8
_0-0_
  6
CONTINUOUS
 62
    7
 10
15.012091373035688
 20
-25.967928443527843
 40
45.146428738738379
 50
124.17601073438769
 51
142.8963923382145
  0
ARC
  8
_0-0_
  6
CONTINUOUS
 62
    7
 10
9.4975642175175494
 20
-0.5584341929443752
 40
20.701152174331881
 50
130.11440827567154
 51
165.29105555953885
  0
ARC
  8
_0-0_
  6
CONTINUOUS
 62
    7
 10
-11.378482189643634
 20
-0.5639970334529635
 40
20.950265527739791
 50
13.847460788718159
 51
47.507099254874717
  0
ARC
  8
_0-0_
  6
CONTINUOUS
 62
    7
 10
-10.860844019609573
 20
-13.07239086031602
 40
31.727337754542145
 50
28.746920522864052
 51
58.815329006873426
  0
ARC
  8
_0-0_
  6
CONTINUOUS
 62
    7
 10
-0.8518771256382962
 20
-10.917436331900383
 40
23.528785705550423
 50
30.786507972952641
 51
56.775741556784979
  0
LINE
  8
_0-0_
  6
CONTINUOUS
 62
    7
 10
-4.0173613274020425
 20
14.95464963000525
 11
-4.1588354816708488
 21
5.3697756782946513
  0
LINE
  8
_0-0_
  6
CONTINUOUS
 62
    7
 10
-0.4451389321150855
 20
15.166860861408438
 11
-0.3744018549806753
 21
5.8649352182354164
  0
ARC
  8
_0-0_
  6
CONTINUOUS
 62
    7
 10
-68.574211078543016
 20
3.3023378736630633
 40
69.717007511312261
 50
1.7284190531688897
 51
9.6508996464095187
  0
LINE
  8
_0-0_
  6
CONTINUOUS
 62
    7
 10
0.7573913791696469
 20
14.282647397228487
 11
2.0660273061559593
 21
14.247278858661289
  0
LINE
  8
_0-0_
  6
CONTINUOUS
 62
    7
 10
-3.3807276331924925
 20
14.211910320094077
 11
-0.7280872406526555
 21
14.318015935795685
  0
LINE
  8
_0-0_
  6
CONTINUOUS
 62
    7
 10
-3.4160961717596905
 20
14.919281091438037
 11
-3.4514647103268885
 21
14.353384474362883
  0
LINE
  8
_0-0_
  6
CONTINUOUS
 62
    7
 10
-3.4868332488940865
 20
13.999699088690917
 11
-2.8148310161173242
 21
12.832537315973369
  0
LINE
  8
_0-0_
  6
CONTINUOUS
 62
    7
 10
-3.3807276331924925
 20
13.433802471615735
 11
-3.5222017874612845
 21
6.9967284523857458
  0
LINE
  8
_0-0_
  6
CONTINUOUS
 62
    7
 10
-3.3453590946252945
 20
6.8906228366841518
 11
-0.6927187020854574
 21
6.6076745281465747
  0
LINE
  8
_0-0_
  6
CONTINUOUS
 62
    7
 10
1.358656534811999
 20
6.0064093725042156
 11
1.9952902290215633
 21
6.0417779110714136
  0
LINE
  8
_0-0_
  6
CONTINUOUS
 62
    7
 10
0.7573913791696469
 20
14.353384474362883
 11
0.8281284563040429
 21
11.736112620390244
  0
LINE
  8
_0-0_
  6
CONTINUOUS
 62
    7
 10
2.0660273061559593
 20
14.247278858661289
 11
2.1367643832903696
 21
5.5466183711306485
  0
LINE
  8
_0-0_
  6
CONTINUOUS
 62
    7
 10
2.9856093089031077
 20
13.999699088690917
 11
3.5161373874110637
 21
6.0417779110714136
  0
LINE
  8
_0-0_
  6
CONTINUOUS
 62
    7
 10
6.4870946270556971
 20
12.867905854540581
 11
6.4517260884884706
 21
11.276321619016684
  0
LINE
  8
_0-0_
  6
CONTINUOUS
 62
    7
 10
5.9919350871149106
 20
13.646013703018923
 11
5.9919350871149106
 21
11.523901388987056
  0
ARC
  8
_0-0_
  6
CONTINUOUS
 62
    7
 10
-3.8346514882385634
 20
8.8794197811049855
 40
6.4190617036399695
 50
95.110267887360763
 51
148.15105493690137
  0
ARC
  8
_0-0_
  6
CONTINUOUS
 62
    7
 10
-1.5115404601990576
 20
-8.6642065200437841
 40
24.111585413526754
 50
78.822541316779336
 51
96.895655950574735
  0
ARC
  8
_0-0_
  6
CONTINUOUS
 62
    7
 10
-1.1230359213185892
 20
-2.8180410000082361
 40
18.316451023338111
 50
66.660978935413567
 51
76.469123418742427
  0
ARC
  8
_0-0_
  6
CONTINUOUS
 62
    7
 10
-0.0181901451251604
 20
-7.9060579053228395
 40
23.076868628193306
 50
91.060098738721862
 51
98.467184642730786
  0
ARC
  8
_0-0_
  6
CONTINUOUS
 62
    7
 10
-1.2844615588834216
 20
-5.5686250378190252
 40
20.609053924101833
 50
79.145469190699103
 51
85.991714866955732
  0
ARC
  8
_0-0_
  6
CONTINUOUS
 62
    7
 10
3.3216104252914818
 20
11.329374426867467
 40
3.2796572801105297
 50
42.377598539458894
 51
94.019582487837397
  0
ARC
  8
_0-0_
  6
CONTINUOUS
 62
    7
 10
3.5267479489809546
 20
10.030641690679303
 40
3.454139063959988
 50
55.226184298882998
 51
77.16192866420171
  0
LINE
  8
_0-0_
  6
CONTINUOUS
 62
    7
 10
6.1334092413836885
 20
13.999699088690917
 11
7.229833936966827
 21
14.105804704392497
  0
LINE
  8
_0-0_
  6
CONTINUOUS
 62
    7
 10
7.229833936966827
 20
14.105804704392497
 11
7.3359395526684068
 21
13.009380008809359
  0
LINE
  8
_0-0_
  6
CONTINUOUS
 62
    7
 10
2.8795036932015137
 20
32.992604299276096
 11
3.3746632331422717
 21
24.645629197417421
  0
ARC
  8
_0-0_
  6
CONTINUOUS
 62
    7
 10
-16.927545695709085
 20
-3.6585625179955485
 40
1.6859458905214795
 50
204.59205602347413
 51
338.04176878811211
  0
ARC
  8
_0-0_
  6
CONTINUOUS
 62
    7
 10
-13.459801976241209
 20
-4.9320889330161179
 40
1.5272370252752325
 50
187.94702432774622
 51
333.81725016466208
  0
ARC
  8
_0-0_
  6
CONTINUOUS
 62
    7
 10
-18.528897207713129
 20
-5.2730923276589863
 40
1.5153110748376537
 50
199.70132510795113
 51
332.963098780986
  0
ARC
  8
_0-0_
  6
CONTINUOUS
 62
    7
 10
-19.955506136896773
 20
-6.9941192400716687
 40
1.5153110748376537
 50
199.70132510795113
 51
332.963098780986
  0
ARC
  8
_0-0_
  6
CONTINUOUS
 62
    7
 10
-19.848724689248044
 20
-9.3433110883438815
 40
1.5153110748376537
 50
199.70132510795113
 51
332.963098780986
  0
ARC
  8
_0-0_
  6
CONTINUOUS
 62
    7
 10
-18.211409158634069
 20
-10.589094644245819
 40
1.5153110748376537
 50
199.70132510795113
 51
332.963098780986
  0
ARC
  8
_0-0_
  6
CONTINUOUS
 62
    7
 10
-16.502905996254285
 20
-12.333191622508522
 40
1.5153110748376537
 50
199.70132510795113
 51
332.963098780986
  0
ARC
  8
_0-0_
  6
CONTINUOUS
 62
    7
 10
-14.33168322739661
 20
-11.336564777786975
 40
1.5153110748376537
 50
199.70132510795113
 51
332.963098780986
  0
ARC
  8
_0-0_
  6
CONTINUOUS
 62
    7
 10
-15.968998758010585
 20
-9.5568739836413599
 40
1.5153110748376537
 50
199.70132510795113
 51
332.963098780986
  0
ARC
  8
_0-0_
  6
CONTINUOUS
 62
    7
 10
-16.289343100956799
 20
-8.0263399006761276
 40
1.5153110748376537
 50
199.70132510795113
 51
332.963098780986
  0
ARC
  8
_0-0_
  6
CONTINUOUS
 62
    7
 10
-15.613060599181466
 20
-6.1754614747646883
 40
1.5153110748376537
 50
199.70132510795113
 51
332.963098780986
  0
ARC
  8
_0-0_
  6
CONTINUOUS
 62
    7
 10
-12.338429537953516
 20
-12.90269267663512
 40
1.5153110748376537
 50
199.70132510795113
 51
332.963098780986
  0
ARC
  8
_0-0_
  6
CONTINUOUS
 62
    7
 10
-11.946897563241492
 20
-14.290851496068711
 40
1.5153110748376537
 50
199.70132510795113
 51
332.963098780986
  0
ARC
  8
_0-0_
  6
CONTINUOUS
 62
    7
 10
-8.2807345273015187
 20
-14.931540181961132
 40
1.5153110748376537
 50
199.70132510795113
 51
332.963098780986
  0
ARC
  8
_0-0_
  6
CONTINUOUS
 62
    7
 10
-9.1349861084914039
 20
-13.436599914878812
 40
1.5153110748376537
 50
199.70132510795113
 51
332.963098780986
  0
ARC
  8
_0-0_
  6
CONTINUOUS
 62
    7
 10
-5.5400107043172682
 20
-14.39763294371744
 40
1.5153110748376537
 50
199.70132510795113
 51
332.963098780986
  0
ARC
  8
_0-0_
  6
CONTINUOUS
 62
    7
 10
-4.223039516649493
 20
-15.572228867853553
 40
1.5153110748376537
 50
199.70132510795113
 51
332.963098780986
  0
ARC
  8
_0-0_
  6
CONTINUOUS
 62
    7
 10
0.4041565481291087
 20
-15.750197947268106
 40
1.5153110748376537
 50
199.70132510795113
 51
332.963098780986
  0
ARC
  8
_0-0_
  6
CONTINUOUS
 62
    7
 10
2.3618164216892836
 20
-14.362039127834535
 40
1.5153110748376537
 50
199.70132510795113
 51
332.963098780986
  0
ARC
  8
_0-0_
  6
CONTINUOUS
 62
    7
 10
5.3872907717368435
 20
-15.287478340790251
 40
1.5153110748376537
 50
199.70132510795113
 51
332.963098780986
  0
ARC
  8
_0-0_
  6
CONTINUOUS
 62
    7
 10
6.1347609052779859
 20
-13.899319521356666
 40
1.5153110748376537
 50
199.70132510795113
 51
332.963098780986
  0
ARC
  8
_0-0_
  6
CONTINUOUS
 62
    7
 10
9.9432992047496356
 20
-12.795911228986384
 40
1.5153110748376537
 50
199.70132510795113
 51
332.963098780986
  0
ARC
  8
_0-0_
  6
CONTINUOUS
 62
    7
 10
13.645056056572514
 20
-13.045067940166774
 40
1.5153110748376537
 50
199.70132510795113
 51
332.963098780986
  0
ARC
  8
_0-0_
  6
CONTINUOUS
 62
    7
 10
12.684023027733886
 20
-11.550127673084454
 40
1.5153110748376537
 50
199.70132510795113
 51
332.963098780986
  0
ARC
  8
_0-0_
  6
CONTINUOUS
 62
    7
 10
16.848499486034626
 20
-11.016220434840761
 40
1.5153110748376537
 50
199.70132510795113
 51
332.963098780986
  0
ARC
  8
_0-0_
  6
CONTINUOUS
 62
    7
 10
14.784058164825723
 20
-10.090781221885045
 40
1.5153110748376537
 50
199.70132510795113
 51
332.963098780986
  0
ARC
  8
_0-0_
  6
CONTINUOUS
 62
    7
 10
14.92643342835737
 20
-8.2399027959735989
 40
1.5153110748376537
 50
199.70132510795113
 51
332.963098780986
  0
ARC
  8
_0-0_
  6
CONTINUOUS
 62
    7
 10
18.734971727828977
 20
-8.3110904277394297
 40
1.5153110748376537
 50
199.70132510795113
 51
332.963098780986
  0
ARC
  8
_0-0_
  6
CONTINUOUS
 62
    7
 10
18.094283041936563
 20
-6.4602120018279834
 40
1.5153110748376537
 50
199.70132510795113
 51
332.963098780986
  0
ARC
  8
_0-0_
  6
CONTINUOUS
 62
    7
 10
13.467086977157948
 20
-6.1754614747646883
 40
1.5153110748376537
 50
199.70132510795113
 51
332.963098780986
  0
ARC
  8
_0-0_
  6
CONTINUOUS
 62
    7
 10
16.243404616025131
 20
-5.0720531823943986
 40
1.5153110748376537
 50
199.70132510795113
 51
332.963098780986
  0
ARC
  8
_0-0_
  6
CONTINUOUS
 62
    7
 10
13.182336450094667
 20
-3.3635500200146069
 40
1.5153110748376537
 50
199.70132510795113
 51
332.963098780986
  0
ARC
  8
_0-0_
  6
CONTINUOUS
 62
    7
 10
8.8398909123793601
 20
-3.7906758106095566
 40
1.5153110748376537
 50
199.70132510795113
 51
332.963098780986
  0
ARC
  8
_0-0_
  6
CONTINUOUS
 62
    7
 10
9.053453807676803
 20
-1.8330159370493746
 40
1.5153110748376537
 50
199.70132510795113
 51
332.963098780986
  0
ARC
  8
_0-0_
  6
CONTINUOUS
 62
    7
 10
4.7821959017273343
 20
-2.972018045302562
 40
1.5153110748376537
 50
199.70132510795113
 51
332.963098780986
  0
ARC
  8
_0-0_
  6
CONTINUOUS
 62
    7
 10
0.5465318116607562
 20
-2.6160798864734431
 40
1.5153110748376537
 50
199.70132510795113
 51
332.963098780986
  0
ARC
  8
_0-0_
  6
CONTINUOUS
 62
    7
 10
-4.223039516649493
 20
-2.8296427817709215
 40
1.5153110748376537
 50
199.70132510795113
 51
332.963098780986
  0
ARC
  8
_0-0_
  6
CONTINUOUS
 62
    7
 10
-7.0349509713995815
 20
-1.4770777782202487
 40
1.5153110748376537
 50
199.70132510795113
 51
332.963098780986
  0
ARC
  8
_0-0_
  6
CONTINUOUS
 62
    7
 10
-2.0874105636747657
 20
-0.8363890923278276
 40
1.5153110748376537
 50
199.70132510795113
 51
332.963098780986
  0
ARC
  8
_0-0_
  6
CONTINUOUS
 62
    7
 10
3.7855690570057874
 20
-1.1211396193911227
 40
1.5153110748376537
 50
199.70132510795113
 51
332.963098780986
  0
ARC
  8
_0-0_
  6
CONTINUOUS
 62
    7
 10
-14.153714147982072
 20
-2.8296427817709215
 40
1.5153110748376537
 50
199.70132510795113
 51
332.963098780986
  0
ARC
  8
_0-0_
  6
CONTINUOUS
 62
    7
 10
-4.6666027158787529
 20
11.066339691318149
 40
27.130658782323984
 50
235.48530969095958
 51
240.4781140577752
  0
ARC
  8
_0-0_
  6
CONTINUOUS
 62
    7
 10
-4.6666027158787529
 20
11.066339691318149
 40
27.130658782323984
 50
246.31965197959187
 51
251.70311438942935
  0
ARC
  8
_0-0_
  6
CONTINUOUS
 62
    7
 10
-0.7274322677162246
 20
29.825155178703241
 40
46.276853243734557
 50
261.85101179873345
 51
263.94000065377941
  0
ARC
  8
_0-0_
  6
CONTINUOUS
 62
    7
 10
-4.6666027158787529
 20
11.066339691318149
 40
27.130658782323984
 50
256.73562294002113
 51
259.5730210695346
  0
ARC
  8
_0-0_
  6
CONTINUOUS
 62
    7
 10
-0.7274322677162246
 20
29.825155178703241
 40
46.276853243734557
 50
267.21086370564279
 51
269.68118710814252
  0
ARC
  8
_0-0_
  6
CONTINUOUS
 62
    7
 10
-0.7274322677162246
 20
29.825155178703241
 40
46.276853243734557
 50
273.03974737878775
 51
276.30465298414708
  0
ARC
  8
_0-0_
  6
CONTINUOUS
 62
    7
 10
9.3026105188572075
 20
-15.073915445492773
 40
1.5153110748376537
 50
199.70132510795113
 51
5.7105931374995054
  0
ARC
  8
_0-0_
  6
CONTINUOUS
 62
    7
 10
2.757754300826079
 20
17.477378659730576
 40
33.666784536292454
 50
276.7447738124701
 51
279.02026628725844
  0
ARC
  8
_0-0_
  6
CONTINUOUS
 62
    7
 10
2.757754300826079
 20
17.477378659730576
 40
33.666784536292454
 50
289.62792824296145
 51
289.6722779078321
  0
ARC
  8
_0-0_
  6
CONTINUOUS
 62
    7
 10
2.757754300826079
 20
17.477378659730576
 40
33.666784536292454
 50
283.7568000913094
 51
288.20663759804097
  0
ARC
  8
_0-0_
  6
CONTINUOUS
 62
    7
 10
5.3958598800695654
 20
6.2824377495779444
 40
22.274231401186654
 50
295.39598049010965
 51
307.32479308996898
  0
ARC
  8
_0-0_
  6
CONTINUOUS
 62
    7
 10
3.9499221104262432
 20
-14.893276167307064
 40
10.704837923333852
 50
55.659802075092806
 51
81.121599219223427
  0
ARC
  8
_0-0_
  6
CONTINUOUS
 62
    7
 10
1.0218606198040874
 20
-17.423061732061029
 40
13.84460948531167
 50
80.153983327706527
 51
86.806881930652636
  0
ARC
  8
_0-0_
  6
CONTINUOUS
 62
    7
 10
-0.9621193342301523
 20
-26.963989667672728
 40
23.471101929773724
 50
89.180402684107321
 51
95.113297502057023
  0
ARC
  8
_0-0_
  6
CONTINUOUS
 62
    7
 10
-0.9621193342301523
 20
-26.963989667672728
 40
23.471101929773724
 50
100.76694247675823
 51
106.22160516034729
  0
ARC
  8
_0-0_
  6
CONTINUOUS
 62
    7
 10
11.750391587313061
 20
-4.978064523447344
 40
1.5153110748376537
 50
199.70132510795113
 51
332.963098780986
  0
LINE
  8
_0-0_
  6
CONTINUOUS
 62
    7
 10
-25.627538391959888
 20
-3.1186735778328014
 11
-25.913462571374737
 21
-7.4660609042780095
  0
LINE
  8
_0-0_
  6
CONTINUOUS
 62
    7
 10
24.348206603490532
 20
-4.1443611962815368
 11
24.361984089318661
 21
-8.5445247443181245
  0
LINE
  8
_0-0_
  6
CONTINUOUS
 62
    7
 10
-25.120474453698179
 20
-2.7398517229257635
 11
-25.310791601940537
 21
-5.1505356006624794
  0
LINE
  8
_0-0_
  6
CONTINUOUS
 62
    7
 10
-24.771559681920493
 20
-2.2006198029057131
 11
-24.961876830162851
 21
-4.6113036806424219
  0
LINE
  8
_0-0_
  6
CONTINUOUS
 62
    7
 10
-24.295766811314564
 20
-1.6613878828856556
 11
-24.486083959556922
 21
-4.0720717606223715
  0
LINE
  8
_0-0_
  6
CONTINUOUS
 62
    7
 10
-23.756534891294507
 20
-1.2490340616938482
 11
-23.946852039536864
 21
-3.6597179394305641
  0
LINE
  8
_0-0_
  6
CONTINUOUS
 62
    7
 10
-23.153863921860335
 20
-0.7415216663808621
 11
-23.344181070102678
 21
-3.1522055441175709
  0
LINE
  8
_0-0_
  6
CONTINUOUS
 62
    7
 10
-22.487753903012035
 20
-0.2022897463607975
 11
-22.678071051254392
 21
-2.6129736240975063
  0
LINE
  8
_0-0_
  6
CONTINUOUS
 62
    7
 10
-21.82164388416372
 20
0.1149055007098169
 11
-22.011961032406077
 21
-2.2957783770268989
  0
LINE
  8
_0-0_
  6
CONTINUOUS
 62
    7
 10
-21.218972914729534
 20
0.46382027248751
 11
-21.409290062971905
 21
-1.9468636052492059
  0
LINE
  8
_0-0_
  6
CONTINUOUS
 62
    7
 10
-20.457704321760062
 20
0.8127350442651888
 11
-20.648021470002419
 21
-1.5979488334715271
  0
LINE
  8
_0-0_
  6
CONTINUOUS
 62
    7
 10
-19.918472401740004
 20
1.2250888654569962
 11
-20.108789549982362
 21
-1.1855950122797125
  0
LINE
  8
_0-0_
  6
CONTINUOUS
 62
    7
 10
-19.09376475935639
 20
1.6057231619417394
 11
-19.284081907598733
 21
-0.8049607157949694
  0
LINE
  8
_0-0_
  6
CONTINUOUS
 62
    7
 10
-18.078739968730403
 20
1.8594793595982324
 11
-18.26905711697276
 21
-0.5512045181384905
  0
LINE
  8
_0-0_
  6
CONTINUOUS
 62
    7
 10
-17.412629949882103
 20
2.3035527054971041
 11
-17.602947098124446
 21
-0.1071311722396188
  0
LINE
  8
_0-0_
  6
CONTINUOUS
 62
    7
 10
-16.809958980447917
 20
2.4938698537394757
 11
-17.000276128690274
 21
0.0831859760027668
  0
LINE
  8
_0-0_
  6
CONTINUOUS
 62
    7
 10
-16.04869038747843
 20
2.7476260513959758
 11
-16.239007535720788
 21
0.3369421736592528
  0
LINE
  8
_0-0_
  6
CONTINUOUS
 62
    7
 10
-15.223982745094816
 20
2.9379431996383474
 11
-15.414299893337159
 21
0.5272593219016386
  0
LINE
  8
_0-0_
  6
CONTINUOUS
 62
    7
 10
-14.082079855640586
 20
3.1916993972948475
 11
-14.272397003882944
 21
0.7810155195581245
  0
LINE
  8
_0-0_
  6
CONTINUOUS
 62
    7
 10
-13.415969836792272
 20
3.5723336937795906
 11
-13.606286985034629
 21
1.1616498160428677
  0
LINE
  8
_0-0_
  6
CONTINUOUS
 62
    7
 10
-12.527823144994528
 20
3.6992117926078265
 11
-12.7181402932369
 21
1.2885279148711248
  0
LINE
  8
_0-0_
  6
CONTINUOUS
 62
    7
 10
-11.481078829661485
 20
3.9212484655572624
 11
-11.671395977903842
 21
1.5105645878205394
  0
LINE
  8
_0-0_
  6
CONTINUOUS
 62
    7
 10
-14.843348448610072
 20
3.2551384467089619
 11
-15.033665596852416
 21
0.8444545689722531
  0
LINE
  8
_0-0_
  6
CONTINUOUS
 62
    7
 10
-10.783249286106127
 20
3.9212484655572624
 11
-10.97356643434847
 21
1.5105645878205394
  0
LINE
  8
_0-0_
  6
CONTINUOUS
 62
    7
 10
-9.7999440201871977
 20
4.2067241879208268
 11
-9.990261168429555
 21
1.7960403101841251
  0
LINE
  8
_0-0_
  6
CONTINUOUS
 62
    7
 10
-9.10211447663184
 20
4.3018827620420197
 11
-9.2924316248741832
 21
1.8911988843053109
  0
LINE
  8
_0-0_
  6
CONTINUOUS
 62
    7
 10
-8.499443507197654
 20
4.3970413361631984
 11
-8.6897606554400113
 21
1.9863574584264754
  0
LINE
  8
_0-0_
  6
CONTINUOUS
 62
    7
 10
-7.7064553895211105
 20
4.5239194349914413
 11
-7.8967725377634679
 21
2.1132355572547326
  0
LINE
  8
_0-0_
  6
CONTINUOUS
 62
    7
 10
-7.0720648953798673
 20
4.5239194349914413
 11
-7.2623820436222246
 21
2.1132355572547326
  0
LINE
  8
_0-0_
  6
CONTINUOUS
 62
    7
 10
-6.437674401238624
 20
4.5239194349914413
 11
-6.6279915494809813
 21
2.1132355572547326
  0
LINE
  8
_0-0_
  6
CONTINUOUS
 62
    7
 10
-5.8667229565114951
 20
4.6190780091126342
 11
-6.0570401047538525
 21
2.2083941313759254
  0
LINE
  8
_0-0_
  6
CONTINUOUS
 62
    7
 10
-5.0102957894208231
 20
4.6825170585267628
 11
-5.2006129376631804
 21
2.271833180790054
  0
LINE
  8
_0-0_
  6
CONTINUOUS
 62
    7
 10
-4.2173076717442655
 20
4.6825170585267628
 11
-4.4076248199866228
 21
2.271833180790054
  0
LINE
  8
_0-0_
  6
CONTINUOUS
 62
    7
 10
-3.3291609799465363
 20
4.5239194349914413
 11
-3.5194781281888936
 21
2.1132355572547326
  0
LINE
  8
_0-0_
  6
CONTINUOUS
 62
    7
 10
-2.8533681093405932
 20
4.6507975338196985
 11
-3.0436852575829505
 21
2.2401136560829897
  0
LINE
  8
_0-0_
  6
CONTINUOUS
 62
    7
 10
-1.8700628434216782
 20
4.8093951573550058
 11
-2.0603799916640355
 21
2.3987112796182828
  0
LINE
  8
_0-0_
  6
CONTINUOUS
 62
    7
 10
-0.3475256574826914
 20
4.7459561079408914
 11
-0.5378428057250488
 21
2.3352722302041826
  0
LINE
  8
_0-0_
  6
CONTINUOUS
 62
    7
 10
0.6674991331432806
 20
4.7142365832338271
 11
0.4771819849009375
 21
2.3035527054971183
  0
LINE
  8
_0-0_
  6
CONTINUOUS
 62
    7
 10
-1.0136356763310062
 20
4.8411146820620701
 11
-1.2039528245733635
 21
2.4304308043253471
  0
LINE
  8
_0-0_
  6
CONTINUOUS
 62
    7
 10
1.8411215473045957
 20
4.5239194349914413
 11
1.6508043990622383
 21
2.1132355572547326
  0
LINE
  8
_0-0_
  6
CONTINUOUS
 62
    7
 10
2.8878658626376392
 20
4.5873584844055699
 11
2.6975487143952819
 21
2.1766746066688611
  0
LINE
  8
_0-0_
  6
CONTINUOUS
 62
    7
 10
1.2067310531633524
 20
4.7459561079408914
 11
1.016413904920995
 21
2.3352722302041826
  0
LINE
  8
_0-0_
  6
CONTINUOUS
 62
    7
 10
3.7442930297283255
 20
4.5556389596985056
 11
3.5539758814859397
 21
2.1449550819617969
  0
LINE
  8
_0-0_
  6
CONTINUOUS
 62
    7
 10
4.6958787709401975
 20
4.5556389596985056
 11
4.5055616226978117
 21
2.1449550819617969
  0
LINE
  8
_0-0_
  6
CONTINUOUS
 62
    7
 10
5.3937083144955551
 20
4.3653218114561341
 11
5.2033911662531693
 21
1.9546379337194111
  0
LINE
  8
_0-0_
  6
CONTINUOUS
 62
    7
 10
6.5356112039497418
 20
4.333602286749084
 11
6.3452940557074271
 21
1.9229184090123823
  0
LINE
  8
_0-0_
  6
CONTINUOUS
 62
    7
 10
7.4554774204545851
 20
4.2067241879208268
 11
7.2651602722121993
 21
1.7960403101841251
  0
LINE
  8
_0-0_
  6
CONTINUOUS
 62
    7
 10
5.9963792839297412
 20
4.3970413361631984
 11
5.8060621356873554
 21
1.9863574584264754
  0
LINE
  8
_0-0_
  6
CONTINUOUS
 62
    7
 10
8.1533069640099427
 20
4.1115656137996339
 11
7.9629898157676138
 21
1.7008817360629251
  0
LINE
  8
_0-0_
  6
CONTINUOUS
 62
    7
 10
8.724258408737029
 20
4.0481265643855195
 11
8.5339412604947142
 21
1.6374426866487966
  0
LINE
  8
_0-0_
  6
CONTINUOUS
 62
    7
 10
9.517246526413615
 20
3.8260898914360837
 11
9.422087952292415
 21
1.3836864889923177
  0
LINE
  8
_0-0_
  6
CONTINUOUS
 62
    7
 10
9.0573134181612289
 20
3.7785106043754908
 11
8.9621548440400289
 21
1.3361072019317177
  0
LINE
  8
_0-0_
  6
CONTINUOUS
 62
    7
 10
10.452972505271958
 20
3.3978763078907477
 11
10.357813931150773
 21
0.9554729054469746
  0
LINE
  8
_0-0_
  6
CONTINUOUS
 62
    7
 10
9.8503015358377723
 20
3.3978763078907477
 11
9.7551429617165866
 21
0.9554729054469746
  0
LINE
  8
_0-0_
  6
CONTINUOUS
 62
    7
 10
10.833606801756702
 20
3.0806810608201189
 11
10.738448227635516
 21
0.6382776583763529
  0
LINE
  8
_0-0_
  6
CONTINUOUS
 62
    7
 10
11.245960622948516
 20
3.0489615361130689
 11
11.150802048827316
 21
0.6065581336692957
  0
LINE
  8
_0-0_
  6
CONTINUOUS
 62
    7
 10
11.658314444140316
 20
2.9220834372848117
 11
11.563155870019131
 21
0.4796800348410386
  0
LINE
  8
_0-0_
  6
CONTINUOUS
 62
    7
 10
12.451302561816874
 20
2.8586443878706831
 11
12.356143987695674
 21
0.41624098542691
  0
LINE
  8
_0-0_
  6
CONTINUOUS
 62
    7
 10
12.800217333594546
 20
2.7952053384565687
 11
12.705058759473346
 21
0.3528019360128027
  0
LINE
  8
_0-0_
  6
CONTINUOUS
 62
    7
 10
13.307729728907546
 20
2.6366077149212686
 11
13.212571154786346
 21
0.1942043124774954
  0
LINE
  8
_0-0_
  6
CONTINUOUS
 62
    7
 10
14.005559272462932
 20
2.4145710419718185
 11
13.910400698341732
 21
-0.0278323604719545
  0
LINE
  8
_0-0_
  6
CONTINUOUS
 62
    7
 10
14.671669291311218
 20
2.1925343690223968
 11
14.576510717190018
 21
-0.2498690334213762
  0
LINE
  8
_0-0_
  6
CONTINUOUS
 62
    7
 10
15.274340260745404
 20
2.0656562701941397
 11
15.179181686624219
 21
-0.3767471322496334
  0
LINE
  8
_0-0_
  6
CONTINUOUS
 62
    7
 10
15.750133131351348
 20
1.9387781713658967
 11
15.654974557230148
 21
-0.5036252310778763
  0
LINE
  8
_0-0_
  6
CONTINUOUS
 62
    7
 10
16.352804100785505
 20
1.7167414984164608
 11
16.257645526664305
 21
-0.7256619040273122
  0
LINE
  8
_0-0_
  6
CONTINUOUS
 62
    7
 10
16.987194594926763
 20
1.494704825467025
 11
16.892036020805563
 21
-0.947698576976748
  0
LINE
  8
_0-0_
  6
CONTINUOUS
 62
    7
 10
17.716743663189177
 20
1.3361072019317177
 11
17.621585089067992
 21
-1.1062962005120553
  0
LINE
  8
_0-0_
  6
CONTINUOUS
 62
    7
 10
18.224256058502178
 20
0.9554729054469604
 11
18.129097484380992
 21
-1.4869304969968056
  0
LINE
  8
_0-0_
  6
CONTINUOUS
 62
    7
 10
18.700048929108107
 20
0.8285948066187174
 11
18.604890354986921
 21
-1.6138085958250485
  0
LINE
  8
_0-0_
  6
CONTINUOUS
 62
    7
 10
18.890366077350471
 20
0.7017167077904815
 11
18.795207503229278
 21
-1.7406866946532915
  0
LINE
  8
_0-0_
  6
CONTINUOUS
 62
    7
 10
19.524756571491729
 20
0.3528019360127814
 11
19.429597997370536
 21
-2.0896014664309845
  0
LINE
  8
_0-0_
  6
CONTINUOUS
 62
    7
 10
20.063988491511765
 20
0.2259238371845455
 11
19.968829917390565
 21
-2.2164795652592275
  0
LINE
  8
_0-0_
  6
CONTINUOUS
 62
    7
 10
20.286025164461208
 20
0.035606688942174
 11
20.190866590340022
 21
-2.4067967135015991
  0
LINE
  8
_0-0_
  6
CONTINUOUS
 62
    7
 10
20.825257084481272
 20
-0.2181495087143261
 11
20.730098510360079
 21
-2.6605529111580992
  0
LINE
  8
_0-0_
  6
CONTINUOUS
 62
    7
 10
20.983854708016565
 20
-0.3767471322496476
 11
20.888696133895372
 21
-2.8191505346934136
  0
LINE
  8
_0-0_
  6
CONTINUOUS
 62
    7
 10
21.427928053915437
 20
-0.6939423793202621
 11
21.332769479794244
 21
-3.1363457817640352
  0
LINE
  8
_0-0_
  6
CONTINUOUS
 62
    7
 10
21.776842825693109
 20
-0.9794181016838123
 11
21.681684251571923
 21
-3.4218215041275926
  0
LINE
  8
_0-0_
  6
CONTINUOUS
 62
    7
 10
22.252635696299052
 20
-1.2966133487544411
 11
22.157477122177852
 21
-3.7390167511982071
  0
LINE
  8
_0-0_
  6
CONTINUOUS
 62
    7
 10
22.601550468076724
 20
-1.7406866946533057
 11
22.506391893955538
 21
-4.1830900970970788
  0
LINE
  8
_0-0_
  6
CONTINUOUS
 62
    7
 10
23.140782388096788
 20
-2.3116381393804275
 11
23.045623813975595
 21
-4.7540415418242006
  0
LINE
  8
_0-0_
  6
CONTINUOUS
 62
    7
 10
23.616575258702724
 20
-2.850870059400485
 11
23.521416684581531
 21
-5.2932734618442581
  0
LINE
  8
_0-0_
  6
CONTINUOUS
 62
    7
 10
23.743453357530981
 20
-3.3901019794205354
 11
23.648294783409789
 21
-5.8325053818643084
  0
LINE
  8
_0-0_
  6
CONTINUOUS
 62
    7
 10
24.124087654015725
 20
-3.8976143747335357
 11
24.028929079894525
 21
-6.3400177771773016
  0
LINE
  8
_0-0_
  6
CONTINUOUS
 62
    7
 10
12.070668265332131
 20
2.6683272396283115
 11
11.975509691210931
 21
0.2259238371845455
  0
LINE
  8
_0-0_
  6
CONTINUOUS
 62
    7
 10
-9.1907637151838628
 20
-9.0632216885924635
 11
-9.2729036181667652
 21
-10.747089699742197
  0
LINE
  8
_0-0_
  6
CONTINUOUS
 62
    7
 10
-9.3755784968954146
 20
-9.206966518812564
 11
-9.4166484483868658
 21
-10.233715306098986
  0
LINE
  8
_0-0_
  6
CONTINUOUS
 62
    7
 10
-8.9443440062351272
 20
-9.4739212035070395
 11
-9.0264839092180296
 21
-11.157789214656766
  0
LINE
  8
_0-0_
  6
CONTINUOUS
 62
    7
 10
-8.554179467066291
 20
-9.6382010094728656
 11
-8.6363193700491934
 21
-11.322069020622592
  0
LINE
  8
_0-0_
  6
CONTINUOUS
 62
    7
 10
-8.2872247823718226
 20
-9.7819458396929662
 11
-8.369364685354725
 21
-11.465813850842693
  0
LINE
  8
_0-0_
  6
CONTINUOUS
 62
    7
 10
-7.9175952189487049
 20
-9.9462256456587852
 11
-7.9997351219316073
 21
-11.630093656808519
  0
LINE
  8
_0-0_
  6
CONTINUOUS
 62
    7
 10
-7.4863607282884033
 20
-10.172110378861802
 11
-7.5685006312713057
 21
-11.855978390011529
  0
LINE
  8
_0-0_
  6
CONTINUOUS
 62
    7
 10
-7.0756612133738486
 20
-10.254250281844712
 11
-7.157801116356751
 21
-11.938118292994446
  0
LINE
  8
_0-0_
  6
CONTINUOUS
 62
    7
 10
-6.4596119410019952
 20
-10.521204966539187
 11
-6.5417518439848976
 21
-12.205072977688914
  0
LINE
  8
_0-0_
  6
CONTINUOUS
 62
    7
 10
-6.644426722713547
 20
-10.439065063556271
 11
-6.7265666256964494
 21
-12.122933074705998
  0
LINE
  8
_0-0_
  6
CONTINUOUS
 62
    7
 10
-6.233727207798978
 20
-10.603344869522097
 11
-6.3158671107818805
 21
-12.287212880671831
  0
LINE
  8
_0-0_
  6
CONTINUOUS
 62
    7
 10
-5.8024927171386764
 20
-10.726554723996472
 11
-5.8846326201215788
 21
-12.410422735146199
  0
LINE
  8
_0-0_
  6
CONTINUOUS
 62
    7
 10
-5.3507232507326563
 20
-10.808694626979381
 11
-5.4328631537155587
 21
-12.492562638129115
  0
LINE
  8
_0-0_
  6
CONTINUOUS
 62
    7
 10
-4.7757439298522542
 20
-10.931904481453756
 11
-4.8578838328351708
 21
-12.615772492603483
  0
LINE
  8
_0-0_
  6
CONTINUOUS
 62
    7
 10
-4.3445094391919667
 20
-11.055114335928124
 11
-4.4266493421748692
 21
-12.738982347077851
  0
LINE
  8
_0-0_
  6
CONTINUOUS
 62
    7
 10
-3.9954148515145818
 20
-11.075649311673857
 11
-4.0775547544974842
 21
-12.759517322823584
  0
LINE
  8
_0-0_
  6
CONTINUOUS
 62
    7
 10
-3.5231104093628289
 20
-11.198859166148225
 11
-3.6052503123457456
 21
-12.882727177297951
  0
LINE
  8
_0-0_
  6
CONTINUOUS
 62
    7
 10
-2.6811764037879726
 20
-11.280999069131134
 11
-2.763316306770875
 21
-12.964867080280861
  0
LINE
  8
_0-0_
  6
CONTINUOUS
 62
    7
 10
-2.3526167918563203
 20
-11.301534044876867
 11
-2.4347566948392227
 21
-12.985402056026601
  0
LINE
  8
_0-0_
  6
CONTINUOUS
 62
    7
 10
-3.1329458701939927
 20
-11.301534044876867
 11
-3.2150857731768951
 21
-12.985402056026601
  0
LINE
  8
_0-0_
  6
CONTINUOUS
 62
    7
 10
-1.8187074224673694
 20
-11.383673947859776
 11
-1.9008473254502718
 21
-13.06754195900951
  0
LINE
  8
_0-0_
  6
CONTINUOUS
 62
    7
 10
-1.3464029803156166
 20
-11.342603996368318
 11
-1.4285428832985332
 21
-13.026472007518052
  0
LINE
  8
_0-0_
  6
CONTINUOUS
 62
    7
 10
-0.9562384411467803
 20
-11.404208923605509
 11
-1.0383783441296828
 21
-13.088076934755236
  0
LINE
  8
_0-0_
  6
CONTINUOUS
 62
    7
 10
-0.4633990232492948
 20
-11.383673947859776
 11
-0.5455389262322114
 21
-13.06754195900951
  0
LINE
  8
_0-0_
  6
CONTINUOUS
 62
    7
 10
-0.0321645325890074
 20
-11.301534044876867
 11
-0.1143044355719098
 21
-12.985402056026601
  0
LINE
  8
_0-0_
  6
CONTINUOUS
 62
    7
 10
0.5633497640371132
 20
-11.260464093385409
 11
0.4812098610542108
 21
-12.944332104535135
  0
LINE
  8
_0-0_
  6
CONTINUOUS
 62
    7
 10
1.1177941091717969
 20
-11.219394141893957
 11
1.0356542061888803
 21
-12.903262153043684
  0
LINE
  8
_0-0_
  6
CONTINUOUS
 62
    7
 10
1.6311685028149867
 20
-11.219394141893957
 11
1.5490285998320843
 21
-12.903262153043684
  0
LINE
  8
_0-0_
  6
CONTINUOUS
 62
    7
 10
2.1034729449667537
 20
-11.116719263165308
 11
2.0213330419838513
 21
-12.800587274315035
  0
LINE
  8
_0-0_
  6
CONTINUOUS
 62
    7
 10
2.4936374841355899
 20
-10.972974432945207
 11
2.4114975811526875
 21
-12.656842444094934
  0
LINE
  8
_0-0_
  6
CONTINUOUS
 62
    7
 10
2.9864769020330755
 20
-10.931904481453756
 11
2.9043369990501731
 21
-12.615772492603483
  0
LINE
  8
_0-0_
  6
CONTINUOUS
 62
    7
 10
3.3355714897104605
 20
-10.767624675487923
 11
3.2534315867275438
 21
-12.45149268663765
  0
LINE
  8
_0-0_
  6
CONTINUOUS
 62
    7
 10
3.6230611501506473
 20
-10.685484772505006
 11
3.5409212471677449
 21
-12.36935278365474
  0
LINE
  8
_0-0_
  6
CONTINUOUS
 62
    7
 10
4.1569705195395983
 20
-10.664949796759288
 11
4.0748306165566959
 21
-12.348817807909015
  0
LINE
  8
_0-0_
  6
CONTINUOUS
 62
    7
 10
4.8140897434029029
 20
-10.582809893776371
 11
4.7319498404200004
 21
-12.266677904926098
  0
LINE
  8
_0-0_
  6
CONTINUOUS
 62
    7
 10
5.4506739915204889
 20
-10.500669990793455
 11
5.3685340885375865
 21
-12.184538001943189
  0
LINE
  8
_0-0_
  6
CONTINUOUS
 62
    7
 10
6.1283281911294978
 20
-10.131040427370351
 11
6.0461882881465954
 21
-11.814908438520078
  0
LINE
  8
_0-0_
  6
CONTINUOUS
 62
    7
 10
5.7792336034521412
 20
-10.06943550013316
 11
5.6970937004692388
 21
-11.753303511282894
  0
LINE
  8
_0-0_
  6
CONTINUOUS
 62
    7
 10
5.1426493553345551
 20
-10.356925160573361
 11
5.0605094523516527
 21
-12.040793171723088
  0
LINE
  8
_0-0_
  6
CONTINUOUS
 62
    7
 10
4.7730197919114516
 20
-10.459600039301996
 11
4.6908798889285492
 21
-12.14346805045173
  0
LINE
  8
_0-0_
  6
CONTINUOUS
 62
    7
 10
4.362320276996897
 20
-10.582809893776371
 11
4.2801803740139803
 21
-12.266677904926098
  0
LINE
  8
_0-0_
  6
CONTINUOUS
 62
    7
 10
4.5060651072169549
 20
-10.500669990793455
 11
4.4239252042340524
 21
-12.184538001943189
  0
LINE
  8
_0-0_
  6
CONTINUOUS
 62
    7
 10
5.964048385163693
 20
-9.9462256456587852
 11
5.8819084821807905
 21
-11.630093656808519
  0
LINE
  8
_0-0_
  6
CONTINUOUS
 62
    7
 10
6.600632633281279
 20
-9.8435507669301501
 11
6.5184927302983766
 21
-11.527418778079877
  0
LINE
  8
_0-0_
  6
CONTINUOUS
 62
    7
 10
6.7443774635013796
 20
-9.6382010094728656
 11
6.6622375605184772
 21
-11.322069020622592
  0
LINE
  8
_0-0_
  6
CONTINUOUS
 62
    7
 10
6.8675873179757332
 20
-9.39178130052413
 11
6.7854474149928308
 21
-11.075649311673857
  0
LINE
  8
_0-0_
  6
CONTINUOUS
 62
    7
 10
7.1140070269244831
 20
-9.1042916400839289
 11
7.0318671239415806
 21
-10.788159651233656
  0
LINE
  8
_0-0_
  6
CONTINUOUS
 62
    7
 10
7.4220316631104026
 20
-8.857871931135179
 11
7.339891760127486
 21
-10.541739942284913
  0
LINE
  8
_0-0_
  6
CONTINUOUS
 62
    7
 10
7.2166819056531324
 20
-9.042686712846745
 11
7.13454200267023
 21
-10.726554723996472
  0
LINE
  8
_0-0_
  6
CONTINUOUS
 62
    7
 10
6.3952828758239946
 20
-9.61766603372714
 11
6.3131429728410922
 21
-11.301534044876867
  0
ARC
  8
_0-0_
  6
CONTINUOUS
 62
    7
 10
-3.214628338700777
 20
32.813213802224794
 40
2.2523903204080278
 50
96.288550678764111
 51
203.6448884492456
  0
ARC
  8
_0-0_
  6
CONTINUOUS
 62
    7
 10
-0.5891815289623707
 20
28.972228387550715
 40
6.7241037226689357
 50
64.713520958843091
 51
115.28647904115691
  0
ARC
  8
_0-0_
  6
CONTINUOUS
 62
    7
 10
1.3049119070524995
 20
32.902229038288127
 40
2.3618545992357811
 50
339.03453369138703
 51
65.536641602278493
  0
ARC
  8
_0-0_
  6
CONTINUOUS
 62
    7
 10
-2.0229968297576875
 20
32.25319034223304
 40
3.9903046674139753
 50
100.13106231223051
 51
159.8427101776978
  0
ARC
  8
_0-0_
  6
CONTINUOUS
 62
    7
 10
-0.7596727444655186
 20
29.622730415208125
 40
6.8466515983813947
 50
57.478063178814281
 51
106.68045701790363
  0
ARC
  8
_0-0_
  6
CONTINUOUS
 62
    7
 10
-1.38039565607626
 20
31.182844150815711
 40
6.0210029439268862
 50
24.475185118896334
 51
44.402793498710849
  0
ARC
  8
_0-0_
  6
CONTINUOUS
 62
    7
 10
-1.5932460597635725
 20
33.028363270128423
 40
5.5274469190476081
 50
94.610361224997973
 51
143.97236311697054
  0
ARC
  8
_0-0_
  6
CONTINUOUS
 62
    7
 10
-0.610061785464822
 20
32.055734374830536
 40
6.6375061134440614
 50
60.81433322859106
 51
102.41916980955024
  0
ARC
  8
_0-0_
  6
CONTINUOUS
 62
    7
 10
1.2940845264556913
 20
34.886074622015954
 40
3.2502292115951987
 50
14.326048767053809
 51
65.795520148693825
  0
ARC
  8
_0-0_
  6
CONTINUOUS
 62
    7
 10
-1.1334613498988801
 20
33.646754403738285
 40
6.2867086331147766
 50
94.665052847807715
 51
133.66820683816329
  0
ARC
  8
_0-0_
  6
CONTINUOUS
 62
    7
 10
-0.5286668446551772
 20
34.22939401230208
 40
5.7917971156316082
 50
53.440722068330558
 51
101.11056656082465
  0
ARC
  8
_0-0_
  6
CONTINUOUS
 62
    7
 10
1.5710785221553323
 20
36.549504172910517
 40
2.6947401043217765
 50
23.061519532293399
 51
59.931417178137707
  0
ARC
  8
_0-0_
  6
CONTINUOUS
 62
    7
 10
-0.6749936228242745
 20
34.5407122062377
 40
6.3484053759258092
 50
80.426567217938739
 51
131.01859298973736
  0
ARC
  8
_0-0_
  6
CONTINUOUS
 62
    7
 10
-0.4679533228907359
 20
36.090066068677586
 40
4.7864949811485484
 50
43.328221590099261
 51
79.785921161174045
  0
ARC
  8
_0-0_
  6
CONTINUOUS
 62
    7
 10
-1.012524326327835
 20
36.189471886765446
 40
5.4435835843258165
 50
85.028288855097273
 51
133.09686517398242
  0
ARC
  8
_0-0_
  6
CONTINUOUS
 62
    7
 10
-0.8649116733814992
 20
36.029724409871889
 40
5.5922525726678645
 50
47.012784395816183
 51
86.677044096252629
  0
ARC
  8
_0-0_
  6
CONTINUOUS
 62
    7
 10
-0.5714779933356197
 20
36.928893301573723
 40
5.6289573229246832
 50
88.570471126012535
 51
138.65807301013072
  0
ARC
  8
_0-0_
  6
CONTINUOUS
 62
    7
 10
-0.8465616031671743
 20
37.894406893920504
 40
4.6801730983302043
 50
35.36516604453508
 51
84.906504962960966
  0
ARC
  8
_0-0_
  6
CONTINUOUS
 62
    7
 10
-0.9535985200423624
 20
38.128510549616792
 40
5.1977241272077324
 50
88.351497842423129
 51
134.213800154735
  0
ARC
  8
_0-0_
  6
CONTINUOUS
 62
    7
 10
-0.6489293012451042
 20
39.052210203222486
 40
4.2746894680141203
 50
32.156170720810373
 51
92.079902113447162
  0
LINE
  8
_0-0_
  6
CONTINUOUS
 62
    7
 10
-4.5781678012141924
 20
41.853941213116357
 11
-4.8414768578211778
 21
38.760059797984198
  0
LINE
  8
_0-0_
  6
CONTINUOUS
 62
    7
 10
2.9700251548529195
 20
41.327323099902387
 11
3.0139099976207433
 21
38.80394464075205
  0
LINE
  8
_0-0_
  6
CONTINUOUS
 62
    7
 10
-5.4743150536489793
 20
38.194247620920564
 11
-5.675288870409986
 21
36.719414609280022
  0
LINE
  8
_0-0_
  6
CONTINUOUS
 62
    7
 10
-4.6439950653659281
 20
38.957541590439462
 11
-4.709822329517678
 21
37.728765992940154
  0
LINE
  8
_0-0_
  6
CONTINUOUS
 62
    7
 10
-3.3274497823309588
 20
39.571929389189094
 11
-3.3493922037148849
 21
38.343153791689801
  0
LINE
  8
_0-0_
  6
CONTINUOUS
 62
    7
 10
-1.6159409143855044
 20
39.901065709947844
 11
-1.6378833357694305
 21
38.694232533832462
  0
LINE
  8
_0-0_
  6
CONTINUOUS
 62
    7
 10
0.1175103749438477
 20
39.879123288563918
 11
0.0955679535599216
 21
38.716174955216374
  0
LINE
  8
_0-0_
  6
CONTINUOUS
 62
    7
 10
1.8729040856571118
 20
39.352505175349947
 11
1.8729040856571118
 21
38.343153791689801
  0
LINE
  8
_0-0_
  6
CONTINUOUS
 62
    7
 10
2.9919675762368172
 20
38.650347691064624
 11
3.0139099976207433
 21
37.816535678475802
  0
LINE
  8
_0-0_
  6
CONTINUOUS
 62
    7
 10
4.0890886454326392
 20
37.553226621868816
 11
4.0890886454326392
 21
36.521932816824759
  0
LINE
  8
_0-0_
  6
CONTINUOUS
 62
    7
 10
-6.0634768857719763
 20
36.279471666520791
 11
-6.1141372980882949
 21
34.020496779058348
  0
LINE
  8
_0-0_
  6
CONTINUOUS
 62
    7
 10
-6.1141372980882949
 20
34.020496779058348
 11
-5.7688959697104849
 21
33.628243421967241
  0
LINE
  8
_0-0_
  6
CONTINUOUS
 62
    7
 10
4.4432424537549764
 20
35.690309834397794
 11
4.3085128592717723
 21
33.844957407987025
  0
LINE
  8
_0-0_
  6
CONTINUOUS
 62
    7
 10
4.3085128592717723
 20
33.844957407987025
 11
4.099564718349896
 21
33.677340241310858
  0
LINE
  8
_0-0_
  6
CONTINUOUS
 62
    7
 10
4.099564718349896
 20
33.677340241310858
 11
4.1110310668165368
 21
32.791721181559055
  0
LINE
  8
_0-0_
  6
CONTINUOUS
 62
    7
 10
4.1110310668165368
 20
32.791721181559055
 11
3.9574341171291252
 21
32.330930332496834
  0
LINE
  8
_0-0_
  6
CONTINUOUS
 62
    7
 10
3.9574341171291252
 20
32.330930332496834
 11
3.5624705322186401
 21
32.023736433122011
  0
LINE
  8
_0-0_
  6
CONTINUOUS
 62
    7
 10
-5.7688959697104849
 20
33.628243421967241
 11
-5.7850009773295596
 21
33.186684766469554
  0
LINE
  8
_0-0_
  6
CONTINUOUS
 62
    7
 10
-5.7850009773295596
 20
33.186684766469554
 11
-5.6972312917938837
 21
32.550354546335996
  0
LINE
  8
_0-0_
  6
CONTINUOUS
 62
    7
 10
-5.6972312917938837
 20
32.550354546335996
 11
-5.4558646565708102
 21
32.067621275889834
  0
LINE
  8
_0-0_
  6
CONTINUOUS
 62
    7
 10
-5.4558646565708102
 20
32.067621275889834
 11
-5.2779277762746233
 21
31.909854744941811
  0
LINE
  8
_0-0_
  6
CONTINUOUS
 62
    7
 10
-5.4297604386973717
 20
32.405228587992156
 11
-5.8211567943291271
 21
15.025386707139631
  0
LINE
  8
_0-0_
  6
CONTINUOUS
 62
    7
 10
3.5606590492885744
 20
32.20225619722568
 11
4.7894047758301923
 21
14.318015935795685
  0
LINE
  8
_0-0_
  6
CONTINUOUS
 62
    7
 10
-0.0361901111918427
 20
33.583918256976631
 11
0.3329689163632849
 21
18.632977640993801
  0
LINE
  8
_0-0_
  6
CONTINUOUS
 62
    7
 10
-3.9112557117004485
 20
32.594003219105247
 11
-3.9112557117004485
 21
17.925606869649855
  0
ENDBLK
  0
ENDSEC
  0
SECTION
  2
ENTITIES
  0
INSERT
  2
-001-4
  8
_0-0_
 10
149.73050103038497
 20
96.503698974417148
 41
1
 42
1
 50
0
  0
ENDSEC
  0
EOF
