  0
SECTION
  2
HEADER
  9
$ACADVER
  1
AC1009
  9
$INSBASE
 10
0
 20
0
 30
0
  9
$EXTMIN
 10
0
 20
0
  9
$EXTMAX
 10
297
 20
210
  9
$LIMMIN
 10
0
 20
0
  9
$LIMMAX
 10
297
 20
210
  9
$LTSCALE
 40
1
  0
ENDSEC
  0
SECTION
  2
TABLES
  0
TABLE
  2
LTYPE
 70
     9
  0
LTYPE
  2
CONTINUOUS
 70
    64
  3
実線
 72
    65
 73
     0
 40
0.0
  0
LTYPE
  2
DASHED1
 70
    64
  3
--  --  --  --  --  --  --  --  
 72
    65
 73
     2
 40
2.5
 49
1.25
 49
-1.25
  0
LTYPE
  2
DASHED2
 70
    64
  3
----    ----    ----    ----    
 72
    65
 73
     2
 40
5.0
 49
2.5
 49
-2.5
  0
LTYPE
  2
DASHED3
 70
    64
  3
------  ------  ------  ------  
 72
    65
 73
     2
 40
5.0
 49
3.75
 49
-1.25
  0
LTYPE
  2
CENTER1
 70
    64
  3
----- - ----- - ----- - ----- - 
 72
    65
 73
     4
 40
10.0
 49
6.25
 49
-1.25
 49
1.25
 49
-1.25
  0
LTYPE
  2
CENTER2
 70
    64
  3
----------  --  ----------  --  
 72
    65
 73
     4
 40
20.0
 49
12.5
 49
-2.5
 49
2.5
 49
-2.5
  0
LTYPE
  2
PHANTOM1
 70
    64
  3
--- - - --- - - --- - - --- - - 
 72
    65
 73
     6
 40
10.0
 49
3.25
 49
-1.25
 49
1.25
 49
-1.25
 49
1.25
 49
-1.25
  0
LTYPE
  2
PHANTOM2
 70
    64
  3
--------  -  -  --------  -  -  
 72
    65
 73
     6
 40
20.0
 49
10.0
 49
-2.5
 49
1.25
 49
-2.5
 49
1.25
 49
-2.5
  0
LTYPE
  2
DOT
 70
    64
  3
-   -   -   -   -   -   -   -   
 72
    65
 73
     2
 40
2.5
 49
0.625
 49
-1.875
  0
LTYPE
  2
DUMMY
 70
    64
  3
ダミー
 72
    65
 73
     0
 40
0.0
  0
LTYPE
  2
RAND1
 70
    64
  3
ランダム線1
 72
    65
 73
     4
 40
10.0
 49
1.0
 49
-2.0
 49
3.0
 49
-4.0
  0
LTYPE
  2
RAND2
 70
    64
  3
ランダム線2
 72
    65
 73
     4
 40
14.0
 49
2.0
 49
-3.0
 49
4.0
 49
-5.0
  0
LTYPE
  2
RAND3
 70
    64
  3
ランダム線3
 72
    65
 73
     4
 40
18.0
 49
3.0
 49
-4.0
 49
5.0
 49
-6.0
  0
LTYPE
  2
RAND4
 70
    64
  3
ランダム線4
 72
    65
 73
     4
 40
22.0
 49
4.0
 49
-5.0
 49
6.0
 49
-7.0
  0
LTYPE
  2
RAND5
 70
    64
  3
ランダム線5
 72
    65
 73
     4
 40
26.0
 49
5.0
 49
-6.0
 49
7.0
 49
-8.0
  0
LTYPE
  2
LONG1
 70
    64
  3
----------  --  ----------  --  
 72
    65
 73
     4
 40
40.0
 49
32.5
 49
-2.5
 49
2.5
 49
-2.5
  0
LTYPE
  2
LONG2
 70
    64
  3
--------  -  -  --------  -  -  
 72
    65
 73
     6
 40
40.0
 49
30.0
 49
-2.5
 49
1.25
 49
-2.5
 49
1.25
 49
-2.5
  0
LTYPE
  2
LONG3
 70
    64
  3
+++++++++++++++..+++++++++++++++
 72
    65
 73
     2
 40
40.0
 49
37.5
 49
-2.5
  0
LTYPE
  2
LONG4
 70
    64
  3
+++++++++++++++..+++++++++++++++
 72
    65
 73
     2
 40
80.0
 49
75.0
 49
-5.0
  0
LTYPE
  2
LONG5
 70
    64
  3
----------  --  ----------  --  
 72
    65
 73
     4
 40
60.0
 49
37.5
 49
-7.5
 49
7.5
 49
-7.5
  0
LTYPE
  2
dashed
 70
   64
  3
-------   -------------   ------
 72
   65
 73
    2
 40
7.5
 49
6
 49
-1.5
  0
LTYPE
  2
dashed_spaced
 70
   64
  3
----        --------        ----
 72
   65
 73
    2
 40
12
 49
6
 49
-6
  0
LTYPE
  2
long_dashed_dotted
 70
   64
  3
------------- --- --------------
 72
   65
 73
    4
 40
15.25
 49
12
 49
-1.5
 49
0.25
 49
-1.5
  0
LTYPE
  2
long_dashed_double-dotted
 70
   64
  3
----------- --- --- ------------
 72
   65
 73
    6
 40
17
 49
12
 49
-1.5
 49
0.25
 49
-1.5
 49
0.25
 49
-1.5
  0
LTYPE
  2
long_dashed_triplicate-dotted
 70
   64
  3
--------- --- --- --- ----------
 72
   65
 73
    8
 40
18.75
 49
12
 49
-1.5
 49
0.25
 49
-1.5
 49
0.25
 49
-1.5
 49
0.25
 49
-1.5
  0
LTYPE
  2
dotted
 70
   64
  3
   -       -       -       -    
 72
   65
 73
    2
 40
1.75
 49
0.25
 49
-1.5
  0
LTYPE
  2
chain
 70
   64
  3
-------------- -- --------------
 72
   65
 73
    4
 40
18.5
 49
12
 49
-1.5
 49
3.5
 49
-1.5
  0
LTYPE
  2
chain_double_dash
 70
   64
  3
------------ -- -- -------------
 72
   65
 73
    6
 40
23.5
 49
12
 49
-1.5
 49
3.5
 49
-1.5
 49
3.5
 49
-1.5
  0
LTYPE
  2
dashed_dotted
 70
   64
  3
-----------     -     ----------
 72
   65
 73
    4
 40
9.25
 49
6
 49
-1.5
 49
0.25
 49
-1.5
  0
LTYPE
  2
double-dashed_dotted
 70
   64
  3
------   -----------   -   -----
 72
   65
 73
    6
 40
16.75
 49
6
 49
-1.5
 49
6
 49
-1.5
 49
0.25
 49
-1.5
  0
LTYPE
  2
dashed_double-dotted
 70
   64
  3
---------    -    -    ---------
 72
   65
 73
    6
 40
11
 49
6
 49
-1.5
 49
0.25
 49
-1.5
 49
0.25
 49
-1.5
  0
LTYPE
  2
double-dashed_double-dotted
 70
   64
  3
-----   ---------   -   -   ----
 72
   65
 73
    8
 40
18.5
 49
6
 49
-1.5
 49
6
 49
-1.5
 49
0.25
 49
-1.5
 49
0.25
 49
-1.5
  0
LTYPE
  2
dashed_triplicate-dotted
 70
   64
  3
-------    -    -    -    ------
 72
   65
 73
    8
 40
12.75
 49
6
 49
-1.5
 49
0.25
 49
-1.5
 49
0.25
 49
-1.5
 49
0.25
 49
-1.5
  0
LTYPE
  2
double-dashed_triplicate-dotted
 70
   64
  3
-----  ---------  -  -  -  -----
 72
   65
 73
   10
 40
20.25
 49
6
 49
-1.5
 49
6
 49
-1.5
 49
0.25
 49
-1.5
 49
0.25
 49
-1.5
 49
0.25
 49
-1.5
  0
LTYPE
  2
undefined
 70
   64
  3
--------------------------------
 72
   65
 73
    0
 40
0
  0
LTYPE
  2
_
 70
   64
  3
                                
 72
   65
 73
    0
 40
0
  0
LTYPE
  2
__18
 70
   64
  3
                                
 72
   65
 73
    0
 40
0
  0
LTYPE
  2
__19
 70
   64
  3
                                
 72
   65
 73
    0
 40
0
  0
LTYPE
  2
__20
 70
   64
  3
                                
 72
   65
 73
    0
 40
0
  0
LTYPE
  2
__21
 70
   64
  3
                                
 72
   65
 73
    0
 40
0
  0
LTYPE
  2
__22
 70
   64
  3
                                
 72
   65
 73
    0
 40
0
  0
LTYPE
  2
__23
 70
   64
  3
                                
 72
   65
 73
    0
 40
0
  0
LTYPE
  2
__24
 70
   64
  3
                                
 72
   65
 73
    0
 40
0
  0
LTYPE
  2
__25
 70
   64
  3
                                
 72
   65
 73
    0
 40
0
  0
LTYPE
  2
__26
 70
   64
  3
                                
 72
   65
 73
    0
 40
0
  0
LTYPE
  2
__27
 70
   64
  3
                                
 72
   65
 73
    0
 40
0
  0
LTYPE
  2
__28
 70
   64
  3
                                
 72
   65
 73
    0
 40
0
  0
LTYPE
  2
__29
 70
   64
  3
                                
 72
   65
 73
    0
 40
0
  0
LTYPE
  2
__30
 70
   64
  3
                                
 72
   65
 73
    0
 40
0
  0
LTYPE
  2
__31
 70
   64
  3
                                
 72
   65
 73
    0
 40
0
  0
LTYPE
  2
__32
 70
   64
  3
                                
 72
   65
 73
    0
 40
0
  0
ENDTAB
  0
TABLE
  2
STYLE
  5
3
100
AcDbSymbolTable
 70
     1
  0
STYLE
  5
10
100
AcDbSymbolTableRecord
100
AcDbTextStyleTableRecord
  2
STANDARD
 70
     0
 40
0.0
 41
1.0
 50
0.0
 71
     0
 42
0.2
  3
txt
  4
bigfont.shx
  0
STYLE
  5
26
100
AcDbSymbolTableRecord
100
AcDbTextStyleTableRecord
  2
TATEGAKI
 70
    68
 40
0.0
 41
1.0
 50
0.0
 71
     0
 42
1.0
  3
txt
  4
bigfont.shx
  0
ENDTAB
  0
TABLE
  2
LAYER
 70
    2
  0
LAYER
  2
_0-0_
 70
   64
 62
    7
  6
CONTINUOUS
  0
LAYER
  2
ADD_LINE
 70
   64
 62
    7
  6
CONTINUOUS
  0
ENDTAB
  0
ENDSEC
  0
SECTION
  2
BLOCKS
  0
BLOCK
  2
-003-23
 70
   64
 10
0
 20
0
 30
0
  0
ARC
  8
_0-0_
  6
CONTINUOUS
 62
    7
 10
-13.890494884403111
 20
-23.597130178337959
 40
12.15623328891702
 50
89.44965985914169
 51
121.50761647169503
  0
ARC
  8
_0-0_
  6
CONTINUOUS
 62
    7
 10
-18.677856862440464
 20
-16.089993999373693
 40
3.2577822286061617
 50
118.7233950581048
 51
179.64519343843727
  0
ARC
  8
_0-0_
  6
CONTINUOUS
 62
    7
 10
-17.744335588839874
 20
-16.138435778124226
 40
4.1918026603102074
 50
179.06208366595592
 51
248.97661631369687
  0
ARC
  8
_0-0_
  6
CONTINUOUS
 62
    7
 10
-3.6391968717067869
 20
6.1652385512974135
 40
30.511328191370769
 50
239.23096122840445
 51
257.60110028805633
  0
ARC
  8
_0-0_
  6
CONTINUOUS
 62
    7
 10
-4.0894613351720039
 20
11.992172500318603
 40
36.145250326746897
 50
260.28241847381059
 51
275.56323199586382
  0
ARC
  8
_0-0_
  6
CONTINUOUS
 62
    7
 10
-1.2321756152991554
 20
-16.10322822263311
 40
7.9060996485363848
 50
274.69253479323049
 51
311.85327333493342
  0
ARC
  8
_0-0_
  6
CONTINUOUS
 62
    7
 10
2.2738596776049462
 20
-19.606642503315186
 40
2.9699046663593149
 50
306.56116567793606
 51
30.254483501482071
  0
ARC
  8
_0-0_
  6
CONTINUOUS
 62
    7
 10
-7.1183602730794178
 20
-27.455588118670555
 40
15.176272525207995
 50
38.008915230475658
 51
73.762138878841881
  0
ARC
  8
_0-0_
  6
CONTINUOUS
 62
    7
 10
-12.795508798228056
 20
-45.929103335577587
 40
34.501516302149852
 50
73.288817862143702
 51
91.624729557058515
  0
ARC
  8
_0-0_
  6
CONTINUOUS
 62
    7
 10
-15.101898907238208
 20
-15.065500918167348
 40
3.6880884938632219
 50
122.03828305516873
 51
171.6046936260461
  0
ARC
  8
_0-0_
  6
CONTINUOUS
 62
    7
 10
-14.437434386704027
 20
-14.308415522120583
 40
4.3185695840612546
 50
182.90170056851633
 51
247.88789112145753
  0
ARC
  8
_0-0_
  6
CONTINUOUS
 62
    7
 10
-6.232719281195287
 20
-2.2130077297728405
 40
18.860733534906863
 50
238.58687498602009
 51
261.11629673340417
  0
ARC
  8
_0-0_
  6
CONTINUOUS
 62
    7
 10
-4.8625159545074439
 20
4.9534927759997771
 40
26.15402994461985
 50
260.57507934858046
 51
276.22039795887753
  0
ARC
  8
_0-0_
  6
CONTINUOUS
 62
    7
 10
-2.2111213177445563
 20
-15.53896855800939
 40
5.5106076896074292
 50
271.89765994904394
 51
318.29484097634042
  0
ARC
  8
_0-0_
  6
CONTINUOUS
 62
    7
 10
0.3001496879463303
 20
-17.413835263654143
 40
2.4037292229494605
 50
311.82128036030349
 51
20.615525168389372
  0
ARC
  8
_0-0_
  6
CONTINUOUS
 62
    7
 10
-0.5107372393428022
 20
-17.43842199193141
 40
3.1821922972233692
 50
15.883853733921102
 51
55.191501850027137
  0
ARC
  8
_0-0_
  6
CONTINUOUS
 62
    7
 10
-1.3040286210907936
 20
-13.623257793386593
 40
7.1835527823493761
 50
277.33968003932841
 51
310.86478896299406
  0
ARC
  8
_0-0_
  6
CONTINUOUS
 62
    7
 10
1.8034440185797109
 20
-17.51307300025147
 40
2.2173011112873051
 50
315.90938044919875
 51
9.0394828033551544
  0
ARC
  8
_0-0_
  6
CONTINUOUS
 62
    7
 10
-18.585292622804886
 20
-14.054857359678916
 40
1.5456174928707394
 50
138.66373567047503
 51
229.13725181428831
  0
ARC
  8
_0-0_
  6
CONTINUOUS
 62
    7
 10
-15.067683861758155
 20
-13.332616534326981
 40
4.9078267580203301
 50
202.66455743469643
 51
247.33544256530351
  0
ARC
  8
_0-0_
  6
CONTINUOUS
 62
    7
 10
-12.609423085720067
 20
-15.940793738596426
 40
4.5414262993397259
 50
97.806710495978763
 51
145.71224967364685
  0
ARC
  8
_0-0_
  6
CONTINUOUS
 62
    7
 10
-14.505312932413574
 20
-14.518738110968286
 40
2.1765181728884153
 50
148.52696106294979
 51
246.69819462289789
  0
ARC
  8
_0-0_
  6
CONTINUOUS
 62
    7
 10
-4.8194323668626282
 20
-1.9975372198226253
 40
17.946365933248313
 50
234.00692029528133
 51
252.41882624517569
  0
ARC
  8
_0-0_
  6
CONTINUOUS
 62
    7
 10
-5.7905252952525075
 20
-4.6425790625671439
 40
15.132080085946694
 50
252.8988711847897
 51
275.5846084864769
  0
ARC
  8
_0-0_
  6
CONTINUOUS
 62
    7
 10
-4.2397328454267722
 20
-12.401256335285844
 40
7.3019983874354581
 50
269.38633936211397
 51
303.24136549040713
  0
ARC
  8
_0-0_
  6
CONTINUOUS
 62
    7
 10
-1.1919276902634408
 20
-16.662362551270579
 40
2.0784085132530863
 50
297.35118890956988
 51
23.879779731714486
  0
ARC
  8
_0-0_
  6
CONTINUOUS
 62
    7
 10
-4.4866684451033336
 20
-18.464321835537003
 40
5.8290361896725766
 50
26.967034243836562
 51
76.978504328216445
  0
ARC
  8
_0-0_
  6
CONTINUOUS
 62
    7
 10
-10.474384698306054
 20
-10.139306545847269
 40
6.1825575768800221
 50
207.39714984592734
 51
250.58467635093223
  0
ARC
  8
_0-0_
  6
CONTINUOUS
 62
    7
 10
-5.0082012857375275
 20
-0.5998243252884805
 40
17.112035434610693
 50
243.92574739970286
 51
265.64159917625125
  0
ARC
  8
_0-0_
  6
CONTINUOUS
 62
    7
 10
-5.5905606150281386
 20
-5.6613367269588721
 40
12.022501689110907
 50
266.57583967882164
 51
291.25401423547396
  0
ARC
  8
_0-0_
  6
CONTINUOUS
 62
    7
 10
-3.8638116963865343
 20
-9.5720719902026943
 40
7.7541813446150805
 50
289.83780069941963
 51
305.67928050270086
  0
ARC
  8
_0-0_
  6
CONTINUOUS
 62
    7
 10
-18.055853393588677
 20
-26.964802552954811
 40
21.893564376251273
 50
89.99442785486626
 51
122.28240928840187
  0
ARC
  8
_0-0_
  6
CONTINUOUS
 62
    7
 10
-27.195679648833988
 20
-14.145144516042151
 40
6.2364003801292593
 50
114.16903105596427
 51
169.7368838803834
  0
ARC
  8
_0-0_
  6
CONTINUOUS
 62
    7
 10
-24.847859975740363
 20
-13.127438014453297
 40
8.4849516121507929
 50
179.36911887913612
 51
238.34220356029707
  0
ARC
  8
_0-0_
  6
CONTINUOUS
 62
    7
 10
-8.4102193415561288
 20
5.6220012545600042
 40
33.331152551231618
 50
231.18787596836518
 51
255.31591570579189
  0
ARC
  8
_0-0_
  6
CONTINUOUS
 62
    7
 10
-2.5451657287121918
 20
15.228557628699669
 40
44.229378942282814
 50
251.11714742506109
 51
272.47504181813133
  0
ARC
  8
_0-0_
  6
CONTINUOUS
 62
    7
 10
0.1272244284202628
 20
3.9143554399228506
 40
32.882755383582172
 50
268.67148993334047
 51
287.95482074665836
  0
ARC
  8
_0-0_
  6
CONTINUOUS
 62
    7
 10
8.188449343734348
 20
-18.176276885761851
 40
9.4221528398776755
 50
282.72504572997741
 51
320.79391443964829
  0
ARC
  8
_0-0_
  6
CONTINUOUS
 62
    7
 10
11.279145341341945
 20
-20.138797799563129
 40
5.8028840058482798
 50
316.51511385459992
 51
359.88206717269628
  0
ARC
  8
_0-0_
  6
CONTINUOUS
 62
    7
 10
7.9745940397062327
 20
-21.034112226015207
 40
9.1501637690456796
 50
5.5400474161405384
 51
47.590054938015342
  0
ARC
  8
_0-0_
  6
CONTINUOUS
 62
    7
 10
-2.9611000336552422
 20
-31.453457590986353
 40
24.241157697555309
 50
45.114346247192628
 51
75.283766381568867
  0
ARC
  8
_0-0_
  6
CONTINUOUS
 62
    7
 10
-14.27638419569189
 20
-56.100228774035237
 40
51.168605299373574
 50
70.032622853721946
 51
94.233507918452631
  0
ARC
  8
_0-0_
  6
CONTINUOUS
 62
    7
 10
-25.180024296501344
 20
-11.568853537180473
 40
8.2880624848979849
 50
127.25187757282204
 51
174.6389142290239
  0
ARC
  8
_0-0_
  6
CONTINUOUS
 62
    7
 10
-17.976598567180915
 20
-25.024091763712406
 40
23.48266125064826
 50
93.590520843703928
 51
121.35902766880743
  0
ARC
  8
_0-0_
  6
CONTINUOUS
 62
    7
 10
-19.72457485215098
 20
-23.976842374666504
 40
22.39103578899892
 50
89.290240069018793
 51
125.36874409880534
  0
ARC
  8
_0-0_
  6
CONTINUOUS
 62
    7
 10
-25.64368851991324
 20
-12.932741753325679
 40
10.081369690986975
 50
134.30516677731126
 51
162.78118650757838
  0
ARC
  8
_0-0_
  6
CONTINUOUS
 62
    7
 10
-26.811408602865839
 20
-10.636156486545701
 40
8.4897154177842573
 50
175.35359951282061
 51
204.66236009006161
  0
ARC
  8
_0-0_
  6
CONTINUOUS
 62
    7
 10
-21.433719258587217
 20
-6.7331591055820113
 40
15.061938703154846
 50
209.62529079266449
 51
222.7936228417077
  0
ARC
  8
_0-0_
  6
CONTINUOUS
 62
    7
 10
-22.906039735366306
 20
-6.1910034050392184
 40
15.133076760047052
 50
211.41616727237985
 51
238.58383272762021
  0
ARC
  8
_0-0_
  6
CONTINUOUS
 62
    7
 10
-28.057848011931668
 20
-9.9026693127633507
 40
8.8149934994917878
 50
167.58490905148847
 51
208.28060757685563
  0
ARC
  8
_0-0_
  6
CONTINUOUS
 62
    7
 10
-27.037069734594994
 20
-11.895635754993165
 40
10.384963318275306
 50
108.29197907781561
 51
158.01280039019522
  0
ARC
  8
_0-0_
  6
CONTINUOUS
 62
    7
 10
-14.786677012697083
 20
-44.09625385997775
 40
44.829311145840315
 50
81.615093475864839
 51
110.24131333903181
  0
ARC
  8
_0-0_
  6
CONTINUOUS
 62
    7
 10
-13.955124616383856
 20
-58.573141100359216
 40
59.103048695698234
 50
65.544504302038206
 51
84.460273067004053
  0
ARC
  8
_0-0_
  6
CONTINUOUS
 62
    7
 10
3.0543587714495004
 20
-24.405076993071916
 40
21.001430535580354
 50
28.211050717759182
 51
69.198204166395072
  0
ARC
  8
_0-0_
  6
CONTINUOUS
 62
    7
 10
16.123038717105644
 20
-17.289119975291236
 40
6.121992563327824
 50
332.65780579608492
 51
27.342194203915081
  0
ARC
  8
_0-0_
  6
CONTINUOUS
 62
    7
 10
13.423035748400821
 20
-16.267266680243267
 40
8.995834647871062
 50
299.68676203846951
 51
334.77558717759285
  0
ARC
  8
_0-0_
  6
CONTINUOUS
 62
    7
 10
10.320506151277087
 20
-14.204546991685362
 40
12.437499283465696
 50
280.80779813540448
 51
307.42059894320948
  0
ARC
  8
_0-0_
  6
CONTINUOUS
 62
    7
 10
-14.488563719184768
 20
-58.371036304165209
 40
56.999608559632122
 50
75.933735278470408
 51
94.990719705716288
  0
ARC
  8
_0-0_
  6
CONTINUOUS
 62
    7
 10
-9.2961441115896264
 20
-42.860375786817698
 40
40.711763429442236
 50
55.271445220624187
 51
77.717074371820928
  0
ARC
  8
_0-0_
  6
CONTINUOUS
 62
    7
 10
6.0660652118380511
 20
-21.59333181320871
 40
14.490518376908714
 50
22.833221842863288
 51
57.288347072884292
  0
ARC
  8
_0-0_
  6
CONTINUOUS
 62
    7
 10
14.832548865408455
 20
-18.47782955707445
 40
5.2289973595843495
 50
326.0914427769336
 51
28.655745946484529
  0
ARC
  8
_0-0_
  6
CONTINUOUS
 62
    7
 10
11.485810764375245
 20
-16.993135275636192
 40
8.8575974321586308
 50
287.81341607057868
 51
330.20152903366329
  0
ARC
  8
_0-0_
  6
CONTINUOUS
 62
    7
 10
13.302821585390916
 20
-17.067532318148498
 40
5.139771201867104
 50
331.70595909656203
 51
27.100422000979812
  0
ARC
  8
_0-0_
  6
CONTINUOUS
 62
    7
 10
4.6164945164572657
 20
-21.152735677829053
 40
14.736924995497118
 50
25.854707278267341
 51
61.460044668657119
  0
LINE
  8
_0-0_
  6
CONTINUOUS
 62
    7
 10
-33.431831908497685
 20
-10.794482251444343
 11
-33.332297230737595
 21
-13.531685889847246
  0
LINE
  8
_0-0_
  6
CONTINUOUS
 62
    7
 10
17.828527137956712
 20
-19.503766555453588
 11
16.783413021475596
 21
-22.091668177216331
  0
LINE
  8
_0-0_
  6
CONTINUOUS
 62
    7
 10
-25.369523009929139
 20
-0.641945119913565
 11
-24.921616960008663
 21
-1.6870592363946741
  0
LINE
  8
_0-0_
  6
CONTINUOUS
 62
    7
 10
-20.89046251072439
 20
0.2538669799273805
 11
-20.243487105283705
 21
-1.0898511698340414
  0
LINE
  8
_0-0_
  6
CONTINUOUS
 62
    7
 10
-6.0597955244686545
 20
-0.1442717311130365
 11
-6.3583995577489674
 21
-1.4879898808744656
  0
LINE
  8
_0-0_
  6
CONTINUOUS
 62
    7
 10
-0.3365515532625806
 20
-1.2889205253542571
 11
-0.834224942063102
 21
-2.7819406917558354
  0
LINE
  8
_0-0_
  6
CONTINUOUS
 62
    7
 10
12.851793249951413
 20
-6.5144911077597953
 11
11.806679133470311
 21
-7.5098378853608523
  0
LINE
  8
_0-0_
  6
CONTINUOUS
 62
    7
 10
16.435041649315224
 20
-8.9530907128823856
 11
15.290392855074003
 21
-9.9484374904834425
  0
LINE
  8
_0-0_
  6
CONTINUOUS
 62
    7
 10
21.461542876200554
 20
-15.920518156089781
 11
20.167592065319184
 21
-16.567493561530469
  0
LINE
  8
_0-0_
  6
CONTINUOUS
 62
    7
 10
21.859681587240985
 20
-18.408885100092423
 11
20.466196098599511
 21
-19.006093166653056
  0
LINE
  8
_0-0_
  6
CONTINUOUS
 62
    7
 10
-34.377411347218697
 20
-4.673099569197845
 11
-33.431831908497685
 21
-5.8177483634390583
  0
LINE
  8
_0-0_
  6
CONTINUOUS
 62
    7
 10
-35.870431513620275
 20
-6.9623971576802717
 11
-34.825317397139173
 21
-7.8084419186411722
  0
LINE
  8
_0-0_
  6
CONTINUOUS
 62
    7
 10
-36.019733530260453
 20
-13.282849195446982
 11
-34.974619413779322
 21
-13.78052258424751
  0
LINE
  8
_0-0_
  6
CONTINUOUS
 62
    7
 10
-34.526713363858875
 20
-15.621914122809464
 11
-33.382064569617654
 21
-16.268889528250149
  0
LINE
  8
_0-0_
  6
CONTINUOUS
 62
    7
 10
-17.804887500161115
 20
-13.08377983992677
 11
-16.510936689279745
 21
-12.884710484406561
  0
LINE
  8
_0-0_
  6
CONTINUOUS
 62
    7
 10
-18.501630244481859
 20
-14.726102022968515
 11
-17.207679433600475
 21
-14.377730650808143
  0
LINE
  8
_0-0_
  6
CONTINUOUS
 62
    7
 10
-17.85465483904116
 20
-16.268889528250149
 11
-16.958842739200222
 21
-15.621914122809464
  0
LINE
  8
_0-0_
  6
CONTINUOUS
 62
    7
 10
-16.361634672639582
 20
-17.761909694651735
 11
-15.216985878398361
 21
-17.065166950330998
  0
LINE
  8
_0-0_
  6
CONTINUOUS
 62
    7
 10
-14.370941117437468
 20
-18.856791150012896
 11
-13.524896356476575
 21
-18.160048405692159
  0
LINE
  8
_0-0_
  6
CONTINUOUS
 62
    7
 10
-10.837460056953717
 20
-19.205162522173268
 11
-11.235598767994148
 21
-20.10097462201422
  0
LINE
  8
_0-0_
  6
CONTINUOUS
 62
    7
 10
-8.3988604518311263
 20
-19.852137927613953
 11
-8.597929807351349
 21
-20.698182688574853
  0
LINE
  8
_0-0_
  6
CONTINUOUS
 62
    7
 10
-5.4625874579080147
 20
-19.901905266494005
 11
-5.2635181023878062
 21
-20.947019382975114
  0
LINE
  8
_0-0_
  6
CONTINUOUS
 62
    7
 10
-3.0737551916654837
 20
-19.852137927613953
 11
-2.7253838195051117
 21
-21.046554060735222
  0
LINE
  8
_0-0_
  6
CONTINUOUS
 62
    7
 10
-0.8839922809431612
 20
-19.105627844413164
 11
0.0118198188977913
 21
-20.250276638654377
  0
LINE
  8
_0-0_
  6
CONTINUOUS
 62
    7
 10
0.5094932076983269
 20
-18.359117761212371
 11
1.4550726464193247
 21
-19.304697199933372
  0
LINE
  8
_0-0_
  6
CONTINUOUS
 62
    7
 10
1.3057706297791754
 20
-17.015399611450945
 11
2.1518153907400688
 21
-17.66237501689163
  0
LINE
  8
_0-0_
  6
CONTINUOUS
 62
    7
 10
1.2062359520190569
 20
-15.671681461689516
 11
2.0522807129799645
 21
-16.368424206010257
  0
LINE
  8
_0-0_
  6
CONTINUOUS
 62
    7
 10
-14.570010472957676
 20
-14.676334684088459
 11
-13.723965711996783
 21
-11.640527012405236
  0
LINE
  8
_0-0_
  6
CONTINUOUS
 62
    7
 10
-12.977455628795994
 20
-11.49122499576508
 11
-13.873267728636947
 21
-15.174008072888988
  0
LINE
  8
_0-0_
  6
CONTINUOUS
 62
    7
 10
-12.380247562235354
 20
-15.920518156089781
 11
-11.384900784634297
 21
-11.49122499576508
  0
LINE
  8
_0-0_
  6
CONTINUOUS
 62
    7
 10
-10.737925379193612
 20
-11.590759673525184
 11
-11.733272156794669
 21
-16.069820172729941
  0
LINE
  8
_0-0_
  6
CONTINUOUS
 62
    7
 10
-8.3988604518311263
 20
-17.314003644731258
 11
-7.4035136742300693
 21
-11.939131045685556
  0
LINE
  8
_0-0_
  6
CONTINUOUS
 62
    7
 10
-6.5574689132691759
 20
-12.187967740085821
 11
-7.5030483519901736
 21
-17.314003644731258
  0
LINE
  8
_0-0_
  6
CONTINUOUS
 62
    7
 10
-5.7114241523082825
 20
-17.612607678011578
 11
-4.8156120524673298
 21
-12.486571773366137
  0
LINE
  8
_0-0_
  6
CONTINUOUS
 62
    7
 10
-3.9197999526263771
 20
-12.735408467766401
 11
-4.7160773747072255
 21
-17.612607678011578
  0
LINE
  8
_0-0_
  6
CONTINUOUS
 62
    7
 10
-1.7300370419040547
 20
-17.015399611450945
 11
-1.1825963142234741
 21
-13.880057262007615
  0
LINE
  8
_0-0_
  6
CONTINUOUS
 62
    7
 10
-0.6351555865428935
 20
-14.377730650808143
 11
-0.9835269587032655
 21
-16.667028239290573
  0
ARC
  8
_0-0_
  6
CONTINUOUS
 62
    7
 10
-27.23317222357187
 20
-7.2763616760376948
 40
8.9907226527465429
 50
112.98801091393267
 51
156.40569019863935
  0
ARC
  8
_0-0_
  6
CONTINUOUS
 62
    7
 10
-17.063060035937326
 20
-24.490755766012104
 40
28.930551255980856
 50
93.541219215966294
 51
118.22288213553416
  0
ARC
  8
_0-0_
  6
CONTINUOUS
 62
    7
 10
-13.267610788266438
 20
-46.34181096709937
 40
51.032611180441698
 50
71.826196066815754
 51
96.280077825237242
  0
ARC
  8
_0-0_
  6
CONTINUOUS
 62
    7
 10
-7.4386791376402357
 20
-37.470164698487864
 40
40.879511429347083
 50
55.630793715862346
 51
75.713062056857027
  0
ARC
  8
_0-0_
  6
CONTINUOUS
 62
    7
 10
6.5921226342595105
 20
-18.2414036385656
 40
17.102471710197729
 50
30.930516225036644
 51
58.064320441521353
  0
ARC
  8
_0-0_
  6
CONTINUOUS
 62
    7
 10
14.486397503434503
 20
-13.881387939517673
 40
8.0960258018291906
 50
4.5929961464371614
 51
33.179178592981309
  0
ARC
  8
_0-0_
  6
CONTINUOUS
 62
    7
 10
-14.054220493986676
 20
-7.5788940643636309
 40
14.008705812981363
 50
81.493825388343538
 51
123.99023192802618
  0
ARC
  8
_0-0_
  6
CONTINUOUS
 62
    7
 10
-5.785393416260149
 20
-3.1136093268947747
 40
11.19824887387356
 50
109.06921388752468
 51
135.87317069417244
  0
ARC
  8
_0-0_
  6
CONTINUOUS
 62
    7
 10
-9.0561467700231901
 20
2.076698875536934
 40
5.4073581118833394
 50
58.229785464590584
 51
94.112912590848993
  0
ARC
  8
_0-0_
  6
CONTINUOUS
 62
    7
 10
82.609767297508569
 20
-13.420840453271072
 40
89.034182337638683
 50
166.79173891871429
 51
168.7580157298143
  0
ARC
  8
_0-0_
  6
CONTINUOUS
 62
    7
 10
-3.6200648434624298
 20
6.8389907744652874
 40
0.4567712403016565
 50
71.071521038409657
 51
169.44135328864863
  0
ARC
  8
_0-0_
  6
CONTINUOUS
 62
    7
 10
0.9734120116692963
 20
0.1226826803114704
 40
5.4696541030660084
 50
47.19673420944104
 51
85.993886688494229
  0
ARC
  8
_0-0_
  6
CONTINUOUS
 62
    7
 10
-3.9053513703709513
 20
-4.9524388261375236
 40
12.508949604530917
 50
26.617667386370773
 51
46.596482238844025
  0
ARC
  8
_0-0_
  6
CONTINUOUS
 62
    7
 10
-0.9263755060454741
 20
-12.055418927822871
 40
16.73114226526463
 50
38.294539245636386
 51
67.83195308575813
  0
ARC
  8
_0-0_
  6
CONTINUOUS
 62
    7
 10
9.8362611607747255
 20
-10.800472764458043
 40
9.8109907099453579
 50
50.04730140404817
 51
78.414043347274529
  0
LINE
  8
_0-0_
  6
CONTINUOUS
 62
    7
 10
-35.472292802579858
 20
-3.677752791596788
 11
-36.816010952341287
 21
-8.2563479685616485
  0
LINE
  8
_0-0_
  6
CONTINUOUS
 62
    7
 10
22.556424331561715
 20
-13.23308185656693
 11
22.257820298281402
 21
-17.562840339131526
  0
ARC
  8
_0-0_
  6
CONTINUOUS
 62
    7
 10
-2.3168769128647284
 20
4.4343234458518239
 40
4.4905319459739665
 50
150.08446908252978
 51
181.27009096106281
  0
ARC
  8
_0-0_
  6
CONTINUOUS
 62
    7
 10
0.8706834398731047
 20
4.4003911693426474
 40
1.8553705498467477
 50
182.02629299722059
 51
220.71495154146601
  0
ARC
  8
_0-0_
  6
CONTINUOUS
 62
    7
 10
10.077264107388203
 20
3.961533726491318
 40
13.947496499387022
 50
166.27366144751988
 51
180.30666493696597
  0
ARC
  8
_0-0_
  6
CONTINUOUS
 62
    7
 10
-5.5123547967880739
 20
-10.769598582004605
 40
17.949475800781286
 50
85.388073695971201
 51
94.611926304028813
  0
ARC
  8
_0-0_
  6
CONTINUOUS
 62
    7
 10
-4.3925896719868689
 20
-1.9607796002348721
 40
9.0656504701631526
 50
54.608577868693857
 51
85.118815274809691
  0
ARC
  8
_0-0_
  6
CONTINUOUS
 62
    7
 10
-1.6941657781658819
 20
-1.996974028511417
 40
7.8528914288632148
 50
25.61915405023867
 51
71.03565443321456
  0
ARC
  8
_0-0_
  6
CONTINUOUS
 62
    7
 10
1.2240100016190922
 20
5.1132921405724829
 40
0.4838982963425116
 50
74.228051943148373
 51
139.17043652483801
  0
ARC
  8
_0-0_
  6
CONTINUOUS
 62
    7
 10
-4.5717520919550907
 20
-1.7716637124904793
 40
10.429849864564519
 50
78.968876904424178
 51
105.75387241192708
  0
ARC
  8
_0-0_
  6
CONTINUOUS
 62
    7
 10
-3.7750222395207658
 20
2.5838833002207764
 40
6.0025505536884554
 50
35.582859769432552
 51
78.478332423643337
  0
LINE
  8
_0-0_
  6
CONTINUOUS
 62
    7
 10
-8.1002564185508135
 20
7.9180371674555232
 11
-7.4035136742300836
 21
8.2664085396158953
  0
LINE
  8
_0-0_
  6
CONTINUOUS
 62
    7
 10
-8.1002564185508135
 20
7.9180371674555232
 11
-8.1002564185508135
 21
7.519898456415099
  0
LINE
  8
_0-0_
  6
CONTINUOUS
 62
    7
 10
1.1067012742589526
 20
6.0766456288935728
 11
1.1564686131390118
 21
5.5789722400930444
  0
LINE
  8
_0-0_
  6
CONTINUOUS
 62
    7
 10
-20.094185088643542
 20
17.274296876905453
 11
-23.876502843527561
 21
3.787348040411139
  0
LINE
  8
_0-0_
  6
CONTINUOUS
 62
    7
 10
-28.405330681612369
 20
2.1450258573693972
 11
-24.62301292672835
 21
14.188721866342178
  0
LINE
  8
_0-0_
  6
CONTINUOUS
 62
    7
 10
-28.95277140929295
 20
1.8464218240890773
 11
-25.170453654408931
 21
14.686395255142706
  0
LINE
  8
_0-0_
  6
CONTINUOUS
 62
    7
 10
-23.229527438086876
 20
13.491979122021441
 11
-23.826735504647502
 21
13.442211783141389
  0
LINE
  8
_0-0_
  6
CONTINUOUS
 62
    7
 10
-23.826735504647502
 20
13.442211783141389
 11
-26.265335109770092
 21
16.179415421544292
  0
LINE
  8
_0-0_
  6
CONTINUOUS
 62
    7
 10
20.61549811523966
 20
-1.3884552031143542
 11
23.551771109162772
 21
34.991469518204255
  0
LINE
  8
_0-0_
  6
CONTINUOUS
 62
    7
 10
22.805261025961983
 20
35.041236857084314
 11
19.918755370918916
 21
-1.0400838309539822
  0
LINE
  8
_0-0_
  6
CONTINUOUS
 62
    7
 10
23.452236431402667
 20
-4.6730995691978379
 11
23.502003770282712
 21
-3.7275201304768331
  0
LINE
  8
_0-0_
  6
CONTINUOUS
 62
    7
 10
23.502003770282712
 20
-1.1893858475941386
 11
25.542464664364886
 21
31.010082407800027
  0
LINE
  8
_0-0_
  6
CONTINUOUS
 62
    7
 10
25.542464664364886
 20
31.010082407800027
 11
23.551771109162772
 21
34.991469518204255
  0
LINE
  8
_0-0_
  6
CONTINUOUS
 62
    7
 10
15.489462210594212
 20
33.74728604620293
 11
22.50665699268167
 21
35.339840890364627
  0
LINE
  8
_0-0_
  6
CONTINUOUS
 62
    7
 10
17.480155765796326
 20
33.996122740603198
 11
20.715032792999764
 21
34.692865484923942
  0
LINE
  8
_0-0_
  6
CONTINUOUS
 62
    7
 10
21.312240859560404
 20
34.493796129403734
 11
22.556424331561715
 21
32.453335235321561
  0
LINE
  8
_0-0_
  6
CONTINUOUS
 62
    7
 10
20.715032792999764
 20
26.531021908595278
 11
21.90944892612103
 21
24.191956981232792
  0
LINE
  8
_0-0_
  6
CONTINUOUS
 62
    7
 10
19.968522709798975
 20
26.829625941875591
 11
14.095976721952738
 21
25.336605775474013
  0
LINE
  8
_0-0_
  6
CONTINUOUS
 62
    7
 10
15.290392855074003
 20
33.448682012922617
 11
13.896907366432529
 21
25.635209808754325
  0
LINE
  8
_0-0_
  6
CONTINUOUS
 62
    7
 10
21.063404165160136
 20
34.244959435003466
 11
20.466196098599497
 21
27.327299330676126
  0
LINE
  8
_0-0_
  6
CONTINUOUS
 62
    7
 10
12.155050505630683
 20
39.96820340620954
 11
15.439694871714167
 21
34.145424757243362
  0
LINE
  8
_0-0_
  6
CONTINUOUS
 62
    7
 10
10.612263000349046
 20
30.213804985719179
 11
13.598303333152217
 21
24.888699725553536
  0
LINE
  8
_0-0_
  6
CONTINUOUS
 62
    7
 10
10.761565016989195
 20
30.363107002359342
 11
12.155050505630683
 21
40.017970745089585
  0
LINE
  8
_0-0_
  6
CONTINUOUS
 62
    7
 10
10.512728322588941
 20
30.164037646839134
 11
-25.668127043209466
 21
21.504520681709934
  0
LINE
  8
_0-0_
  6
CONTINUOUS
 62
    7
 10
-22.831388727046459
 20
30.562176357879551
 11
12.155050505630683
 21
40.017970745089585
  0
LINE
  8
_0-0_
  6
CONTINUOUS
 62
    7
 10
-22.831388727046459
 20
30.562176357879551
 11
-25.668127043209466
 21
21.504520681709934
  0
LINE
  8
_0-0_
  6
CONTINUOUS
 62
    7
 10
-26.265335109770092
 20
16.179415421544292
 11
-25.120686315528886
 21
20.558941242988936
  0
LINE
  8
_0-0_
  6
CONTINUOUS
 62
    7
 10
-24.573245587848305
 20
21.106381970669517
 11
9.7164509005080788
 21
29.41752756363833
  0
LINE
  8
_0-0_
  6
CONTINUOUS
 62
    7
 10
-23.92627018240762
 20
20.11103519306846
 11
10.612263000349031
 21
28.223111430517065
  0
LINE
  8
_0-0_
  6
CONTINUOUS
 62
    7
 10
11.209471066909671
 20
27.277531991796067
 11
-22.980690743686608
 21
19.065921076587351
  0
LINE
  8
_0-0_
  6
CONTINUOUS
 62
    7
 10
-22.234180660485819
 20
18.319410993386555
 11
11.856446472350356
 21
26.232417875314951
  0
LINE
  8
_0-0_
  6
CONTINUOUS
 62
    7
 10
12.5531892166711
 20
25.187303758833849
 11
-21.686739932805239
 21
17.423598893545609
  0
LINE
  8
_0-0_
  6
CONTINUOUS
 62
    7
 10
-24.971384298888722
 20
22.151496087150619
 11
9.3183121894676617
 21
30.412874341239387
  0
LINE
  8
_0-0_
  6
CONTINUOUS
 62
    7
 10
-24.772314943368514
 20
22.848238831471363
 11
9.0694754950673939
 21
30.860780391159864
  0
LINE
  8
_0-0_
  6
CONTINUOUS
 62
    7
 10
-24.374176232328097
 20
23.694283592432257
 11
9.1192428339474532
 21
31.507755796600549
  0
LINE
  8
_0-0_
  6
CONTINUOUS
 62
    7
 10
-23.179760099206831
 20
29.019388852597913
 11
9.9155202560283016
 21
37.629138478847054
  0
LINE
  8
_0-0_
  6
CONTINUOUS
 62
    7
 10
-22.831388727046459
 20
29.666364258038598
 11
9.4676142061078252
 21
38.07704452876753
  0
LINE
  8
_0-0_
  6
CONTINUOUS
 62
    7
 10
-22.582552032646191
 20
30.06450296907903
 11
9.6169162227479745
 21
38.724019934208215
  0
LINE
  8
_0-0_
  6
CONTINUOUS
 62
    7
 10
-25.194597681869851
 20
20.157526974612466
 11
-25.014970344086223
 21
20.741315822409263
  0
LINE
  8
_0-0_
  6
CONTINUOUS
 62
    7
 10
-21.784938998851601
 20
16.803375420880364
 11
13.349466638751949
 21
25.038001742193686
  0
LINE
  8
_0-0_
  6
CONTINUOUS
 62
    7
 10
-26.265335109770092
 20
16.179415421544292
 11
-22.053670103162432
 21
17.11534097856822
  0
LINE
  8
_0-0_
  6
CONTINUOUS
 62
    7
 10
-21.937630812395597
 20
16.974483069537058
 11
-23.229527438086876
 21
13.491979122021441
  0
ARC
  8
_0-0_
  6
CONTINUOUS
 62
    7
 10
20.055819893912556
 20
25.965429281518382
 40
0.8685946500679767
 50
40.628990746906105
 51
95.768190280391124
  0
ARC
  8
_0-0_
  6
CONTINUOUS
 62
    7
 10
20.790000916593527
 20
33.92242307810416
 40
0.7740812113605558
 50
47.572416361068228
 51
95.557685993088185
  0
ARC
  8
_0-0_
  6
CONTINUOUS
 62
    7
 10
22.48532557271497
 20
35.019905437117615
 40
0.3206457916801126
 50
3.8145009098665441
 51
86.185499090133462
  0
ARC
  8
_0-0_
  6
CONTINUOUS
 62
    7
 10
22.832193141519042
 20
34.574592476074898
 40
0.8316122412355438
 50
30.085234510851489
 51
113.04486784330452
  0
LINE
  8
_0-0_
  6
CONTINUOUS
 62
    7
 10
17.38837958916011
 20
33.753285626205454
 11
16.600650786204511
 21
26.2917433537649
  0
LINE
  8
_0-0_
  6
CONTINUOUS
 62
    7
 10
11.58982034518138
 20
39.59560758145949
 11
10.058125450545489
 21
30.536726347470079
  0
LINE
  8
_0-0_
  6
CONTINUOUS
 62
    7
 10
-22.831388727046459
 20
30.562176357879551
 11
-23.028156733893269
 21
30.529757762872094
  0
LINE
  8
_0-0_
  6
CONTINUOUS
 62
    7
 10
-23.028156733893269
 20
30.529757762872094
 11
-26.180465662635271
 21
21.488251533146979
  0
LINE
  8
_0-0_
  6
CONTINUOUS
 62
    7
 10
-25.81391811278155
 20
21.610434049764891
 11
-22.831388727046459
 21
30.562176357879551
  0
LINE
  8
_0-0_
  6
CONTINUOUS
 62
    7
 10
-25.778674087568078
 20
21.639334150439936
 11
-21.773633397006236
 21
16.755138186340155
  0
LINE
  8
_0-0_
  6
CONTINUOUS
 62
    7
 10
-26.058283146017359
 20
21.512688036470564
 11
-25.862791119428707
 21
21.585997546441305
  0
LINE
  8
_0-0_
  6
CONTINUOUS
 62
    7
 10
-26.180465662635271
 20
21.488251533146979
 11
-21.952950587655693
 21
16.772006391695776
  0
LINE
  8
_0-0_
  6
CONTINUOUS
 62
    7
 10
-21.952950587655693
 20
16.772006391695776
 11
-21.784938998851601
 21
16.803375420880364
  0
ARC
  8
_0-0_
  6
CONTINUOUS
 62
    7
 10
12.882696666385868
 20
32.530673954739228
 40
0.4445396173606258
 50
219.94745764837953
 51
293.06107579002702
  0
ARC
  8
_0-0_
  6
CONTINUOUS
 62
    7
 10
14.899569400179956
 20
33.344796117615246
 40
2.6014679878003255
 50
164.09301221096132
 51
205.00307260728874
  0
ARC
  8
_0-0_
  6
CONTINUOUS
 62
    7
 10
12.645295724828287
 20
33.989826551625015
 40
0.2567395663704321
 50
99.326299774147429
 51
164.64812521748743
  0
ARC
  8
_0-0_
  6
CONTINUOUS
 62
    7
 10
15.092745499258911
 20
33.531555232931879
 40
1.5699005545977607
 50
144.2331116612585
 51
199.50668363043039
  0
ARC
  8
_0-0_
  6
CONTINUOUS
 62
    7
 10
15.039178867944855
 20
33.229947479827828
 40
1.4434936996075127
 50
188.87127419855051
 51
223.01331678119178
  0
ARC
  8
_0-0_
  6
CONTINUOUS
 62
    7
 10
14.209036860568247
 20
32.622170974528856
 40
0.4391478555738699
 50
239.12841806587005
 51
295.14677148190833
  0
ARC
  8
_0-0_
  6
CONTINUOUS
 62
    7
 10
15.322522711438708
 20
33.244207095437091
 40
1.6260395121228501
 50
159.61384540041567
 51
207.53882334957942
  0
ARC
  8
_0-0_
  6
CONTINUOUS
 62
    7
 10
13.330388202741318
 20
30.001139579248758
 40
3.8381233172228844
 50
49.621485931094441
 51
82.997135263250229
  0
ARC
  8
_0-0_
  6
CONTINUOUS
 62
    7
 10
8.145274444180501
 20
24.199620524036064
 40
11.618284786718549
 50
29.599858653340831
 51
48.677058550266295
  0
ARC
  8
_0-0_
  6
CONTINUOUS
 62
    7
 10
11.467263366871308
 20
27.395314763391539
 40
5.6478191592504103
 50
32.533691402680027
 51
58.768429357778885
  0
ARC
  8
_0-0_
  6
CONTINUOUS
 62
    7
 10
0.1117345850908719
 20
20.40535861615129
 40
18.981757364619256
 50
16.960247426781727
 51
31.888052194727994
  0
ARC
  8
_0-0_
  6
CONTINUOUS
 62
    7
 10
-17.619263309893725
 20
13.368581626340628
 40
38.026221713968887
 50
9.9647115358465168
 51
19.309094507170443
  0
ARC
  8
_0-0_
  6
CONTINUOUS
 62
    7
 10
5.9301892301790389
 20
17.374047123260326
 40
14.139509467776
 50
354.23127230401809
 51
10.491477012332883
  0
ARC
  8
_0-0_
  6
CONTINUOUS
 62
    7
 10
4.4382477768766222
 20
21.85747569032101
 40
15.999727540061304
 50
12.817527159062463
 51
30.335562729317012
  0
ARC
  8
_0-0_
  6
CONTINUOUS
 62
    7
 10
-7.1799429207556358
 20
15.844703349172214
 40
28.850013638160064
 50
8.7158396333370387
 51
19.356647302515846
  0
ARC
  8
_0-0_
  6
CONTINUOUS
 62
    7
 10
128.22619810090367
 20
48.13599899668003
 40
110.47542709586149
 50
194.6386256286882
 51
195.01433431202139
  0
ARC
  8
_0-0_
  6
CONTINUOUS
 62
    7
 10
13.648262764434548
 20
16.353013377020176
 40
6.3624267346494943
 50
326.73618874676629
 51
356.39391360738978
  0
ARC
  8
_0-0_
  6
CONTINUOUS
 62
    7
 10
14.707635038355789
 20
16.327829378024141
 40
5.4914435049916817
 50
291.99507470434321
 51
320.88314615332752
  0
ARC
  8
_0-0_
  6
CONTINUOUS
 62
    7
 10
15.2263706124713
 20
14.501324701756914
 40
3.6093172081951201
 50
256.693467961897
 51
295.22079426751952
  0
ARC
  8
_0-0_
  6
CONTINUOUS
 62
    7
 10
12.691227531107444
 20
5.5718386040430232
 40
5.6788810862386647
 50
72.534402612331192
 51
79.39311045181644
  0
ARC
  8
_0-0_
  6
CONTINUOUS
 62
    7
 10
13.786486517322416
 20
10.019865841127256
 40
1.3275871723457611
 50
111.31130030167201
 51
181.73614310612263
  0
ARC
  8
_0-0_
  6
CONTINUOUS
 62
    7
 10
13.363641025494033
 20
11.400852584738054
 40
0.5565898479114076
 50
338.28061734309523
 51
87.65819046382866
  0
ARC
  8
_0-0_
  6
CONTINUOUS
 62
    7
 10
13.881537188054068
 20
9.9979090876905516
 40
2.0206747130627538
 50
104.18441007077861
 51
161.5096643510204
  0
ARC
  8
_0-0_
  6
CONTINUOUS
 62
    7
 10
13.345189346962769
 20
10.041435896660602
 40
1.5037383161529607
 50
156.59531044896903
 51
193.46520809481098
  0
ARC
  8
_0-0_
  6
CONTINUOUS
 62
    7
 10
12.367399849664878
 20
10.406168736362687
 40
0.8636616860242153
 50
235.8670753647296
 51
318.63931386072221
  0
ARC
  8
_0-0_
  6
CONTINUOUS
 62
    7
 10
15.082019848173857
 20
15.696585087035963
 40
6.2203674039623431
 50
246.31342971107355
 51
266.9015747814243
  0
ARC
  8
_0-0_
  6
CONTINUOUS
 62
    7
 10
15.432956067604579
 20
13.816574731430471
 40
4.3854337623150732
 50
260.98515004198003
 51
300.05641858576848
  0
ARC
  8
_0-0_
  6
CONTINUOUS
 62
    7
 10
15.166097933331969
 20
15.853440008046718
 40
6.3314415990044637
 50
292.89605230730729
 51
337.79424993902126
  0
ARC
  8
_0-0_
  6
CONTINUOUS
 62
    7
 10
7.7938217651404074
 20
13.342296849322508
 40
2.5968374920740467
 50
133.30863581703034
 51
185.57927374380296
  0
ARC
  8
_0-0_
  6
CONTINUOUS
 62
    7
 10
7.9046458875932899
 20
13.409714658587397
 40
2.6268633337520031
 50
100.32594798397265
 51
136.07730845341686
  0
ARC
  8
_0-0_
  6
CONTINUOUS
 62
    7
 10
6.9885922230368891
 20
16.083189761659369
 40
0.220165651941151
 50
323.6967622637203
 51
86.705485027233024
  0
ARC
  8
_0-0_
  6
CONTINUOUS
 62
    7
 10
7.4539645690984742
 20
13.688341800352553
 40
2.6535539385281033
 50
99.823220334115717
 51
131.86555477500497
  0
ARC
  8
_0-0_
  6
CONTINUOUS
 62
    7
 10
7.9679709651703092
 20
13.495052798881005
 40
3.1507766358302423
 50
136.48562506767416
 51
178.75410482840633
  0
ARC
  8
_0-0_
  6
CONTINUOUS
 62
    7
 10
5.1268975508580894
 20
13.471388381237844
 40
0.3224143879676542
 50
163.38840412889581
 51
277.34066901730023
  0
ARC
  8
_0-0_
  6
CONTINUOUS
 62
    7
 10
5.3019739425044179
 20
15.180442922044321
 40
2.4161604369930112
 50
100.06456820725172
 51
143.66738717995568
  0
ARC
  8
_0-0_
  6
CONTINUOUS
 62
    7
 10
5.0209045443223772
 20
15.041749945407375
 40
2.2888815783323042
 50
136.68476255373011
 51
193.93766389963309
  0
ARC
  8
_0-0_
  6
CONTINUOUS
 62
    7
 10
3.8566639756822951
 20
15.560633321550782
 40
2.0895453360578182
 50
127.90852264015533
 51
194.24218852774288
  0
ARC
  8
_0-0_
  6
CONTINUOUS
 62
    7
 10
5.0920893954373838
 20
14.542044091380752
 40
3.6688824194896021
 50
110.81947344346779
 51
133.36570921400028
  0
ARC
  8
_0-0_
  6
CONTINUOUS
 62
    7
 10
5.0724727730340646
 20
14.447587730047779
 40
4.0407701122192634
 50
118.08490153953966
 51
141.88887095038885
  0
ARC
  8
_0-0_
  6
CONTINUOUS
 62
    7
 10
4.5184555968307336
 20
15.628638484658921
 40
2.9352913308900481
 50
153.43135277827042
 51
186.95646170193547
  0
ARC
  8
_0-0_
  6
CONTINUOUS
 62
    7
 10
13.113721778953916
 20
10.257204362118578
 40
1.9887817428292911
 50
108.5779734372619
 51
168.93913793368208
  0
ARC
  8
_0-0_
  6
CONTINUOUS
 62
    7
 10
12.577979326998943
 20
10.725161429493859
 40
1.8284180228929201
 50
104.85062322220149
 51
178.83492360306008
  0
ARC
  8
_0-0_
  6
CONTINUOUS
 62
    7
 10
11.937845688810299
 20
11.118363214617212
 40
1.7340128758017632
 50
100.72941609574826
 51
186.33211512414758
  0
ARC
  8
_0-0_
  6
CONTINUOUS
 62
    7
 10
-0.9746044565554541
 20
18.727794851003708
 40
1.5445157653941948
 50
123.85143627811988
 51
196.84091560577306
  0
ARC
  8
_0-0_
  6
CONTINUOUS
 62
    7
 10
-1.2219543854523778
 20
19.374396847159389
 40
0.8834007749337403
 50
77.56114612885078
 51
133.94120119805578
  0
ARC
  8
_0-0_
  6
CONTINUOUS
 62
    7
 10
-1.7549979823681667
 20
19.417412760018117
 40
1.0052869111884111
 50
88.68784871957395
 51
129.25296689739881
  0
ARC
  8
_0-0_
  6
CONTINUOUS
 62
    7
 10
-1.1615020245046139
 20
18.836956413149785
 40
1.8326266038181138
 50
132.13983139046084
 51
189.72178153484327
  0
ARC
  8
_0-0_
  6
CONTINUOUS
 62
    7
 10
-2.0750363889905543
 20
19.155765140085364
 40
1.4955841227375171
 50
115.57397375904208
 51
190.7171835599211
  0
ARC
  8
_0-0_
  6
CONTINUOUS
 62
    7
 10
-2.1246121119641543
 20
19.13124767176928
 40
1.4973205525775275
 50
80.448596086419386
 51
113.45731884992729
  0
ARC
  8
_0-0_
  6
CONTINUOUS
 62
    7
 10
-1.742814657920519
 20
19.097415387512797
 40
2.1213740822208123
 50
144.14277811667833
 51
174.24363985789984
  0
ARC
  8
_0-0_
  6
CONTINUOUS
 62
    7
 10
-1.9746128387683228
 20
19.265799028055234
 40
1.8348729582858132
 50
109.14784210408071
 51
144.16437472785347
  0
ARC
  8
_0-0_
  6
CONTINUOUS
 62
    7
 10
-2.4477310406643795
 20
20.638706896900729
 40
0.3827496579774983
 50
17.216073587791801
 51
109.65382405805289
  0
LINE
  8
_0-0_
  6
CONTINUOUS
 62
    7
 10
-2.0821303404617311
 20
20.751991620907191
 11
-0.475546981824749
 21
20.092880499415088
  0
LINE
  8
_0-0_
  6
CONTINUOUS
 62
    7
 10
-0.475546981824749
 20
20.092880499415088
 11
2.5728419550761998
 21
18.589283253511248
  0
LINE
  8
_0-0_
  6
CONTINUOUS
 62
    7
 10
2.5728419550761998
 20
18.589283253511248
 11
3.170161408928422
 21
18.012561022205659
  0
LINE
  8
_0-0_
  6
CONTINUOUS
 62
    7
 10
3.170161408928422
 20
18.012561022205659
 11
3.7880780853272569
 21
17.971366577112406
  0
LINE
  8
_0-0_
  6
CONTINUOUS
 62
    7
 10
3.7880780853272569
 20
17.971366577112406
 11
4.8797308802985526
 21
17.55942212617984
  0
LINE
  8
_0-0_
  6
CONTINUOUS
 62
    7
 10
4.8797308802985526
 20
17.55942212617984
 11
7.0012448026012351
 21
16.302991550835529
  0
LINE
  8
_0-0_
  6
CONTINUOUS
 62
    7
 10
7.433786476080428
 20
15.994033212636111
 11
13.386383792055938
 21
11.956977593497015
  0
LINE
  8
_0-0_
  6
CONTINUOUS
 62
    7
 10
11.88278654615209
 20
9.6912831133679234
 11
11.285467092299868
 21
10.16501923194037
  0
LINE
  8
_0-0_
  6
CONTINUOUS
 62
    7
 10
11.285467092299868
 20
10.16501923194037
 11
5.2092864410445969
 21
13.089824833561558
  0
LINE
  8
_0-0_
  6
CONTINUOUS
 62
    7
 10
4.8385364352052846
 20
13.295797059027834
 11
2.799411403089124
 21
14.490435966732264
  0
LINE
  8
_0-0_
  6
CONTINUOUS
 62
    7
 10
2.799411403089124
 20
14.490435966732264
 11
2.1814947266902749
 21
14.717005414745174
  0
LINE
  8
_0-0_
  6
CONTINUOUS
 62
    7
 10
2.1814947266902749
 20
14.717005414745174
 11
1.6047724953846938
 21
15.273130423504128
  0
LINE
  8
_0-0_
  6
CONTINUOUS
 62
    7
 10
1.6047724953846938
 20
15.273130423504128
 11
-2.4528803463010433
 21
18.259727692765196
  0
LINE
  8
_0-0_
  6
CONTINUOUS
 62
    7
 10
-2.4528803463010433
 20
18.259727692765196
 11
-3.5033386961790711
 21
18.733463811337643
  0
LINE
  8
_0-0_
  6
CONTINUOUS
 62
    7
 10
-3.5033386961790711
 20
18.733463811337643
 11
-3.7093109216453541
 21
18.960033259350553
  0
LINE
  8
_0-0_
  6
CONTINUOUS
 62
    7
 10
-3.7093109216453541
 20
18.960033259350553
 11
-3.8534914794717423
 21
19.310186042643224
  0
LINE
  8
_0-0_
  6
CONTINUOUS
 62
    7
 10
1.954925278677365
 20
15.19074153331762
 11
2.4286613972498117
 21
14.943574862758084
  0
LINE
  8
_0-0_
  6
CONTINUOUS
 62
    7
 10
2.0373141688638725
 20
15.540894316610292
 11
2.4492586197964386
 21
15.293727646050755
  0
LINE
  8
_0-0_
  6
CONTINUOUS
 62
    7
 10
2.0579113914104994
 20
16.035227657729365
 11
2.6552308452627216
 21
15.66447765189006
  0
LINE
  8
_0-0_
  6
CONTINUOUS
 62
    7
 10
2.2226891717835286
 20
16.34418599592879
 11
2.758216957995856
 21
16.076422102822626
  0
LINE
  8
_0-0_
  6
CONTINUOUS
 62
    7
 10
2.4492586197964386
 20
16.714936001768095
 11
2.9435919609155121
 21
16.40597766356867
  0
LINE
  8
_0-0_
  6
CONTINUOUS
 62
    7
 10
2.7994114030891097
 20
17.023894339967512
 11
3.2319530765683027
 21
16.797324891954602
  0
LINE
  8
_0-0_
  6
CONTINUOUS
 62
    7
 10
3.5203141922210932
 20
17.641811016366354
 11
3.9528558657002861
 21
17.394644345806817
  0
LINE
  8
_0-0_
  6
CONTINUOUS
 62
    7
 10
3.8292725304205106
 20
17.765394351646123
 11
4.2206197588064498
 21
17.6006165712731
  0
LINE
  8
_0-0_
  6
CONTINUOUS
 62
    7
 10
3.1495641863817951
 20
15.561491539156918
 11
4.7355503224721502
 21
14.572824856918778
  0
LINE
  8
_0-0_
  6
CONTINUOUS
 62
    7
 10
3.0465780736486465
 20
15.108352643131106
 11
4.5501753195524941
 21
14.263866518719354
  0
LINE
  8
_0-0_
  6
CONTINUOUS
 62
    7
 10
3.170161408928422
 20
14.655213747105286
 11
4.4059947617261059
 21
13.954908180519936
  0
LINE
  8
_0-0_
  6
CONTINUOUS
 62
    7
 10
3.4173280794879588
 20
15.952838767542858
 11
4.6531614322856427
 21
15.211338755864247
  0
LINE
  8
_0-0_
  6
CONTINUOUS
 62
    7
 10
4.570772542099121
 20
16.982699894874258
 11
5.9507864527232073
 21
16.261797105742275
  0
LINE
  8
_0-0_
  6
CONTINUOUS
 62
    7
 10
4.982716993031687
 20
17.106283230154027
 11
6.0743697880029686
 21
16.488366553755185
  0
ARC
  8
_0-0_
  6
CONTINUOUS
 62
    7
 10
-3.991634920344822
 20
18.96678062535738
 40
1.7011825218635643
 50
68.174159241154953
 51
115.29724993670159
  0
ARC
  8
_0-0_
  6
CONTINUOUS
 62
    7
 10
-2.8530756773302102
 20
15.506807363804221
 40
5.3348164795698372
 50
110.46797900338642
 51
139.3708250215289
  0
ARC
  8
_0-0_
  6
CONTINUOUS
 62
    7
 10
-0.1504879978322719
 20
14.504360849580863
 40
8.1005116758339586
 50
146.45505320638415
 51
171.32419583571354
  0
ARC
  8
_0-0_
  6
CONTINUOUS
 62
    7
 10
-2.3091590922479952
 20
14.943095145483717
 40
5.901350669969962
 50
172.37372088917442
 51
202.35577160079117
  0
ARC
  8
_0-0_
  6
CONTINUOUS
 62
    7
 10
8.7330514027733699
 20
18.930580543034594
 40
17.63773249342859
 50
200.69169432335843
 51
209.80025279978005
  0
ARC
  8
_0-0_
  6
CONTINUOUS
 62
    7
 10
-13.041912457520951
 20
6.3607122275788583
 40
7.5052192187849265
 50
17.191745967755494
 51
30.456775198035459
  0
ARC
  8
_0-0_
  6
CONTINUOUS
 62
    7
 10
-8.0714781802275581
 20
8.1019111324754149
 40
3.7654543866559718
 50
8.5452543976512327
 51
38.644386742111692
  0
ARC
  8
_0-0_
  6
CONTINUOUS
 62
    7
 10
159.03964303045683
 20
106.86897908831372
 40
190.38857600367578
 50
209.59495809917325
 51
210.42531718146338
  0
ARC
  8
_0-0_
  6
CONTINUOUS
 62
    7
 10
-3.5998898774296606
 20
14.558063967577276
 40
3.3785294960472139
 50
162.35624158802469
 51
210.51323671404978
  0
ARC
  8
_0-0_
  6
CONTINUOUS
 62
    7
 10
-2.1345949639295867
 20
15.349689911083111
 40
4.6906572060654153
 50
143.24213226958986
 51
177.1601150213601
  0
ARC
  8
_0-0_
  6
CONTINUOUS
 62
    7
 10
-3.5359620389868098
 20
16.686033447549455
 40
2.7779133741319759
 50
104.78443756693549
 51
148.03311156860872
  0
ARC
  8
_0-0_
  6
CONTINUOUS
 62
    7
 10
-4.1095836131348022
 20
19.012899463886924
 40
0.3837070857873867
 50
34.059712587825011
 51
110.64003897231549
  0
ARC
  8
_0-0_
  6
CONTINUOUS
 62
    7
 10
10.749952647697711
 20
-9.8942562498258724
 40
8.1512565152280612
 50
50.864267958619067
 51
72.990758169675019
  0
ARC
  8
_0-0_
  6
CONTINUOUS
 62
    7
 10
16.400750140546549
 20
-1.984543297230509
 40
1.3183817586083837
 50
276.00900595749425
 51
317.12109639666159
  0
ARC
  8
_0-0_
  6
CONTINUOUS
 62
    7
 10
16.686012526297986
 20
-1.7141838867711314
 40
2.1132019789345629
 50
272.86920440215914
 51
309.63180661210748
  0
ARC
  8
_0-0_
  6
CONTINUOUS
 62
    7
 10
19.885616525935589
 20
0.0104741435037709
 40
0.3603381579204234
 50
77.089734681206167
 51
171.6709547664835
  0
ARC
  8
_0-0_
  6
CONTINUOUS
 62
    7
 10
19.518995789066651
 20
-11.076485490278593
 40
4.1705292849154985
 50
346.69032303079956
 51
11.859228371081231
  0
LINE
  8
_0-0_
  6
CONTINUOUS
 62
    7
 10
16.53876465085898
 20
-3.2956811451986567
 11
16.136437616034911
 21
-3.2796140805563638
  0
LINE
  8
_0-0_
  6
CONTINUOUS
 62
    7
 10
15.894696936067604
 20
-3.5717101658235322
 11
15.963704191223826
 21
-3.7787319312921923
  0
LINE
  8
_0-0_
  6
CONTINUOUS
 62
    7
 10
15.963704191223826
 20
-3.7787319312921923
 11
16.791791253098452
 21
-3.8247367680630049
  0
LINE
  8
_0-0_
  6
CONTINUOUS
 62
    7
 10
18.033921845910385
 20
-3.3416859819694693
 11
19.920120153513707
 21
-0.0983449896271864
  0
LINE
  8
_0-0_
  6
CONTINUOUS
 62
    7
 10
19.52907904096179
 20
0.062671939070654
 11
17.366851712733606
 21
-2.8816376142613436
  0
LINE
  8
_0-0_
  6
CONTINUOUS
 62
    7
 10
22.910434543616518
 20
-5.9409592595203833
 11
23.600507095178713
 21
-10.219409079205946
  0
LINE
  8
_0-0_
  6
CONTINUOUS
 62
    7
 10
23.577504676793296
 20
-12.036600131653046
 11
22.864429706845712
 21
-12.772677519986043
  0
LINE
  8
_0-0_
  6
CONTINUOUS
 62
    7
 10
22.864429706845712
 20
-12.772677519986043
 11
22.841427288460295
 21
-13.439747653162826
  0
LINE
  8
_0-0_
  6
CONTINUOUS
 62
    7
 10
22.841427288460295
 20
-13.439747653162826
 11
22.542395849450017
 21
-14.014808112797983
  0
LINE
  8
_0-0_
  6
CONTINUOUS
 62
    7
 10
22.56539826783542
 20
-12.427641244204949
 11
22.726415196533267
 21
-12.611660591288199
  0
LINE
  8
_0-0_
  6
CONTINUOUS
 62
    7
 10
23.393485329710046
 20
-11.599554182330323
 11
21.001233817627792
 21
-7.9421696590507267
  0
LINE
  8
_0-0_
  6
CONTINUOUS
 62
    7
 10
17.803897662056329
 20
-3.9627512783754426
 11
20.311161266065611
 21
-7.045075342019878
  0
ARC
  8
_0-0_
  6
CONTINUOUS
 62
    7
 10
25.407021129319602
 20
-2.4823171296196094
 40
6.1827933105203776
 50
167.61710924134576
 51
204.0078555248796
  0
ARC
  8
_0-0_
  6
CONTINUOUS
 62
    7
 10
22.135502726010003
 20
-4.1812556200530793
 40
2.5127907742756834
 50
198.96430880650493
 51
276.67042765908536
  0
ARC
  8
_0-0_
  6
CONTINUOUS
 62
    7
 10
27.86570097658965
 20
-1.5071736275402472
 40
7.9606606093693184
 50
176.63625231418618
 51
205.09019866085757
  0
ARC
  8
_0-0_
  6
CONTINUOUS
 62
    7
 10
23.072394194379285
 20
-4.1036693726480564
 40
2.5387251955507213
 50
197.87354953694796
 51
243.61877759081347
  0
ARC
  8
_0-0_
  6
CONTINUOUS
 62
    7
 10
22.089666433046318
 20
-5.1996540488269929
 40
1.1872797780543745
 50
262.96885977601971
 51
312.21598934834378
  0
ARC
  8
_0-0_
  6
CONTINUOUS
 62
    7
 10
28.080087627317027
 20
-1.3755403553115855
 40
7.4646006843708133
 50
180.0991301038878
 51
211.48294796937367
  0
ARC
  8
_0-0_
  6
CONTINUOUS
 62
    7
 10
23.410098187432823
 20
-4.3367535624937332
 40
1.9375047751427692
 50
208.92613569772149
 51
245.65508438755566
  0
ARC
  8
_0-0_
  6
CONTINUOUS
 62
    7
 10
22.408381759726353
 20
-5.1368747211783656
 40
0.9862243700899505
 50
281.87968079321161
 51
2.7318382734108351
  0
ARC
  8
_0-0_
  6
CONTINUOUS
 62
    7
 10
22.88162876745929
 20
-4.8051884751530878
 40
0.5856966665667274
 50
330.91832653465838
 51
13.033718347496565
  0
LINE
  8
_0-0_
  6
CONTINUOUS
 62
    7
 10
23.899538534188991
 20
-1.2024610721266882
 11
22.197359573668919
 21
-1.4784900927515636
  0
LINE
  8
_0-0_
  6
CONTINUOUS
 62
    7
 10
22.542395849450017
 20
-3.6867222577505672
 11
24.313582065126297
 21
-3.5717101658235322
  0
ARC
  8
_0-0_
  6
CONTINUOUS
 62
    7
 10
22.185858364476232
 20
-1.4669888835588552
 40
0.1499574212636166
 50
355.60129464500216
 51
175.60129464500531
  0
ARC
  8
_0-0_
  6
CONTINUOUS
 62
    7
 10
24.326661871659184
 20
-2.394076550053029
 40
2.4751790314440547
 50
157.71583768828657
 51
195.74318646534618
  0
ARC
  8
_0-0_
  6
CONTINUOUS
 62
    7
 10
23.078267003687827
 20
-2.960868166477745
 40
1.1387655953019284
 50
185.2798059204909
 51
239.271482708664
  0
ARC
  8
_0-0_
  6
CONTINUOUS
 62
    7
 10
22.392880129944885
 20
-3.3761896095475876
 40
0.5729865021129996
 50
280.40771131249005
 51
321.51980175165664
  0
ARC
  8
_0-0_
  6
CONTINUOUS
 62
    7
 10
23.069151230475853
 20
-2.1800638535064536
 40
1.4720577320148707
 50
147.37774056768873
 51
183.1351337593706
  0
ARC
  8
_0-0_
  6
CONTINUOUS
 62
    7
 10
25.495552486775864
 20
-2.046472885191335
 40
3.9021337441150927
 50
183.14524253676356
 51
204.48480814575996
  0
ARC
  8
_0-0_
  6
CONTINUOUS
 62
    7
 10
22.549296574965624
 20
-3.4037925116100993
 40
0.6584399572606021
 50
203.2511554342318
 51
261.3603636323889
  0
ARC
  8
_0-0_
  6
CONTINUOUS
 62
    7
 10
22.105349900127237
 20
-3.0771581705371531
 40
1.0367049868533826
 50
289.44003482817664
 51
310.04972776570588
  0
LINE
  8
_0-0_
  6
CONTINUOUS
 62
    7
 10
21.829320879502419
 20
-1.3864804192099385
 11
22.151354736898114
 21
-1.2944707456683133
  0
ARC
  8
_0-0_
  6
CONTINUOUS
 62
    7
 10
22.703857576293458
 20
-2.1429549796471363
 40
0.7597984403930163
 50
119.01085550249982
 51
194.21870238307221
  0
ARC
  8
_0-0_
  6
CONTINUOUS
 62
    7
 10
24.049054253694038
 20
-2.2490711086627044
 40
2.0832750757070482
 50
182.21475512731837
 51
214.65514251852551
  0
ARC
  8
_0-0_
  6
CONTINUOUS
 62
    7
 10
22.714913987340566
 20
-3.3110160907889323
 40
0.3988744336784846
 50
197.91250938596269
 51
271.65230467765105
  0
ARC
  8
_0-0_
  6
CONTINUOUS
 62
    7
 10
24.215112808339271
 20
-2.214725031895405
 40
1.8579304539009958
 50
155.88014202596133
 51
195.80057338661351
  0
ARC
  8
_0-0_
  6
CONTINUOUS
 62
    7
 10
23.612008304371329
 20
-2.5941073844438165
 40
1.1913609580458178
 50
186.09586154459393
 51
239.22596389875383
  0
ARC
  8
_0-0_
  6
CONTINUOUS
 62
    7
 10
25.289415429706978
 20
-2.0345293217987432
 40
1.619905971594354
 50
149.09259203636188
 51
189.66809741132818
  0
ARC
  8
_0-0_
  6
CONTINUOUS
 62
    7
 10
25.032520396623099
 20
-2.4337669974631595
 40
1.3460263663515109
 50
174.57787010626171
 51
237.71581236489928
  0
ARC
  8
_0-0_
  6
CONTINUOUS
 62
    7
 10
24.180303346834378
 20
-3.0541557521518925
 40
0.5344396952515132
 50
284.44084310690414
 51
11.167689023669791
  0
ARC
  8
_0-0_
  6
CONTINUOUS
 62
    7
 10
23.589452534886675
 20
-2.6680277775075467
 40
1.1504251314986709
 50
345.77897123632556
 51
29.613132207707253
  0
ARC
  8
_0-0_
  6
CONTINUOUS
 62
    7
 10
23.137076018884358
 20
-2.6211690531325473
 40
1.5433531465362078
 50
19.75350405040875
 51
42.903881685198684
  0
ARC
  8
_0-0_
  6
CONTINUOUS
 62
    7
 10
23.456098605237045
 20
-2.0139396952451278
 40
0.9247359225027989
 50
28.654802712355451
 51
61.345197287643948
  0
LINE
  8
_0-0_
  6
CONTINUOUS
 62
    7
 10
-16.103288171851176
 20
-13.263546887411749
 11
-16.483241137881294
 21
-14.492806483391572
  0
LINE
  8
_0-0_
  6
CONTINUOUS
 62
    7
 10
-13.264816013861406
 20
-16.079668870929162
 11
-13.644768979891523
 21
-17.443029513743149
  0
LINE
  8
_0-0_
  6
CONTINUOUS
 62
    7
 10
-9.0629832130576347
 20
-17.46537968821551
 11
-9.4205860046154015
 21
-19.11929259917018
  0
LINE
  8
_0-0_
  6
CONTINUOUS
 62
    7
 10
-5.1740528548669289
 20
-17.934733352135076
 11
-5.5093054719523309
 21
-19.543945914145027
  0
LINE
  8
_0-0_
  6
CONTINUOUS
 62
    7
 10
-1.9332775563746623
 20
-17.487729862687868
 11
-2.1567793010982683
 21
-19.141642773642541
  0
LINE
  8
_0-0_
  6
CONTINUOUS
 62
    7
 10
-15.958012037780833
 20
-13.699375289622775
 11
-16.33796500381095
 21
-14.928634885602598
  0
LINE
  8
_0-0_
  6
CONTINUOUS
 62
    7
 10
-15.756860467529592
 20
-13.878176685401659
 11
-16.136813433559709
 21
-15.107436281381482
  0
LINE
  8
_0-0_
  6
CONTINUOUS
 62
    7
 10
-15.589234158986883
 20
-14.291654913140327
 11
-15.969187125017015
 21
-15.655015555954314
  0
LINE
  8
_0-0_
  6
CONTINUOUS
 62
    7
 10
-15.466308199388905
 20
-14.526331745100112
 11
-15.846261165419037
 21
-15.889692387914099
  0
LINE
  8
_0-0_
  6
CONTINUOUS
 62
    7
 10
-15.198106105720584
 20
-14.727483315351357
 11
-15.578059071750715
 21
-16.090843958165344
  0
LINE
  8
_0-0_
  6
CONTINUOUS
 62
    7
 10
-14.840503314162817
 20
-14.90628471113024
 11
-15.220456280192948
 21
-16.269645353944227
  0
LINE
  8
_0-0_
  6
CONTINUOUS
 62
    7
 10
-14.527600871549765
 20
-15.196836979270927
 11
-14.907553837579897
 21
-16.560197622084914
  0
LINE
  8
_0-0_
  6
CONTINUOUS
 62
    7
 10
-14.214698428936728
 20
-15.37563837504981
 11
-14.59465139496686
 21
-16.738999017863797
  0
LINE
  8
_0-0_
  6
CONTINUOUS
 62
    7
 10
-13.857095637378961
 20
-15.576789945301051
 11
-14.237048603409093
 21
-16.940150588115038
  0
LINE
  8
_0-0_
  6
CONTINUOUS
 62
    7
 10
-13.54419319476591
 20
-15.800291690024657
 11
-13.924146160796042
 21
-17.163652332838645
  0
LINE
  8
_0-0_
  6
CONTINUOUS
 62
    7
 10
-12.851337786122741
 20
-16.269645353944227
 11
-13.231290752152873
 21
-17.633005996758214
  0
LINE
  8
_0-0_
  6
CONTINUOUS
 62
    7
 10
-12.449034645620245
 20
-16.359046051833669
 11
-12.828987611650376
 21
-17.722406694647656
  0
LINE
  8
_0-0_
  6
CONTINUOUS
 62
    7
 10
-12.113782028534843
 20
-16.56019762208491
 11
-12.493734994564974
 21
-17.923558264898897
  0
LINE
  8
_0-0_
  6
CONTINUOUS
 62
    7
 10
-11.745004149740879
 20
-16.504322185904012
 11
-12.102606941298646
 21
-18.158235096858682
  0
LINE
  8
_0-0_
  6
CONTINUOUS
 62
    7
 10
-11.409751532655477
 20
-16.683123581682896
 11
-11.767354324213244
 21
-18.337036492637566
  0
LINE
  8
_0-0_
  6
CONTINUOUS
 62
    7
 10
-11.029798566625345
 20
-16.750174105099976
 11
-11.387401358183112
 21
-18.404087016054646
  0
LINE
  8
_0-0_
  6
CONTINUOUS
 62
    7
 10
-10.694545949539943
 20
-17.018376198768301
 11
-11.05214874109771
 21
-18.672289109722971
  0
LINE
  8
_0-0_
  6
CONTINUOUS
 62
    7
 10
-10.336943157982176
 20
-17.085426722185385
 11
-10.694545949539943
 21
-18.739339633140055
  0
LINE
  8
_0-0_
  6
CONTINUOUS
 62
    7
 10
-9.9569901919520447
 20
-17.219527769019546
 11
-10.314592983509812
 21
-18.873440679974216
  0
LINE
  8
_0-0_
  6
CONTINUOUS
 62
    7
 10
-9.5323368769771974
 20
-17.375978990326068
 11
-9.8899396685349643
 21
-19.029891901280738
  0
LINE
  8
_0-0_
  6
CONTINUOUS
 62
    7
 10
-8.6383298980827874
 20
-17.532430211632594
 11
-8.9959326896405543
 21
-19.186343122587264
  0
LINE
  8
_0-0_
  6
CONTINUOUS
 62
    7
 10
-8.1689762341632104
 20
-17.621830909522036
 11
-8.5265790257209773
 21
-19.275743820476706
  0
LINE
  8
_0-0_
  6
CONTINUOUS
 62
    7
 10
-7.7890232681330929
 20
-17.688881432939116
 11
-8.1466260596908597
 21
-19.342794343893786
  0
LINE
  8
_0-0_
  6
CONTINUOUS
 62
    7
 10
-7.2749692552688003
 20
-17.711231607411477
 11
-7.6325720468265672
 21
-19.365144518366147
  0
LINE
  8
_0-0_
  6
CONTINUOUS
 62
    7
 10
-6.8056155913492233
 20
-17.822982479773277
 11
-7.1632183829069902
 21
-19.476895390727947
  0
LINE
  8
_0-0_
  6
CONTINUOUS
 62
    7
 10
-6.3809622763743761
 20
-17.845332654245638
 11
-6.7385650679321429
 21
-19.499245565200308
  0
LINE
  8
_0-0_
  6
CONTINUOUS
 62
    7
 10
-5.9563089613995288
 20
-17.822982479773277
 11
-6.3139117529572957
 21
-19.476895390727947
  0
LINE
  8
_0-0_
  6
CONTINUOUS
 62
    7
 10
-5.5987061698417619
 20
-17.845332654245638
 11
-5.9563089613995288
 21
-19.499245565200308
  0
LINE
  8
_0-0_
  6
CONTINUOUS
 62
    7
 10
-4.7605746271282641
 20
-17.912383177662718
 11
-5.0958272442136661
 21
-19.521595739672669
  0
LINE
  8
_0-0_
  6
CONTINUOUS
 62
    7
 10
-4.3582714866257817
 20
-17.912383177662718
 11
-4.6935241037111837
 21
-19.521595739672669
  0
LINE
  8
_0-0_
  6
CONTINUOUS
 62
    7
 10
-3.8889178227062047
 20
-17.890033003190357
 11
-4.2241704397916067
 21
-19.499245565200308
  0
LINE
  8
_0-0_
  6
CONTINUOUS
 62
    7
 10
-3.5983655545655324
 20
-17.890033003190357
 11
-3.9336181716509344
 21
-19.499245565200308
  0
LINE
  8
_0-0_
  6
CONTINUOUS
 62
    7
 10
-3.2407627630077656
 20
-17.733581781883835
 11
-3.5760153800931676
 21
-19.342794343893786
  0
LINE
  8
_0-0_
  6
CONTINUOUS
 62
    7
 10
-2.871984884213802
 20
-17.688881432939112
 11
-3.0954866289374081
 21
-19.342794343893786
  0
LINE
  8
_0-0_
  6
CONTINUOUS
 62
    7
 10
-2.5367322671284001
 20
-17.64418108399439
 11
-2.7602340118520061
 21
-19.298093994949063
  0
LINE
  8
_0-0_
  6
CONTINUOUS
 62
    7
 10
-2.2238298245153629
 20
-17.554780386104948
 11
-2.447331569238969
 21
-19.208693297059622
  0
LINE
  8
_0-0_
  6
CONTINUOUS
 62
    7
 10
-1.5756747648169096
 20
-17.353628815853707
 11
-1.7991765095405157
 21
-19.00754172680838
  0
LINE
  8
_0-0_
  6
CONTINUOUS
 62
    7
 10
-1.3745231945656542
 20
-17.241877943491904
 11
-1.5980249392892603
 21
-18.895790854446577
  0
LINE
  8
_0-0_
  6
CONTINUOUS
 62
    7
 10
-1.1510214498420623
 20
-17.107776896657739
 11
-1.3745231945656684
 21
-18.761689807612413
  0
LINE
  8
_0-0_
  6
CONTINUOUS
 62
    7
 10
-0.9275197051184562
 20
-17.06307654771302
 11
-1.1510214498420623
 21
-18.716989458667694
  0
LINE
  8
_0-0_
  6
CONTINUOUS
 62
    7
 10
-0.6369674369777698
 20
-16.906625326406498
 11
-0.8604691817013758
 21
-18.560538237361172
  0
LINE
  8
_0-0_
  6
CONTINUOUS
 62
    7
 10
-0.3687653433094482
 20
-16.772524279572334
 11
-0.5922670880330542
 21
-18.426437190527007
  0
LINE
  8
_0-0_
  6
CONTINUOUS
 62
    7
 10
0.0111876227206835
 20
-16.504322185904009
 11
-0.2123141220029225
 21
-18.158235096858682
  0
LINE
  8
_0-0_
  6
CONTINUOUS
 62
    7
 10
0.2346893674442895
 20
-16.370221139069848
 11
0.0111876227206835
 21
-18.024134050024522
  0
LINE
  8
_0-0_
  6
CONTINUOUS
 62
    7
 10
0.5475918100573409
 20
-16.124369219873884
 11
0.3240900653337348
 21
-17.778282130828558
  0
LINE
  8
_0-0_
  6
CONTINUOUS
 62
    7
 10
-35.178806189512841
 20
-3.2133235278075531
 11
-35.819416285854373
 21
-5.7283113134447134
  0
LINE
  8
_0-0_
  6
CONTINUOUS
 62
    7
 10
-31.335145611463588
 20
0.5117055509191885
 11
-32.094387207127639
 21
-2.430355632279003
  0
LINE
  8
_0-0_
  6
CONTINUOUS
 62
    7
 10
-22.580140961462533
 20
3.5723982334398841
 11
-23.220751057804065
 21
0.2981688521386729
  0
LINE
  8
_0-0_
  6
CONTINUOUS
 62
    7
 10
-12.472737219184893
 20
4.3079135292394284
 11
-13.398062913900446
 21
1.0336841479382173
  0
LINE
  8
_0-0_
  6
CONTINUOUS
 62
    7
 10
-4.8091423629508938
 20
3.7147560326268874
 11
-5.4497524592924407
 21
0.2744425522741735
  0
LINE
  8
_0-0_
  6
CONTINUOUS
 62
    7
 10
3.2103469912506171
 20
1.6742942442797641
 11
2.7595472938250936
 21
-1.362672138376432
  0
LINE
  8
_0-0_
  6
CONTINUOUS
 62
    7
 10
8.9521115584599897
 20
-0.3661675440673661
 11
8.501311861034452
 21
-3.5692180257750721
  0
LINE
  8
_0-0_
  6
CONTINUOUS
 62
    7
 10
14.883686524585357
 20
-3.6641232252330767
 11
14.480339426888833
 21
-6.5350055088377559
  0
LINE
  8
_0-0_
  6
CONTINUOUS
 62
    7
 10
18.490084103989588
 20
-6.2502899104637422
 11
18.205368505615567
 21
-9.4058877924424422
  0
LINE
  8
_0-0_
  6
CONTINUOUS
 62
    7
 10
21.171155988678251
 20
-9.7617822904099611
 11
21.123703388949252
 21
-12.917380172388665
  0
LINE
  8
_0-0_
  6
CONTINUOUS
 62
    7
 10
-34.784602029025251
 20
-2.6104437894246288
 11
-35.425212125366784
 21
-5.1254315750617891
  0
LINE
  8
_0-0_
  6
CONTINUOUS
 62
    7
 10
-34.398382196623686
 20
-2.1787863296817136
 11
-35.038992292965219
 21
-4.6937741153188739
  0
LINE
  8
_0-0_
  6
CONTINUOUS
 62
    7
 10
-33.898568295868756
 20
-1.7016912425974411
 11
-34.539178392210289
 21
-4.2166790282346014
  0
LINE
  8
_0-0_
  6
CONTINUOUS
 62
    7
 10
-33.307879140431055
 20
-1.065564459818404
 11
-33.948489236772588
 21
-3.5805522454555643
  0
LINE
  8
_0-0_
  6
CONTINUOUS
 62
    7
 10
-32.649033543981346
 20
-0.6566258137461673
 11
-33.289643640322879
 21
-3.1716135993833277
  0
LINE
  8
_0-0_
  6
CONTINUOUS
 62
    7
 10
-32.103782015885045
 20
-0.1113742856498518
 11
-32.744392112226578
 21
-2.6263620712870122
  0
LINE
  8
_0-0_
  6
CONTINUOUS
 62
    7
 10
-30.635899818641633
 20
1.0336337736285373
 11
-31.395141414305684
 21
-1.9084274095696543
  0
LINE
  8
_0-0_
  6
CONTINUOUS
 62
    7
 10
-29.931616594850553
 20
1.1472278419819375
 11
-30.690858190514604
 21
-1.794833341216254
  0
LINE
  8
_0-0_
  6
CONTINUOUS
 62
    7
 10
-29.022864048023365
 20
1.5788853017248456
 11
-29.782105643687416
 21
-1.3631758814733459
  0
LINE
  8
_0-0_
  6
CONTINUOUS
 62
    7
 10
-28.182267942208213
 20
1.7833546247609675
 11
-28.941509537872264
 21
-1.158706558437224
  0
LINE
  8
_0-0_
  6
CONTINUOUS
 62
    7
 10
-27.387109463734419
 20
2.3058873391866044
 11
-28.146351059398469
 21
-0.6361738440115871
  0
LINE
  8
_0-0_
  6
CONTINUOUS
 62
    7
 10
-26.705545053614017
 20
2.5785131032347621
 11
-27.464786649278068
 21
-0.3635480799634294
  0
LINE
  8
_0-0_
  6
CONTINUOUS
 62
    7
 10
-26.342044034883145
 20
2.646669544246798
 11
-27.101285630547196
 21
-0.2953916389513935
  0
LINE
  8
_0-0_
  6
CONTINUOUS
 62
    7
 10
-28.409456078915014
 20
1.9651051341264036
 11
-29.168697674579064
 21
-0.9769560490717879
  0
LINE
  8
_0-0_
  6
CONTINUOUS
 62
    7
 10
-29.386365066754237
 20
1.5788853017248456
 11
-30.145606662418288
 21
-1.3631758814733459
  0
LINE
  8
_0-0_
  6
CONTINUOUS
 62
    7
 10
-30.204242358898711
 20
1.1926654693232948
 11
-30.963483954562761
 21
-1.7493957138748968
  0
LINE
  8
_0-0_
  6
CONTINUOUS
 62
    7
 10
-25.751354879445472
 20
2.8965764946242771
 11
-26.510596475109523
 21
-0.0454846885739144
  0
LINE
  8
_0-0_
  6
CONTINUOUS
 62
    7
 10
-25.296978606031871
 20
3.032889376648356
 11
-26.056220201695922
 21
0.0908281934501644
  0
LINE
  8
_0-0_
  6
CONTINUOUS
 62
    7
 10
-24.68357063692352
 20
3.1237646313310776
 11
-25.442812232587571
 21
0.181703448132886
  0
LINE
  8
_0-0_
  6
CONTINUOUS
 62
    7
 10
-24.183756736168561
 20
3.2827963270258351
 11
-24.942998331832612
 21
0.3407351438276435
  0
LINE
  8
_0-0_
  6
CONTINUOUS
 62
    7
 10
-23.593067580730889
 20
3.4418280227205926
 11
-24.35230917639494
 21
0.499766839522401
  0
LINE
  8
_0-0_
  6
CONTINUOUS
 62
    7
 10
-23.161410120987981
 20
3.4418280227205926
 11
-23.920651716652031
 21
0.499766839522401
  0
LINE
  8
_0-0_
  6
CONTINUOUS
 62
    7
 10
-21.834878236737765
 20
3.6760685627841383
 11
-22.475488333079298
 21
0.4018391814829271
  0
LINE
  8
_0-0_
  6
CONTINUOUS
 62
    7
 10
-21.153313826617364
 20
3.8123814448082172
 11
-21.793923922958896
 21
0.538152063507006
  0
LINE
  8
_0-0_
  6
CONTINUOUS
 62
    7
 10
-20.374829244651323
 20
3.9259755131616174
 11
-21.300154939366877
 21
0.6517461318604063
  0
LINE
  8
_0-0_
  6
CONTINUOUS
 62
    7
 10
-19.32976381580005
 20
4.1304448361977393
 11
-20.255089510515603
 21
0.8562154548965281
  0
LINE
  8
_0-0_
  6
CONTINUOUS
 62
    7
 10
-18.625480592008984
 20
4.2667577182218182
 11
-19.550806286724537
 21
0.992528336920607
  0
LINE
  8
_0-0_
  6
CONTINUOUS
 62
    7
 10
-17.898478554547225
 20
4.334914159233854
 11
-18.823804249262778
 21
1.0606847779326429
  0
LINE
  8
_0-0_
  6
CONTINUOUS
 62
    7
 10
-17.10332007607343
 20
4.2440389045511324
 11
-18.028645770788984
 21
0.9698095232499213
  0
LINE
  8
_0-0_
  6
CONTINUOUS
 62
    7
 10
-16.308161597599636
 20
4.334914159233854
 11
-17.233487292315189
 21
1.0606847779326429
  0
LINE
  8
_0-0_
  6
CONTINUOUS
 62
    7
 10
-15.490284305455162
 20
4.4485082275872543
 11
-16.415610000170716
 21
1.1742788462860432
  0
LINE
  8
_0-0_
  6
CONTINUOUS
 62
    7
 10
-14.786001081664097
 20
4.4257894139165757
 11
-15.71132677637965
 21
1.1515600326153645
  0
LINE
  8
_0-0_
  6
CONTINUOUS
 62
    7
 10
-13.945404975848945
 20
4.4939458549286115
 11
-14.870730670564498
 21
1.2197164736274004
  0
LINE
  8
_0-0_
  6
CONTINUOUS
 62
    7
 10
-13.218402938387186
 20
4.334914159233854
 11
-14.143728633102739
 21
1.0606847779326429
  0
LINE
  8
_0-0_
  6
CONTINUOUS
 62
    7
 10
-11.605367167768918
 20
4.334914159233854
 11
-12.530692862484472
 21
1.0606847779326429
  0
LINE
  8
_0-0_
  6
CONTINUOUS
 62
    7
 10
-10.69661462094173
 20
4.334914159233854
 11
-11.621940315657284
 21
1.0606847779326429
  0
LINE
  8
_0-0_
  6
CONTINUOUS
 62
    7
 10
-9.8332997014558998
 20
4.2894765318924968
 11
-10.758625396171453
 21
1.0152471505912857
  0
LINE
  8
_0-0_
  6
CONTINUOUS
 62
    7
 10
-9.0381412229821052
 20
4.1758824635390965
 11
-9.9634669176976587
 21
0.9016530822378854
  0
LINE
  8
_0-0_
  6
CONTINUOUS
 62
    7
 10
-7.8794817257774383
 20
4.0622883951856963
 11
-8.8048074204929918
 21
0.7880590138844851
  0
LINE
  8
_0-0_
  6
CONTINUOUS
 62
    7
 10
-7.1524796883156796
 20
3.9714131405029747
 11
-8.0778053830312331
 21
0.6971837592017635
  0
LINE
  8
_0-0_
  6
CONTINUOUS
 62
    7
 10
-6.2210083278178132
 20
3.9032566994909388
 11
-7.1463340225333667
 21
0.6290273181897276
  0
LINE
  8
_0-0_
  6
CONTINUOUS
 62
    7
 10
-5.5394439176974259
 20
3.6760685627841383
 11
-6.4647696124129794
 21
0.4018391814829271
  0
LINE
  8
_0-0_
  6
CONTINUOUS
 62
    7
 10
-3.9778906915834398
 20
3.6000789166151321
 11
-4.6185007879249866
 21
0.1597654362624183
  0
LINE
  8
_0-0_
  6
CONTINUOUS
 62
    7
 10
-3.1600133994389665
 20
3.350171966237653
 11
-3.8006234957805134
 21
-0.0901415141150607
  0
LINE
  8
_0-0_
  6
CONTINUOUS
 62
    7
 10
-2.2739796662824574
 20
3.3047343388962958
 11
-2.9145897626240043
 21
-0.135579141456418
  0
LINE
  8
_0-0_
  6
CONTINUOUS
 62
    7
 10
-1.4106647467966269
 20
3.0548273885188166
 11
-2.0512748431381738
 21
-0.3854860918338971
  0
LINE
  8
_0-0_
  6
CONTINUOUS
 62
    7
 10
-0.4110369452867104
 20
2.963952133836095
 11
-1.0516470416282573
 21
-0.4763613465166187
  0
LINE
  8
_0-0_
  6
CONTINUOUS
 62
    7
 10
0.3159650921750483
 20
2.5777323014345441
 11
-0.3246450041664985
 21
-0.8625811789181696
  0
LINE
  8
_0-0_
  6
CONTINUOUS
 62
    7
 10
1.1111235706488287
 20
2.4868570467518225
 11
0.4705134743072818
 21
-0.9534564336008912
  0
LINE
  8
_0-0_
  6
CONTINUOUS
 62
    7
 10
1.9062820491226233
 20
2.2823877237157006
 11
1.2656719527810765
 21
-1.1579257566370131
  0
LINE
  8
_0-0_
  6
CONTINUOUS
 62
    7
 10
2.4288147635482602
 20
2.1233560280209431
 11
1.7882046672067133
 21
-1.3169574523317706
  0
LINE
  8
_0-0_
  6
CONTINUOUS
 62
    7
 10
4.1781634161905998
 20
1.4872292452419131
 11
3.537553319849053
 21
-1.9530842351108006
  0
LINE
  8
_0-0_
  6
CONTINUOUS
 62
    7
 10
4.9051654536523586
 20
1.2600411085351126
 11
4.2645553573108117
 21
-2.1802723718176011
  0
LINE
  8
_0-0_
  6
CONTINUOUS
 62
    7
 10
5.6321674911141173
 20
1.1010094128403551
 11
4.9915573947725704
 21
-2.3393040675123586
  0
LINE
  8
_0-0_
  6
CONTINUOUS
 62
    7
 10
6.5182012242706264
 20
0.6920707667681185
 11
5.8775911279290796
 21
-2.7482427135845953
  0
LINE
  8
_0-0_
  6
CONTINUOUS
 62
    7
 10
7.1770468207203351
 20
0.533039071073361
 11
6.5364367243787882
 21
-2.9072744092793528
  0
LINE
  8
_0-0_
  6
CONTINUOUS
 62
    7
 10
7.8358924171700437
 20
0.3285697480372391
 11
7.1952823208284968
 21
-3.1117437323154746
  0
LINE
  8
_0-0_
  6
CONTINUOUS
 62
    7
 10
8.4265815726077307
 20
-0.0122124570229544
 11
7.7859714762661838
 21
-3.4525259373756683
  0
LINE
  8
_0-0_
  6
CONTINUOUS
 62
    7
 10
9.6948051933904935
 20
-0.6306578571004166
 11
9.2440054959649558
 21
-3.8337083388081226
  0
LINE
  8
_0-0_
  6
CONTINUOUS
 62
    7
 10
10.558120112876324
 20
-1.0850341305140105
 11
10.107320415450786
 21
-4.2880846122217164
  0
LINE
  8
_0-0_
  6
CONTINUOUS
 62
    7
 10
11.057934013631282
 20
-1.4712539629155685
 11
10.607134316205745
 21
-4.6743044446232744
  0
LINE
  8
_0-0_
  6
CONTINUOUS
 62
    7
 10
11.716779610080991
 20
-1.7438797269637263
 11
11.265979912655453
 21
-4.9469302086714322
  0
LINE
  8
_0-0_
  6
CONTINUOUS
 62
    7
 10
12.262031138177306
 20
-1.9029114226584838
 11
11.811231440751769
 21
-5.1059619043661897
  0
LINE
  8
_0-0_
  6
CONTINUOUS
 62
    7
 10
12.807282666273622
 20
-2.2436936277186774
 11
12.356482968848084
 21
-5.4467441094263833
  0
LINE
  8
_0-0_
  6
CONTINUOUS
 62
    7
 10
13.329815380699259
 20
-2.5163193917668352
 11
12.879015683273721
 21
-5.7193698734745411
  0
LINE
  8
_0-0_
  6
CONTINUOUS
 62
    7
 10
14.011379790819646
 20
-2.8798204104977145
 11
13.560580093394108
 21
-6.0828708922054204
  0
LINE
  8
_0-0_
  6
CONTINUOUS
 62
    7
 10
14.556631318915962
 20
-3.1297273608751937
 11
14.105831621490424
 21
-6.3327778425828996
  0
LINE
  8
_0-0_
  6
CONTINUOUS
 62
    7
 10
15.336904188876048
 20
-3.7668616298480515
 11
15.052188590502027
 21
-6.9224595118267516
  0
LINE
  8
_0-0_
  6
CONTINUOUS
 62
    7
 10
15.927593344313721
 20
-4.2439567169323311
 11
15.6428777459397
 21
-7.3995545989110312
  0
LINE
  8
_0-0_
  6
CONTINUOUS
 62
    7
 10
16.586438940763429
 20
-4.7892082450286466
 11
16.301723342389408
 21
-7.9448061270073467
  0
LINE
  8
_0-0_
  6
CONTINUOUS
 62
    7
 10
17.04081521417703
 20
-5.0391151954061186
 11
16.756099615803009
 21
-8.1947130773848187
  0
LINE
  8
_0-0_
  6
CONTINUOUS
 62
    7
 10
17.517910301261296
 20
-5.2890221457835978
 11
17.233194702887275
 21
-8.4446200277622978
  0
LINE
  8
_0-0_
  6
CONTINUOUS
 62
    7
 10
18.017724202016254
 20
-5.8797113012212705
 11
17.733008603642233
 21
-9.0353091831999706
  0
LINE
  8
_0-0_
  6
CONTINUOUS
 62
    7
 10
18.812882680490048
 20
-6.7657450343777867
 11
18.528167082116028
 21
-9.9213429163564868
  0
LINE
  8
_0-0_
  6
CONTINUOUS
 62
    7
 10
19.176383699220921
 20
-7.0838084257673017
 11
18.8916681008469
 21
-10.239406307746002
  0
LINE
  8
_0-0_
  6
CONTINUOUS
 62
    7
 10
19.494447090610436
 20
-7.4700282581688597
 11
19.209731492236415
 21
-10.62562614014756
  0
LINE
  8
_0-0_
  6
CONTINUOUS
 62
    7
 10
19.812510481999965
 20
-7.9698421589238109
 11
19.527794883625944
 21
-11.125440040902511
  0
LINE
  8
_0-0_
  6
CONTINUOUS
 62
    7
 10
20.153292687060159
 20
-8.2651867366426544
 11
19.868577088686138
 21
-11.420784618621354
  0
LINE
  8
_0-0_
  6
CONTINUOUS
 62
    7
 10
20.471356078449674
 20
-8.7195630100562482
 11
20.186640480075653
 21
-11.875160892034948
  0
LINE
  8
_0-0_
  6
CONTINUOUS
 62
    7
 10
20.76670065616851
 20
-9.2420957244818851
 11
20.481985057794489
 21
-12.397693606460585
  0
LINE
  8
_0-0_
  6
CONTINUOUS
 62
    7
 10
21.016607606545989
 20
-9.4238462338473212
 11
20.731892008171968
 21
-12.579444115826021
  0
LINE
  8
_0-0_
  6
CONTINUOUS
 62
    7
 10
21.63001557565434
 20
-10.582505731051988
 11
21.34529997728032
 21
-13.738103613030688
  0
LINE
  8
_0-0_
  6
CONTINUOUS
 62
    7
 10
21.925360153373177
 20
-11.105038445477625
 11
21.640644554999156
 21
-14.260636327456325
  0
LINE
  8
_0-0_
  6
CONTINUOUS
 62
    7
 10
22.175267103750656
 20
-11.854759296610055
 11
21.890551505376635
 21
-15.010357178588759
  0
LINE
  8
_0-0_
  6
CONTINUOUS
 62
    7
 10
22.379736426786778
 20
-12.53632370673045
 11
22.095020828412757
 21
-15.69192158870915
  0
LINE
  8
_0-0_
  6
CONTINUOUS
 62
    7
 10
22.470611681469492
 20
-13.195169303180165
 11
22.185896083095471
 21
-16.350767185158865
  0
ENDBLK
  0
ENDSEC
  0
SECTION
  2
ENTITIES
  0
INSERT
  2
-003-23
  8
_0-0_
 10
153.12445275615079
 20
102.48375816306933
 41
1
 42
1
 50
0
  0
ENDSEC
  0
EOF
