  0
SECTION
  2
HEADER
  9
$ACADVER
  1
AC1009
  9
$INSBASE
 10
0
 20
0
 30
0
  9
$EXTMIN
 10
0
 20
0
  9
$EXTMAX
 10
297
 20
210
  9
$LIMMIN
 10
0
 20
0
  9
$LIMMAX
 10
297
 20
210
  9
$LTSCALE
 40
1
  0
ENDSEC
  0
SECTION
  2
TABLES
  0
TABLE
  2
LTYPE
 70
     9
  0
LTYPE
  2
CONTINUOUS
 70
    64
  3
実線
 72
    65
 73
     0
 40
0.0
  0
LTYPE
  2
DASHED1
 70
    64
  3
--  --  --  --  --  --  --  --  
 72
    65
 73
     2
 40
2.5
 49
1.25
 49
-1.25
  0
LTYPE
  2
DASHED2
 70
    64
  3
----    ----    ----    ----    
 72
    65
 73
     2
 40
5.0
 49
2.5
 49
-2.5
  0
LTYPE
  2
DASHED3
 70
    64
  3
------  ------  ------  ------  
 72
    65
 73
     2
 40
5.0
 49
3.75
 49
-1.25
  0
LTYPE
  2
CENTER1
 70
    64
  3
----- - ----- - ----- - ----- - 
 72
    65
 73
     4
 40
10.0
 49
6.25
 49
-1.25
 49
1.25
 49
-1.25
  0
LTYPE
  2
CENTER2
 70
    64
  3
----------  --  ----------  --  
 72
    65
 73
     4
 40
20.0
 49
12.5
 49
-2.5
 49
2.5
 49
-2.5
  0
LTYPE
  2
PHANTOM1
 70
    64
  3
--- - - --- - - --- - - --- - - 
 72
    65
 73
     6
 40
10.0
 49
3.25
 49
-1.25
 49
1.25
 49
-1.25
 49
1.25
 49
-1.25
  0
LTYPE
  2
PHANTOM2
 70
    64
  3
--------  -  -  --------  -  -  
 72
    65
 73
     6
 40
20.0
 49
10.0
 49
-2.5
 49
1.25
 49
-2.5
 49
1.25
 49
-2.5
  0
LTYPE
  2
DOT
 70
    64
  3
-   -   -   -   -   -   -   -   
 72
    65
 73
     2
 40
2.5
 49
0.625
 49
-1.875
  0
LTYPE
  2
DUMMY
 70
    64
  3
ダミー
 72
    65
 73
     0
 40
0.0
  0
LTYPE
  2
RAND1
 70
    64
  3
ランダム線1
 72
    65
 73
     4
 40
10.0
 49
1.0
 49
-2.0
 49
3.0
 49
-4.0
  0
LTYPE
  2
RAND2
 70
    64
  3
ランダム線2
 72
    65
 73
     4
 40
14.0
 49
2.0
 49
-3.0
 49
4.0
 49
-5.0
  0
LTYPE
  2
RAND3
 70
    64
  3
ランダム線3
 72
    65
 73
     4
 40
18.0
 49
3.0
 49
-4.0
 49
5.0
 49
-6.0
  0
LTYPE
  2
RAND4
 70
    64
  3
ランダム線4
 72
    65
 73
     4
 40
22.0
 49
4.0
 49
-5.0
 49
6.0
 49
-7.0
  0
LTYPE
  2
RAND5
 70
    64
  3
ランダム線5
 72
    65
 73
     4
 40
26.0
 49
5.0
 49
-6.0
 49
7.0
 49
-8.0
  0
LTYPE
  2
LONG1
 70
    64
  3
----------  --  ----------  --  
 72
    65
 73
     4
 40
40.0
 49
32.5
 49
-2.5
 49
2.5
 49
-2.5
  0
LTYPE
  2
LONG2
 70
    64
  3
--------  -  -  --------  -  -  
 72
    65
 73
     6
 40
40.0
 49
30.0
 49
-2.5
 49
1.25
 49
-2.5
 49
1.25
 49
-2.5
  0
LTYPE
  2
LONG3
 70
    64
  3
+++++++++++++++..+++++++++++++++
 72
    65
 73
     2
 40
40.0
 49
37.5
 49
-2.5
  0
LTYPE
  2
LONG4
 70
    64
  3
+++++++++++++++..+++++++++++++++
 72
    65
 73
     2
 40
80.0
 49
75.0
 49
-5.0
  0
LTYPE
  2
LONG5
 70
    64
  3
----------  --  ----------  --  
 72
    65
 73
     4
 40
60.0
 49
37.5
 49
-7.5
 49
7.5
 49
-7.5
  0
LTYPE
  2
dashed
 70
   64
  3
-------   -------------   ------
 72
   65
 73
    2
 40
7.5
 49
6
 49
-1.5
  0
LTYPE
  2
dashed_spaced
 70
   64
  3
----        --------        ----
 72
   65
 73
    2
 40
12
 49
6
 49
-6
  0
LTYPE
  2
long_dashed_dotted
 70
   64
  3
------------- --- --------------
 72
   65
 73
    4
 40
15.25
 49
12
 49
-1.5
 49
0.25
 49
-1.5
  0
LTYPE
  2
long_dashed_double-dotted
 70
   64
  3
----------- --- --- ------------
 72
   65
 73
    6
 40
17
 49
12
 49
-1.5
 49
0.25
 49
-1.5
 49
0.25
 49
-1.5
  0
LTYPE
  2
long_dashed_triplicate-dotted
 70
   64
  3
--------- --- --- --- ----------
 72
   65
 73
    8
 40
18.75
 49
12
 49
-1.5
 49
0.25
 49
-1.5
 49
0.25
 49
-1.5
 49
0.25
 49
-1.5
  0
LTYPE
  2
dotted
 70
   64
  3
   -       -       -       -    
 72
   65
 73
    2
 40
1.75
 49
0.25
 49
-1.5
  0
LTYPE
  2
chain
 70
   64
  3
-------------- -- --------------
 72
   65
 73
    4
 40
18.5
 49
12
 49
-1.5
 49
3.5
 49
-1.5
  0
LTYPE
  2
chain_double_dash
 70
   64
  3
------------ -- -- -------------
 72
   65
 73
    6
 40
23.5
 49
12
 49
-1.5
 49
3.5
 49
-1.5
 49
3.5
 49
-1.5
  0
LTYPE
  2
dashed_dotted
 70
   64
  3
-----------     -     ----------
 72
   65
 73
    4
 40
9.25
 49
6
 49
-1.5
 49
0.25
 49
-1.5
  0
LTYPE
  2
double-dashed_dotted
 70
   64
  3
------   -----------   -   -----
 72
   65
 73
    6
 40
16.75
 49
6
 49
-1.5
 49
6
 49
-1.5
 49
0.25
 49
-1.5
  0
LTYPE
  2
dashed_double-dotted
 70
   64
  3
---------    -    -    ---------
 72
   65
 73
    6
 40
11
 49
6
 49
-1.5
 49
0.25
 49
-1.5
 49
0.25
 49
-1.5
  0
LTYPE
  2
double-dashed_double-dotted
 70
   64
  3
-----   ---------   -   -   ----
 72
   65
 73
    8
 40
18.5
 49
6
 49
-1.5
 49
6
 49
-1.5
 49
0.25
 49
-1.5
 49
0.25
 49
-1.5
  0
LTYPE
  2
dashed_triplicate-dotted
 70
   64
  3
-------    -    -    -    ------
 72
   65
 73
    8
 40
12.75
 49
6
 49
-1.5
 49
0.25
 49
-1.5
 49
0.25
 49
-1.5
 49
0.25
 49
-1.5
  0
LTYPE
  2
double-dashed_triplicate-dotted
 70
   64
  3
-----  ---------  -  -  -  -----
 72
   65
 73
   10
 40
20.25
 49
6
 49
-1.5
 49
6
 49
-1.5
 49
0.25
 49
-1.5
 49
0.25
 49
-1.5
 49
0.25
 49
-1.5
  0
LTYPE
  2
undefined
 70
   64
  3
--------------------------------
 72
   65
 73
    0
 40
0
  0
LTYPE
  2
_
 70
   64
  3
                                
 72
   65
 73
    0
 40
0
  0
LTYPE
  2
__18
 70
   64
  3
                                
 72
   65
 73
    0
 40
0
  0
LTYPE
  2
__19
 70
   64
  3
                                
 72
   65
 73
    0
 40
0
  0
LTYPE
  2
__20
 70
   64
  3
                                
 72
   65
 73
    0
 40
0
  0
LTYPE
  2
__21
 70
   64
  3
                                
 72
   65
 73
    0
 40
0
  0
LTYPE
  2
__22
 70
   64
  3
                                
 72
   65
 73
    0
 40
0
  0
LTYPE
  2
__23
 70
   64
  3
                                
 72
   65
 73
    0
 40
0
  0
LTYPE
  2
__24
 70
   64
  3
                                
 72
   65
 73
    0
 40
0
  0
LTYPE
  2
__25
 70
   64
  3
                                
 72
   65
 73
    0
 40
0
  0
LTYPE
  2
__26
 70
   64
  3
                                
 72
   65
 73
    0
 40
0
  0
LTYPE
  2
__27
 70
   64
  3
                                
 72
   65
 73
    0
 40
0
  0
LTYPE
  2
__28
 70
   64
  3
                                
 72
   65
 73
    0
 40
0
  0
LTYPE
  2
__29
 70
   64
  3
                                
 72
   65
 73
    0
 40
0
  0
LTYPE
  2
__30
 70
   64
  3
                                
 72
   65
 73
    0
 40
0
  0
LTYPE
  2
__31
 70
   64
  3
                                
 72
   65
 73
    0
 40
0
  0
LTYPE
  2
__32
 70
   64
  3
                                
 72
   65
 73
    0
 40
0
  0
ENDTAB
  0
TABLE
  2
STYLE
  5
3
100
AcDbSymbolTable
 70
     1
  0
STYLE
  5
10
100
AcDbSymbolTableRecord
100
AcDbTextStyleTableRecord
  2
STANDARD
 70
     0
 40
0.0
 41
1.0
 50
0.0
 71
     0
 42
0.2
  3
txt
  4
bigfont.shx
  0
STYLE
  5
26
100
AcDbSymbolTableRecord
100
AcDbTextStyleTableRecord
  2
TATEGAKI
 70
    68
 40
0.0
 41
1.0
 50
0.0
 71
     0
 42
1.0
  3
txt
  4
bigfont.shx
  0
ENDTAB
  0
TABLE
  2
LAYER
 70
    2
  0
LAYER
  2
_0-0_
 70
   64
 62
    7
  6
CONTINUOUS
  0
LAYER
  2
ADD_LINE
 70
   64
 62
    7
  6
CONTINUOUS
  0
ENDTAB
  0
ENDSEC
  0
SECTION
  2
BLOCKS
  0
BLOCK
  2
-000-1
 70
   64
 10
0
 20
0
 30
0
  0
ARC
  8
_0-0_
  6
CONTINUOUS
 62
    7
 10
-2.5182962291848838
 20
-1.1502565440099062
 40
9.5679276628765084
 50
228.701993764213
 51
276.17141412675358
  0
ARC
  8
_0-0_
  6
CONTINUOUS
 62
    7
 10
-0.6065969587796331
 20
10.925986199751648
 40
21.606776557677211
 50
267.65754673459116
 51
282.22088434966139
  0
ARC
  8
_0-0_
  6
CONTINUOUS
 62
    7
 10
3.823699462460155
 20
-6.4330298923827485
 40
3.7608617536885594
 50
272.18593578934082
 51
329.55823093681948
  0
ARC
  8
_0-0_
  6
CONTINUOUS
 62
    7
 10
-4.0034377374558261
 20
-14.464687542614662
 40
7.8008726623474933
 50
98.786077552818469
 51
128.249845794566
  0
ARC
  8
_0-0_
  6
CONTINUOUS
 62
    7
 10
-0.8194731542723303
 20
-25.429459866537478
 40
19.179868486437673
 50
80.997097009343435
 51
103.18703554961681
  0
ARC
  8
_0-0_
  6
CONTINUOUS
 62
    7
 10
-0.0273561840457858
 20
-20.982223669529979
 40
14.663721113105934
 50
64.328827969611581
 51
81.33482716002473
  0
ARC
  8
_0-0_
  6
CONTINUOUS
 62
    7
 10
6.0214304550087263
 20
-9.3019810749831819
 40
1.5658162391777484
 50
8.165919673624952
 51
78.819208808824669
  0
ARC
  8
_0-0_
  6
CONTINUOUS
 62
    7
 10
5.9937058616935985
 20
-9.5213462012761809
 40
1.6383499652183795
 50
304.91226245295161
 51
15.643182018154571
  0
ARC
  8
_0-0_
  6
CONTINUOUS
 62
    7
 10
0.8597694693944077
 20
-2.3427077720413365
 40
10.463798383644038
 50
285.73638060835788
 51
305.46799449452595
  0
ARC
  8
_0-0_
  6
CONTINUOUS
 62
    7
 10
-0.0409742641333679
 20
-0.374825989945009
 40
12.606621614973699
 50
266.16843404341603
 51
287.2512395720978
  0
ARC
  8
_0-0_
  6
CONTINUOUS
 62
    7
 10
-1.1237003319770764
 20
3.9264672247888512
 40
16.8814470232799
 50
254.15148795527216
 51
270.81562861218879
  0
ARC
  8
_0-0_
  6
CONTINUOUS
 62
    7
 10
-4.5240360930086894
 20
-5.9001464924778304
 40
6.526252888687833
 50
229.07479318566627
 51
259.31614201443949
  0
ARC
  8
_0-0_
  6
CONTINUOUS
 62
    7
 10
-7.8132333485622922
 20
-9.6049259406098741
 40
1.5734651635482011
 50
157.87065647208013
 51
231.19825368900021
  0
ARC
  8
_0-0_
  6
CONTINUOUS
 62
    7
 10
-7.5070096910051376
 20
-9.6795016590597598
 40
1.8857914627971661
 50
134.67559356520459
 51
159.276671323203
  0
ARC
  8
_0-0_
  6
CONTINUOUS
 62
    7
 10
-1.5402385048081157
 20
4.6265785418186169
 40
15.161397724335158
 50
247.18919225901743
 51
271.71873971480215
  0
ARC
  8
_0-0_
  6
CONTINUOUS
 62
    7
 10
-0.1669686020117779
 20
4.2947052349749555
 40
14.85113581987234
 50
266.45403604766943
 51
296.06609736852283
  0
ARC
  8
_0-0_
  6
CONTINUOUS
 62
    7
 10
-4.0410090642556895
 20
-2.6621280710887305
 40
6.7263581077432484
 50
231.15090621581643
 51
267.62970790911947
  0
ARC
  8
_0-0_
  6
CONTINUOUS
 62
    7
 10
-0.323019355707018
 20
8.4345280193137597
 40
18.259905405077909
 50
257.35851767467705
 51
281.09998483453899
  0
ARC
  8
_0-0_
  6
CONTINUOUS
 62
    7
 10
1.481927569730189
 20
1.5023413885920007
 40
11.118484606865069
 50
278.84959696488562
 51
299.54809760281819
  0
LINE
  8
_0-0_
  6
CONTINUOUS
 62
    7
 10
-7.4181527714519433
 20
-8.4732544570225983
 11
-7.3170998041170918
 21
-7.3953561387841944
  0
LINE
  8
_0-0_
  6
CONTINUOUS
 62
    7
 10
-4.2518264616266208
 20
-6.5532480776604345
 11
-4.3528794289614723
 21
-9.3827311630362544
  0
LINE
  8
_0-0_
  6
CONTINUOUS
 62
    7
 10
-3.3423497556129576
 20
-9.5511527752610093
 11
-3.3423497556129576
 21
-6.4521951103255901
  0
LINE
  8
_0-0_
  6
CONTINUOUS
 62
    7
 10
-2.1297141475947541
 20
-6.2837734981008353
 11
-2.1633984700396951
 21
-9.6185214201509126
  0
LINE
  8
_0-0_
  6
CONTINUOUS
 62
    7
 10
-1.0181315069113879
 20
-6.2500891756558872
 11
-1.0855001518012983
 21
-9.7869430323756603
  0
LINE
  8
_0-0_
  6
CONTINUOUS
 62
    7
 10
2.4176693824735338
 20
-9.5848370977059574
 11
2.4176693824735338
 21
-6.5532480776604345
  0
LINE
  8
_0-0_
  6
CONTINUOUS
 62
    7
 10
3.1250401538174799
 20
-6.7216696898851893
 11
3.1587244762624209
 21
-9.3827311630362544
  0
LINE
  8
_0-0_
  6
CONTINUOUS
 62
    7
 10
4.7755719536200445
 20
-8.8774663263620042
 11
4.5734660189503415
 21
-7.1595658816695433
  0
ARC
  8
_0-0_
  6
CONTINUOUS
 62
    7
 10
-3.4510404472230931
 20
-20.648178630032383
 40
14.117660058134724
 50
93.251693115846578
 51
118.4670394173648
  0
ARC
  8
_0-0_
  6
CONTINUOUS
 62
    7
 10
-9.1240755483539289
 20
-10.287572832855233
 40
2.3061843458642186
 50
117.25698692857678
 51
176.76596984415428
  0
ARC
  8
_0-0_
  6
CONTINUOUS
 62
    7
 10
-8.5682317806438562
 20
-9.697920180199759
 40
2.8950616475943312
 50
189.13353462428853
 51
251.79092035989817
  0
ARC
  8
_0-0_
  6
CONTINUOUS
 62
    7
 10
-3.2497178688892063
 20
-0.7595446171286255
 40
13.241904927087182
 50
241.96823652769032
 51
264.05011688833713
  0
ARC
  8
_0-0_
  6
CONTINUOUS
 62
    7
 10
-0.9105205298970133
 20
7.8988167079688196
 40
22.142266231933011
 50
260.34962014170287
 51
277.94018506576379
  0
ARC
  8
_0-0_
  6
CONTINUOUS
 62
    7
 10
0.8815894249338782
 20
3.6403015806306342
 40
17.716803163144636
 50
274.09967327601379
 51
292.30250107539729
  0
ARC
  8
_0-0_
  6
CONTINUOUS
 62
    7
 10
4.5304249402706773
 20
-6.7834242810342005
 40
6.7132153641836156
 50
297.25790988609299
 51
320.72407819891737
  0
ARC
  8
_0-0_
  6
CONTINUOUS
 62
    7
 10
8.0713989148617884
 20
-10.082034680685425
 40
1.9095560650567465
 50
330.12291046847054
 51
40.424881446233059
  0
ARC
  8
_0-0_
  6
CONTINUOUS
 62
    7
 10
4.952800934557132
 20
-13.996401731311025
 40
6.8887630229858265
 50
48.41523428015654
 51
72.429088357320751
  0
ARC
  8
_0-0_
  6
CONTINUOUS
 62
    7
 10
1.2555602581227419
 20
-21.855627469583865
 40
15.54022326677075
 50
68.177275770433994
 51
90.931480116515829
  0
ARC
  8
_0-0_
  6
CONTINUOUS
 62
    7
 10
-2.4758441712229455
 20
-25.444329044369091
 40
20.980003314332539
 50
89.606671308063753
 51
109.57959721739698
  0
ARC
  8
_0-0_
  6
CONTINUOUS
 62
    7
 10
-8.1816690882806427
 20
-10.646794708489359
 40
5.1429292417769989
 50
104.92877560977678
 51
148.6092741878426
  0
ARC
  8
_0-0_
  6
CONTINUOUS
 62
    7
 10
-11.350963622438314
 20
-9.2047804332777261
 40
1.7378794798974768
 50
134.629321717294
 51
218.73511594603681
  0
ARC
  8
_0-0_
  6
CONTINUOUS
 62
    7
 10
-7.2171077603238558
 20
-6.3740404094297745
 40
6.7443655609995776
 50
215.51768359335696
 51
260.23231952586787
  0
ARC
  8
_0-0_
  6
CONTINUOUS
 62
    7
 10
4.5496631306597521
 20
-4.7509269556876461
 40
8.6516275820082136
 50
282.75497661425209
 51
319.29457214287157
  0
ARC
  8
_0-0_
  6
CONTINUOUS
 62
    7
 10
9.7776938366951356
 20
-9.0795722610317
 40
1.8697833334334295
 50
315.36493633573116
 51
29.104731627418168
  0
ARC
  8
_0-0_
  6
CONTINUOUS
 62
    7
 10
7.0776294638707498
 20
-10.122899827287341
 40
4.7534059743680306
 50
24.256488936172502
 51
59.010589736967681
  0
ARC
  8
_0-0_
  6
CONTINUOUS
 62
    7
 10
-6.2312036484870248
 20
-13.135760142830037
 40
8.6858474634139746
 50
96.06338831309489
 51
130.72555720162822
  0
ARC
  8
_0-0_
  6
CONTINUOUS
 62
    7
 10
-10.202677029762938
 20
-8.9163007311641564
 40
2.9083855158878307
 50
125.65944516569368
 51
179.23493168087111
  0
ARC
  8
_0-0_
  6
CONTINUOUS
 62
    7
 10
-1.1729707310534963
 20
-26.89966542545703
 40
22.464755000241155
 50
76.331422061345265
 51
92.956927852944432
  0
ARC
  8
_0-0_
  6
CONTINUOUS
 62
    7
 10
2.034646038543471
 20
-19.234308887136336
 40
14.318145601207704
 50
59.557493011985812
 51
81.562437331661712
  0
ARC
  8
_0-0_
  6
CONTINUOUS
 62
    7
 10
4.6972941815744775
 20
-13.876908774697391
 40
8.3607338778998503
 50
38.472589900916013
 51
56.685705099650932
  0
ARC
  8
_0-0_
  6
CONTINUOUS
 62
    7
 10
10.22031212975682
 20
-9.4593866071049106
 40
1.2886076142332135
 50
313.55479355938309
 51
37.475994421528426
  0
ARC
  8
_0-0_
  6
CONTINUOUS
 62
    7
 10
-1.803828473820019
 20
-51.04212132323709
 40
50.183637754347941
 50
90.525910905130658
 51
100.93745113499627
  0
ARC
  8
_0-0_
  6
CONTINUOUS
 62
    7
 10
-8.3421969129566378
 20
-22.042475961661587
 40
20.490743537932392
 50
98.37170038072415
 51
120.37146186284069
  0
ARC
  8
_0-0_
  6
CONTINUOUS
 62
    7
 10
-14.038226535899213
 20
-13.384263008894216
 40
10.154992249218587
 50
117.34186007550019
 51
143.86072921450867
  0
ARC
  8
_0-0_
  6
CONTINUOUS
 62
    7
 10
-19.04918697760931
 20
-9.1824514868123472
 40
3.6565340856750219
 50
150.74218518511128
 51
200.46040410489798
  0
ARC
  8
_0-0_
  6
CONTINUOUS
 62
    7
 10
-16.123444853318787
 20
-7.2255722929311972
 40
7.1280024003955615
 50
206.99108555475453
 51
249.36857468497379
  0
ARC
  8
_0-0_
  6
CONTINUOUS
 62
    7
 10
-6.9128745715182731
 20
7.0229459187277286
 40
23.979768191729029
 50
240.73594098058209
 51
263.30463133245524
  0
ARC
  8
_0-0_
  6
CONTINUOUS
 62
    7
 10
0.1674054371604398
 20
32.575526603362761
 40
50.346960868924462
 50
258.68746699484063
 51
279.15475494615538
  0
ARC
  8
_0-0_
  6
CONTINUOUS
 62
    7
 10
6.0668820171758568
 20
5.4887806416600284
 40
22.71718317134177
 50
275.33142714513679
 51
306.44796343868097
  0
ARC
  8
_0-0_
  6
CONTINUOUS
 62
    7
 10
16.654832764360663
 20
-9.2168474107220888
 40
4.6030426804108631
 50
309.18231584902617
 51
352.03966121833321
  0
ARC
  8
_0-0_
  6
CONTINUOUS
 62
    7
 10
17.354692871246101
 20
-9.3389774259590013
 40
3.8930869866042745
 50
352.39333896155699
 51
42.244537901472142
  0
ARC
  8
_0-0_
  6
CONTINUOUS
 62
    7
 10
12.184251540262466
 20
-14.530818443372368
 40
11.21714505669228
 50
44.121299272087768
 51
68.498565675952719
  0
ARC
  8
_0-0_
  6
CONTINUOUS
 62
    7
 10
6.9022573048050333
 20
-21.707066290701036
 40
19.961084098707698
 50
61.927833218477829
 51
79.610822030199529
  0
ARC
  8
_0-0_
  6
CONTINUOUS
 62
    7
 10
2.1313526416914925
 20
-33.027594413825298
 40
32.066160590628542
 50
74.868212390569582
 51
90.210655357093714
  0
ARC
  8
_0-0_
  6
CONTINUOUS
 62
    7
 10
-0.6847332699846333
 20
-24.585461101058605
 40
23.777398057176711
 50
83.484204230294495
 51
93.809411862146149
  0
ARC
  8
_0-0_
  6
CONTINUOUS
 62
    7
 10
-7.9658891451230147
 20
-19.660232892787107
 40
18.283969886792306
 50
111.47742108312016
 51
131.08788628015927
  0
ARC
  8
_0-0_
  6
CONTINUOUS
 62
    7
 10
-18.307868324172333
 20
-7.8156358171059424
 40
2.5597766478497861
 50
130.85697066989965
 51
184.92413264259673
  0
ARC
  8
_0-0_
  6
CONTINUOUS
 62
    7
 10
-17.328763924241599
 20
-7.9640820210994576
 40
3.5301531345369117
 50
181.1569202059155
 51
240.39115199658079
  0
ARC
  8
_0-0_
  6
CONTINUOUS
 62
    7
 10
15.843277899818048
 20
-8.0305462191747452
 40
3.8149086631548506
 50
304.67229921273548
 51
347.17331022700313
  0
ARC
  8
_0-0_
  6
CONTINUOUS
 62
    7
 10
17.372838981988991
 20
-8.18580460447631
 40
2.2967706153472962
 50
342.47359331911582
 51
53.015749930998368
  0
ARC
  8
_0-0_
  6
CONTINUOUS
 62
    7
 10
9.5919502527642067
 20
-14.782640334395033
 40
12.451653899652106
 50
42.620462675795693
 51
71.872203043564767
  0
ARC
  8
_0-0_
  6
CONTINUOUS
 62
    7
 10
-7.3566463152747588
 20
10.37042548310707
 40
27.204414624840002
 50
239.99903508321222
 51
259.23672289452833
  0
ARC
  8
_0-0_
  6
CONTINUOUS
 62
    7
 10
-16.815317692908948
 20
-5.9009038566364893
 40
8.383876929165103
 50
205.29973197291335
 51
240.37810905063404
  0
ARC
  8
_0-0_
  6
CONTINUOUS
 62
    7
 10
-20.345841154008653
 20
-8.0096518086355246
 40
4.3091958387193525
 50
127.68788171109045
 51
200.00425259070747
  0
ARC
  8
_0-0_
  6
CONTINUOUS
 62
    7
 10
-9.741797958248668
 20
-20.777276205523791
 40
20.903989589416224
 50
95.920929999858529
 51
129.2940661260418
  0
ARC
  8
_0-0_
  6
CONTINUOUS
 62
    7
 10
-1.5637943355002903
 20
-62.595719951152397
 40
63.458064245645453
 50
83.226417171969061
 51
99.372567546301212
  0
ARC
  8
_0-0_
  6
CONTINUOUS
 62
    7
 10
3.3061354083195056
 20
-34.085273581519616
 40
34.603607233773161
 50
64.909396465900215
 51
85.666509515431684
  0
ARC
  8
_0-0_
  6
CONTINUOUS
 62
    7
 10
12.456219252301167
 20
-14.462710870061777
 40
12.952605896356278
 50
38.965367359159629
 51
64.757676702665236
  0
ARC
  8
_0-0_
  6
CONTINUOUS
 62
    7
 10
19.069133876268239
 20
-8.5790159855594368
 40
4.1319408267677611
 50
340.54297093886379
 51
33.184412890390128
  0
ARC
  8
_0-0_
  6
CONTINUOUS
 62
    7
 10
17.772287462137967
 20
-8.1188282138190075
 40
5.5080151775551949
 50
299.3555145846085
 51
340.522916499644
  0
ARC
  8
_0-0_
  6
CONTINUOUS
 62
    7
 10
9.4671137821064235
 20
2.921130212890489
 40
19.288495047806212
 50
283.29876789188512
 51
304.78967864685069
  0
ARC
  8
_0-0_
  6
CONTINUOUS
 62
    7
 10
-15.375446381538893
 20
-8.3986760828052383
 40
10.384587061071514
 50
116.12880445613786
 51
150.29137432736985
  0
ARC
  8
_0-0_
  6
CONTINUOUS
 62
    7
 10
-4.545509250141464
 20
-30.063524010285995
 40
34.605305733602542
 50
92.972881714318049
 51
116.43045779829777
  0
ARC
  8
_0-0_
  6
CONTINUOUS
 62
    7
 10
-0.4575417146840692
 20
-42.991347024325691
 40
47.849549393949239
 50
79.726077579540714
 51
97.061916441894795
  0
ARC
  8
_0-0_
  6
CONTINUOUS
 62
    7
 10
4.4420971614150631
 20
-25.002151480759657
 40
29.319297489258403
 50
60.251036353259707
 51
82.87906600089633
  0
ARC
  8
_0-0_
  6
CONTINUOUS
 62
    7
 10
15.311465492912475
 20
-7.0029639173801286
 40
8.3142642696195956
 50
25.26575968720423
 51
63.737817087568672
  0
ARC
  8
_0-0_
  6
CONTINUOUS
 62
    7
 10
21.429261371939248
 20
-4.6003593835303818
 40
1.8101315052482108
 50
11.837668038686338
 51
39.282262304959417
  0
ARC
  8
_0-0_
  6
CONTINUOUS
 62
    7
 10
7.2570246855597418
 20
-8.8765750441083924
 40
25.814301221130197
 50
116.30967916487509
 51
134.03221018392094
  0
ARC
  8
_0-0_
  6
CONTINUOUS
 62
    7
 10
7.5882128777739979
 20
-9.6016792589288826
 40
26.567141368099545
 50
133.4587813562764
 51
152.80142335203561
  0
ARC
  8
_0-0_
  6
CONTINUOUS
 62
    7
 10
14.309358016288911
 20
-25.013379588241065
 40
42.996598798798452
 50
124.17601073438769
 51
142.8963923382145
  0
ARC
  8
_0-0_
  6
CONTINUOUS
 62
    7
 10
9.0574273919859252
 20
-0.813861254352048
 40
19.715383023173221
 50
130.11440827567156
 51
165.29105555953888
  0
ARC
  8
_0-0_
  6
CONTINUOUS
 62
    7
 10
-10.8245215672152
 20
-0.8191591976935654
 40
19.952633835942656
 50
13.847460788718159
 51
47.507099254874717
  0
ARC
  8
_0-0_
  6
CONTINUOUS
 62
    7
 10
-10.331532833849423
 20
-12.731915223277426
 40
30.216512147182993
 50
28.746920522864052
 51
58.815329006873426
  0
ARC
  8
_0-0_
  6
CONTINUOUS
 62
    7
 10
-0.7991834110196407
 20
-10.679577577167294
 40
22.408367338619449
 50
30.786507972952641
 51
56.775741556784979
  0
LINE
  8
_0-0_
  6
CONTINUOUS
 62
    7
 10
-3.8139302698422597
 20
13.960504291314251
 11
-3.9486675596220664
 21
4.8320529087327344
  0
LINE
  8
_0-0_
  6
CONTINUOUS
 62
    7
 10
-0.4118137029022932
 20
14.162610225983954
 11
-0.3444450580123827
 21
5.3036334229620365
  0
ARC
  8
_0-0_
  6
CONTINUOUS
 62
    7
 10
-65.296644318547948
 20
2.8630645233693173
 40
66.397150010773572
 50
1.7284190531688897
 51
9.6508996464095187
  0
LINE
  8
_0-0_
  6
CONTINUOUS
 62
    7
 10
0.7334532602260139
 20
13.320502164860201
 11
1.9797731906891727
 21
13.286817842415246
  0
LINE
  8
_0-0_
  6
CONTINUOUS
 62
    7
 10
-3.2076124658331651
 20
13.253133519970291
 11
-0.6812882824618924
 21
13.354186487305142
  0
LINE
  8
_0-0_
  6
CONTINUOUS
 62
    7
 10
-3.2412967882781061
 20
13.926819968869296
 11
-3.2749811107230613
 21
13.387870809750098
  0
LINE
  8
_0-0_
  6
CONTINUOUS
 62
    7
 10
-3.3086654331680165
 20
13.051027585300602
 11
-2.6686633067139525
 21
11.939444944617236
  0
LINE
  8
_0-0_
  6
CONTINUOUS
 62
    7
 10
-3.2076124658331651
 20
12.51207842618139
 11
-3.3423497556129576
 21
6.3815317412004475
  0
LINE
  8
_0-0_
  6
CONTINUOUS
 62
    7
 10
-3.1739281433882098
 20
6.2804787738655961
 11
-0.6476039600169372
 21
6.0110041943059969
  0
LINE
  8
_0-0_
  6
CONTINUOUS
 62
    7
 10
1.3060867417901676
 20
5.4383707127418432
 11
1.9124045457992764
 21
5.4720550351867985
  0
LINE
  8
_0-0_
  6
CONTINUOUS
 62
    7
 10
0.7334532602260139
 20
13.387870809750098
 11
0.8008219051159244
 21
10.89523094882378
  0
LINE
  8
_0-0_
  6
CONTINUOUS
 62
    7
 10
1.9797731906891727
 20
13.286817842415246
 11
2.0471418355790831
 21
5.0004745209574963
  0
LINE
  8
_0-0_
  6
CONTINUOUS
 62
    7
 10
2.8555655742578807
 20
13.051027585300602
 11
3.3608304109321239
 21
5.4720550351867985
  0
LINE
  8
_0-0_
  6
CONTINUOUS
 62
    7
 10
6.1903134963079651
 20
11.973129267062191
 11
6.1566291738629957
 21
10.457334757039433
  0
LINE
  8
_0-0_
  6
CONTINUOUS
 62
    7
 10
5.7187329820786488
 20
12.714184360851092
 11
5.7187329820786488
 21
10.693125014154077
  0
ARC
  8
_0-0_
  6
CONTINUOUS
 62
    7
 10
-3.6399208992103667
 20
8.1745711018854337
 40
6.1133920987047325
 50
95.110267887360749
 51
148.15105493690137
  0
ARC
  8
_0-0_
  6
CONTINUOUS
 62
    7
 10
-1.4274342058394183
 20
-8.5336444230181527
 40
22.963414679549288
 50
78.822541316779336
 51
96.895655950574735
  0
ARC
  8
_0-0_
  6
CONTINUOUS
 62
    7
 10
-1.0574298830961055
 20
-2.9658677372700168
 40
17.444239069845818
 50
66.660978935413567
 51
76.469123418742427
  0
ARC
  8
_0-0_
  6
CONTINUOUS
 62
    7
 10
-0.0051958105309353
 20
-7.8115981232839218
 40
21.977970122088863
 50
91.060098738721862
 51
98.467184642730771
  0
ARC
  8
_0-0_
  6
CONTINUOUS
 62
    7
 10
-1.2111685855388146
 20
-5.5854715828040966
 40
19.627670403906507
 50
79.145469190699103
 51
85.991714866955746
  0
ARC
  8
_0-0_
  6
CONTINUOUS
 62
    7
 10
3.1755666374849056
 20
10.507861240706845
 40
3.1234831239147902
 50
42.377598539458894
 51
94.019582487837397
  0
ARC
  8
_0-0_
  6
CONTINUOUS
 62
    7
 10
3.3709357076653532
 20
9.2709729205276403
 40
3.2896562513904648
 50
55.226184298882998
 51
77.16192866420171
  0
LINE
  8
_0-0_
  6
CONTINUOUS
 62
    7
 10
5.8534702718584413
 20
13.051027585300602
 11
6.897684267651897
 21
13.152080552635439
  0
LINE
  8
_0-0_
  6
CONTINUOUS
 62
    7
 10
6.897684267651897
 20
13.152080552635439
 11
6.9987372349867485
 21
12.107866556841984
  0
ARC
  8
_0-0_
  6
CONTINUOUS
 62
    7
 10
-3.1521706237319904
 20
33.298985477963797
 40
2.145133638483836
 50
96.288550678764111
 51
203.6448884492456
  0
ARC
  8
_0-0_
  6
CONTINUOUS
 62
    7
 10
-0.6517450906477932
 20
29.640904130655144
 40
6.4039083073037482
 50
64.713520958843091
 51
115.28647904115691
  0
ARC
  8
_0-0_
  6
CONTINUOUS
 62
    7
 10
1.1521534198425627
 20
33.383761893262204
 40
2.2493853326055055
 50
339.03453369138703
 51
65.536641602278493
  0
ARC
  8
_0-0_
  6
CONTINUOUS
 62
    7
 10
-2.0172834723576187
 20
32.765629801781174
 40
3.800290159441881
 50
100.13106231223051
 51
159.8427101776978
  0
ARC
  8
_0-0_
  6
CONTINUOUS
 62
    7
 10
-0.8141176768412634
 20
30.260429871281247
 40
6.5206205698870425
 50
57.478063178814281
 51
106.68045701790363
  0
ARC
  8
_0-0_
  6
CONTINUOUS
 62
    7
 10
-1.4052823545657844
 20
31.746252476621805
 40
5.7342885180256058
 50
24.475185118896334
 51
44.402793498710849
  0
ARC
  8
_0-0_
  6
CONTINUOUS
 62
    7
 10
-1.6079970247441651
 20
33.503889733110114
 40
5.264235160997722
 50
94.610361224997973
 51
143.97236311697054
  0
ARC
  8
_0-0_
  6
CONTINUOUS
 62
    7
 10
-0.6716310492215456
 20
32.577576499493077
 40
6.3214343937562489
 50
60.81433322859106
 51
102.41916980955024
  0
ARC
  8
_0-0_
  6
CONTINUOUS
 62
    7
 10
1.1418416287979909
 20
35.273138639669654
 40
3.0954563919954272
 50
14.326048767053809
 51
65.795520148693825
  0
ARC
  8
_0-0_
  6
CONTINUOUS
 62
    7
 10
-1.1701068248730309
 20
34.092833669881401
 40
5.9873415553474061
 50
94.665052847807715
 51
133.66820683816329
  0
ARC
  8
_0-0_
  6
CONTINUOUS
 62
    7
 10
-0.5941120579742715
 20
34.647728535180249
 40
5.5159972529824834
 50
53.440722068330558
 51
101.11056656082465
  0
ARC
  8
_0-0_
  6
CONTINUOUS
 62
    7
 10
1.4056454342262157
 20
36.857357259569241
 40
2.5664191469731201
 50
23.061519532293399
 51
59.931417178137707
  0
ARC
  8
_0-0_
  6
CONTINUOUS
 62
    7
 10
-0.7334708943257908
 20
34.944222053214176
 40
6.0461003580245798
 50
80.426567217938739
 51
131.01859298973736
  0
ARC
  8
_0-0_
  6
CONTINUOUS
 62
    7
 10
-0.5362896562938459
 20
36.419797160299794
 40
4.5585666487129028
 50
43.328221590099261
 51
79.785921161174045
  0
ARC
  8
_0-0_
  6
CONTINUOUS
 62
    7
 10
-1.0549287071863205
 20
36.514469368002509
 40
5.1843653184055389
 50
85.028288855097273
 51
133.09686517398242
  0
ARC
  8
_0-0_
  6
CONTINUOUS
 62
    7
 10
-0.9143452281898163
 20
36.362328913818175
 40
5.3259548311122513
 50
47.012784395816183
 51
86.677044096252629
  0
ARC
  8
_0-0_
  6
CONTINUOUS
 62
    7
 10
-0.6348845805270713
 20
37.218680239248499
 40
5.3609117361187453
 50
88.570471126012535
 51
138.65807301013072
  0
ARC
  8
_0-0_
  6
CONTINUOUS
 62
    7
 10
-0.8968689708428456
 20
38.138216993864475
 40
4.4573077126954326
 50
35.36516604453508
 51
84.906504962960966
  0
ARC
  8
_0-0_
  6
CONTINUOUS
 62
    7
 10
-0.9988088916763473
 20
38.361172856432361
 40
4.9502134544835545
 50
88.351497842423129
 51
134.213800154735
  0
ARC
  8
_0-0_
  6
CONTINUOUS
 62
    7
 10
-0.7086477309170646
 20
39.240886812247311
 40
4.0711328266801141
 50
32.156170720810373
 51
92.079902113447162
  0
LINE
  8
_0-0_
  6
CONTINUOUS
 62
    7
 10
-4.4507796356495248
 20
41.909202059765278
 11
-4.7015501657514136
 21
38.962648331067996
  0
LINE
  8
_0-0_
  6
CONTINUOUS
 62
    7
 10
2.7379755606048661
 20
41.4076609995615
 11
2.7797706489551786
 21
39.004443419418322
  0
LINE
  8
_0-0_
  6
CONTINUOUS
 62
    7
 10
-5.3042532093969328
 20
38.423779591007388
 11
-5.4956568444074207
 21
37.019176722778298
  0
LINE
  8
_0-0_
  6
CONTINUOUS
 62
    7
 10
-4.5134722681749793
 20
39.15072622864443
 11
-4.5761649007004621
 21
37.980463754835569
  0
LINE
  8
_0-0_
  6
CONTINUOUS
 62
    7
 10
-3.2596196176654928
 20
39.735857465548847
 11
-3.2805171618406632
 21
38.565594991739985
  0
LINE
  8
_0-0_
  6
CONTINUOUS
 62
    7
 10
-1.6296111720031519
 20
40.049320628176218
 11
-1.6505087161783223
 21
38.899955698542527
  0
LINE
  8
_0-0_
  6
CONTINUOUS
 62
    7
 10
0.021294817834331
 20
40.028423084001062
 11
0.0003972736591606
 21
38.920853242717683
  0
LINE
  8
_0-0_
  6
CONTINUOUS
 62
    7
 10
1.693098351846956
 20
39.52688202379727
 11
1.693098351846956
 21
38.565594991739985
  0
LINE
  8
_0-0_
  6
CONTINUOUS
 62
    7
 10
2.7588731047800081
 20
38.858160610192201
 11
2.7797706489551786
 21
38.064053931536193
  0
LINE
  8
_0-0_
  6
CONTINUOUS
 62
    7
 10
3.8037503135379325
 20
37.81328340143429
 11
3.8037503135379325
 21
36.831098825201863
  0
LINE
  8
_0-0_
  6
CONTINUOUS
 62
    7
 10
-5.8653597161807483
 20
36.600183443959992
 11
-5.9136077279105734
 21
34.448778789233856
  0
LINE
  8
_0-0_
  6
CONTINUOUS
 62
    7
 10
-5.9136077279105734
 20
34.448778789233856
 11
-5.5848064627888476
 21
34.075204163432801
  0
LINE
  8
_0-0_
  6
CONTINUOUS
 62
    7
 10
4.1410396547973107
 20
36.039076937176176
 11
4.0127257552894946
 21
34.281598435832592
  0
LINE
  8
_0-0_
  6
CONTINUOUS
 62
    7
 10
4.0127257552894946
 20
34.281598435832592
 11
3.8137275258400791
 21
34.121963038998146
  0
LINE
  8
_0-0_
  6
CONTINUOUS
 62
    7
 10
3.8137275258400791
 20
34.121963038998146
 11
3.8246478577130745
 21
33.278516315424994
  0
LINE
  8
_0-0_
  6
CONTINUOUS
 62
    7
 10
3.8246478577130745
 20
33.278516315424994
 11
3.6783650484869668
 21
32.839667887746685
  0
LINE
  8
_0-0_
  6
CONTINUOUS
 62
    7
 10
3.6783650484869668
 20
32.839667887746685
 11
3.3022092533341265
 21
32.54710226929447
  0
LINE
  8
_0-0_
  6
CONTINUOUS
 62
    7
 10
-5.5848064627888476
 20
34.075204163432801
 11
-5.6001445652832018
 21
33.654672110577863
  0
LINE
  8
_0-0_
  6
CONTINUOUS
 62
    7
 10
-5.6001445652832018
 20
33.654672110577863
 11
-5.5165543885825628
 21
33.048643329498276
  0
LINE
  8
_0-0_
  6
CONTINUOUS
 62
    7
 10
-5.5165543885825628
 20
33.048643329498276
 11
-5.2866814026558302
 21
32.588897357644797
  0
LINE
  8
_0-0_
  6
CONTINUOUS
 62
    7
 10
-5.2866814026558302
 20
32.588897357644797
 11
-5.1172177071356515
 21
32.438643518646671
  0
LINE
  8
_0-0_
  6
CONTINUOUS
 62
    7
 10
-5.1172177071356657
 20
32.438643518646685
 11
-5.5318307145347205
 21
14.027872936204147
  0
LINE
  8
_0-0_
  6
CONTINUOUS
 62
    7
 10
3.2526210190562495
 20
32.578920145342636
 11
4.5734660189503415
 21
13.354186487305142
  0
LINE
  8
_0-0_
  6
CONTINUOUS
 62
    7
 10
-0.0749704784527835
 20
33.83425453383488
 11
0.3292413908866223
 21
17.463673825589069
  0
LINE
  8
_0-0_
  6
CONTINUOUS
 62
    7
 10
-3.7128773025074082
 20
33.160568084935889
 11
-3.7128773025074082
 21
16.789987376690064
  0
LINE
  8
_0-0_
  6
CONTINUOUS
 62
    7
 10
2.7545126069230292
 20
31.139508738238874
 11
3.2260931211523314
 21
23.190008641230619
  0
ARC
  8
_0-0_
  6
CONTINUOUS
 62
    7
 10
-16.109343953944204
 20
-3.7663644210674576
 40
1.6056627528775995
 50
204.59205602347413
 51
338.04176878811211
  0
ARC
  8
_0-0_
  6
CONTINUOUS
 62
    7
 10
-12.806730887784326
 20
-4.9792467210870441
 40
1.4545114526430785
 50
187.94702432774622
 51
333.81725016466208
  0
ARC
  8
_0-0_
  6
CONTINUOUS
 62
    7
 10
-17.634440632043294
 20
-5.3040118588421521
 40
1.4431534046072891
 50
199.70132510795113
 51
332.963098780986
  0
ARC
  8
_0-0_
  6
CONTINUOUS
 62
    7
 10
-18.993115802694376
 20
-6.9430851087589929
 40
1.4431534046072891
 50
199.70132510795113
 51
332.963098780986
  0
ARC
  8
_0-0_
  6
CONTINUOUS
 62
    7
 10
-18.891419185886065
 20
-9.1804106785420601
 40
1.4431534046072891
 50
199.70132510795113
 51
332.963098780986
  0
ARC
  8
_0-0_
  6
CONTINUOUS
 62
    7
 10
-17.332071061491803
 20
-10.366871207972473
 40
1.4431534046072891
 50
199.70132510795113
 51
332.963098780986
  0
ARC
  8
_0-0_
  6
CONTINUOUS
 62
    7
 10
-15.704925192558676
 20
-12.027915949175046
 40
1.4431534046072891
 50
199.70132510795113
 51
332.963098780986
  0
ARC
  8
_0-0_
  6
CONTINUOUS
 62
    7
 10
-13.637093984122799
 20
-11.078747525630718
 40
1.4431534046072891
 50
199.70132510795113
 51
332.963098780986
  0
ARC
  8
_0-0_
  6
CONTINUOUS
 62
    7
 10
-15.196442108517061
 20
-9.3838039121587045
 40
1.4431534046072891
 50
199.70132510795113
 51
332.963098780986
  0
ARC
  8
_0-0_
  6
CONTINUOUS
 62
    7
 10
-15.501531958942024
 20
-7.9261524045727683
 40
1.4431534046072891
 50
199.70132510795113
 51
332.963098780986
  0
ARC
  8
_0-0_
  6
CONTINUOUS
 62
    7
 10
-14.857453385822666
 20
-6.163411046561869
 40
1.4431534046072891
 50
199.70132510795113
 51
332.963098780986
  0
ARC
  8
_0-0_
  6
CONTINUOUS
 62
    7
 10
-11.738757137034142
 20
-12.570297905486093
 40
1.4431534046072891
 50
199.70132510795113
 51
332.963098780986
  0
ARC
  8
_0-0_
  6
CONTINUOUS
 62
    7
 10
-11.3658695420703
 20
-13.892353923994271
 40
1.4431534046072891
 50
199.70132510795113
 51
332.963098780986
  0
ARC
  8
_0-0_
  6
CONTINUOUS
 62
    7
 10
-7.8742856983179479
 20
-14.502533624844197
 40
1.4431534046072891
 50
199.70132510795113
 51
332.963098780986
  0
ARC
  8
_0-0_
  6
CONTINUOUS
 62
    7
 10
-8.6878586327845113
 20
-13.078780989527701
 40
1.4431534046072891
 50
199.70132510795113
 51
332.963098780986
  0
ARC
  8
_0-0_
  6
CONTINUOUS
 62
    7
 10
-5.2640725335710385
 20
-13.99405054080259
 40
1.4431534046072891
 50
199.70132510795113
 51
332.963098780986
  0
ARC
  8
_0-0_
  6
CONTINUOUS
 62
    7
 10
-4.0098142596017396
 20
-15.112713325694124
 40
1.4431534046072891
 50
199.70132510795113
 51
332.963098780986
  0
ARC
  8
_0-0_
  6
CONTINUOUS
 62
    7
 10
0.3970391354255014
 20
-15.282207687041321
 40
1.4431534046072891
 50
199.70132510795113
 51
332.963098780986
  0
ARC
  8
_0-0_
  6
CONTINUOUS
 62
    7
 10
2.2614771102447264
 20
-13.96015166853315
 40
1.4431534046072891
 50
199.70132510795113
 51
332.963098780986
  0
ARC
  8
_0-0_
  6
CONTINUOUS
 62
    7
 10
5.1428812531471522
 20
-14.8415223475386
 40
1.4431534046072891
 50
199.70132510795113
 51
332.963098780986
  0
ARC
  8
_0-0_
  6
CONTINUOUS
 62
    7
 10
5.8547575708053898
 20
-13.519466329030422
 40
1.4431534046072891
 50
199.70132510795113
 51
332.963098780986
  0
ARC
  8
_0-0_
  6
CONTINUOUS
 62
    7
 10
9.4819369036355283
 20
-12.468601288677775
 40
1.4431534046072891
 50
199.70132510795113
 51
332.963098780986
  0
ARC
  8
_0-0_
  6
CONTINUOUS
 62
    7
 10
13.007419619657327
 20
-12.705893394563859
 40
1.4431534046072891
 50
199.70132510795113
 51
332.963098780986
  0
ARC
  8
_0-0_
  6
CONTINUOUS
 62
    7
 10
12.092150068382438
 20
-11.282140759247362
 40
1.4431534046072891
 50
199.70132510795113
 51
332.963098780986
  0
ARC
  8
_0-0_
  6
CONTINUOUS
 62
    7
 10
16.058318123906957
 20
-10.773657675205754
 40
1.4431534046072891
 50
199.70132510795113
 51
332.963098780986
  0
ARC
  8
_0-0_
  6
CONTINUOUS
 62
    7
 10
14.092183532279421
 20
-9.8922869962003048
 40
1.4431534046072891
 50
199.70132510795113
 51
332.963098780986
  0
ARC
  8
_0-0_
  6
CONTINUOUS
 62
    7
 10
14.227779021357179
 20
-8.1295456381894056
 40
1.4431534046072891
 50
199.70132510795113
 51
332.963098780986
  0
ARC
  8
_0-0_
  6
CONTINUOUS
 62
    7
 10
17.854958354187289
 20
-8.1973433827282918
 40
1.4431534046072891
 50
199.70132510795113
 51
332.963098780986
  0
ARC
  8
_0-0_
  6
CONTINUOUS
 62
    7
 10
17.244778653337363
 20
-6.4346020247173925
 40
1.4431534046072891
 50
199.70132510795113
 51
332.963098780986
  0
ARC
  8
_0-0_
  6
CONTINUOUS
 62
    7
 10
12.837925258310122
 20
-6.163411046561869
 40
1.4431534046072891
 50
199.70132510795113
 51
332.963098780986
  0
ARC
  8
_0-0_
  6
CONTINUOUS
 62
    7
 10
15.482037295326478
 20
-5.1125460062092145
 40
1.4431534046072891
 50
199.70132510795113
 51
332.963098780986
  0
ARC
  8
_0-0_
  6
CONTINUOUS
 62
    7
 10
12.566734280154606
 20
-3.4854001372760806
 40
1.4431534046072891
 50
199.70132510795113
 51
332.963098780986
  0
ARC
  8
_0-0_
  6
CONTINUOUS
 62
    7
 10
8.4310718632828809
 20
-3.8921866045093623
 40
1.4431534046072891
 50
199.70132510795113
 51
332.963098780986
  0
ARC
  8
_0-0_
  6
CONTINUOUS
 62
    7
 10
8.634465096899504
 20
-2.0277486296901444
 40
1.4431534046072891
 50
199.70132510795113
 51
332.963098780986
  0
ARC
  8
_0-0_
  6
CONTINUOUS
 62
    7
 10
4.5666004245666727
 20
-3.1125125423122313
 40
1.4431534046072891
 50
199.70132510795113
 51
332.963098780986
  0
ARC
  8
_0-0_
  6
CONTINUOUS
 62
    7
 10
0.5326346245032596
 20
-2.7735238196178287
 40
1.4431534046072891
 50
199.70132510795113
 51
332.963098780986
  0
ARC
  8
_0-0_
  6
CONTINUOUS
 62
    7
 10
-4.0098142596017396
 20
-2.9769170532344731
 40
1.4431534046072891
 50
199.70132510795113
 51
332.963098780986
  0
ARC
  8
_0-0_
  6
CONTINUOUS
 62
    7
 10
-6.6878251688875281
 20
-1.6887599069957417
 40
1.4431534046072891
 50
199.70132510795113
 51
332.963098780986
  0
ARC
  8
_0-0_
  6
CONTINUOUS
 62
    7
 10
-1.975881923435324
 20
-1.0785802061458156
 40
1.4431534046072891
 50
199.70132510795113
 51
332.963098780986
  0
ARC
  8
_0-0_
  6
CONTINUOUS
 62
    7
 10
3.6174320010223369
 20
-1.349771184301332
 40
1.4431534046072891
 50
199.70132510795113
 51
332.963098780986
  0
ARC
  8
_0-0_
  6
CONTINUOUS
 62
    7
 10
-13.467599622775609
 20
-2.9769170532344731
 40
1.4431534046072891
 50
199.70132510795113
 51
332.963098780986
  0
ARC
  8
_0-0_
  6
CONTINUOUS
 62
    7
 10
-4.432255401724845
 20
10.257351968755117
 40
25.838722649832363
 50
235.48530969095958
 51
240.4781140577752
  0
ARC
  8
_0-0_
  6
CONTINUOUS
 62
    7
 10
-4.432255401724845
 20
10.257351968755117
 40
25.838722649832363
 50
246.31965197959187
 51
251.70311438942935
  0
ARC
  8
_0-0_
  6
CONTINUOUS
 62
    7
 10
-0.6806644987129004
 20
28.122890528169492
 40
44.07319356546148
 50
261.85101179873345
 51
263.94000065377941
  0
ARC
  8
_0-0_
  6
CONTINUOUS
 62
    7
 10
-4.432255401724845
 20
10.257351968755117
 40
25.838722649832363
 50
256.73562294002113
 51
259.5730210695346
  0
ARC
  8
_0-0_
  6
CONTINUOUS
 62
    7
 10
-0.6806644987129004
 20
28.122890528169492
 40
44.07319356546148
 50
267.21086370564279
 51
269.68118710814252
  0
ARC
  8
_0-0_
  6
CONTINUOUS
 62
    7
 10
-0.6806644987129004
 20
28.122890528169492
 40
44.07319356546148
 50
273.03974737878775
 51
276.30465298414708
  0
ARC
  8
_0-0_
  6
CONTINUOUS
 62
    7
 10
8.8717572027856022
 20
-14.638129113921956
 40
1.4431534046072891
 50
199.70132510795113
 51
5.7105931374995311
  0
ARC
  8
_0-0_
  6
CONTINUOUS
 62
    7
 10
2.6385608046607132
 20
16.363103367243141
 40
32.063604320278529
 50
276.7447738124701
 51
279.02026628725844
  0
ARC
  8
_0-0_
  6
CONTINUOUS
 62
    7
 10
2.6385608046607132
 20
16.363103367243141
 40
32.063604320278529
 50
289.62792824296145
 51
289.6722779078321
  0
ARC
  8
_0-0_
  6
CONTINUOUS
 62
    7
 10
2.6385608046607132
 20
16.363103367243141
 40
32.063604320278529
 50
283.75680009130934
 51
288.20663759804097
  0
ARC
  8
_0-0_
  6
CONTINUOUS
 62
    7
 10
5.1510423087021309
 20
5.7012548813834911
 40
21.213553715415859
 50
295.39598049010965
 51
307.32479308996898
  0
ARC
  8
_0-0_
  6
CONTINUOUS
 62
    7
 10
3.7739587185656376
 20
-14.466091706126043
 40
10.19508373650843
 50
55.659802075092806
 51
81.121599219223427
  0
ARC
  8
_0-0_
  6
CONTINUOUS
 62
    7
 10
0.9853287274969204
 20
-16.875411291606007
 40
13.185342366963495
 50
80.153983327706527
 51
86.806881930652622
  0
ARC
  8
_0-0_
  6
CONTINUOUS
 62
    7
 10
-0.9041759906309323
 20
-25.962009325521905
 40
22.353430409308306
 50
89.180402684107321
 51
95.113297502057023
  0
ARC
  8
_0-0_
  6
CONTINUOUS
 62
    7
 10
-0.9041759906309323
 20
-25.962009325521905
 40
22.353430409308306
 50
100.76694247675823
 51
106.22160516034731
  0
ARC
  8
_0-0_
  6
CONTINUOUS
 62
    7
 10
11.202977267981652
 20
-5.0230329976882118
 40
1.4431534046072891
 50
199.70132510795113
 51
332.963098780986
  0
LINE
  8
_0-0_
  6
CONTINUOUS
 62
    7
 10
-24.395051283706863
 20
-3.2521844780553124
 11
-24.667360026006719
 21
-7.3925533603840847
  0
LINE
  8
_0-0_
  6
CONTINUOUS
 62
    7
 10
23.200896331007812
 20
-4.2290298289588719
 11
23.21401774608222
 21
-8.4196617794699051
  0
LINE
  8
_0-0_
  6
CONTINUOUS
 62
    7
 10
-23.91213324726715
 20
-2.891401759096226
 11
-24.093387674164632
 21
-5.1872911664645258
  0
LINE
  8
_0-0_
  6
CONTINUOUS
 62
    7
 10
-23.579833464621728
 20
-2.3778475495533229
 11
-23.76108789151921
 21
-4.6737369569216227
  0
LINE
  8
_0-0_
  6
CONTINUOUS
 62
    7
 10
-23.126697397377995
 20
-1.8642933400104127
 11
-23.307951824275477
 21
-4.1601827473787125
  0
LINE
  8
_0-0_
  6
CONTINUOUS
 62
    7
 10
-22.613143187835078
 20
-1.4715754150658356
 11
-22.79439761473256
 21
-3.7674648224341354
  0
LINE
  8
_0-0_
  6
CONTINUOUS
 62
    7
 10
-22.039170835993005
 20
-0.9882302766725104
 11
-22.220425262890487
 21
-3.2841196840408102
  0
LINE
  8
_0-0_
  6
CONTINUOUS
 62
    7
 10
-21.404780341851776
 20
-0.474676067129593
 11
-21.586034768749258
 21
-2.7705654744978929
  0
LINE
  8
_0-0_
  6
CONTINUOUS
 62
    7
 10
-20.770389847710518
 20
-0.172585355633771
 11
-20.951644274608
 21
-2.4684747630020709
  0
LINE
  8
_0-0_
  6
CONTINUOUS
 62
    7
 10
-20.196417495868445
 20
0.1597144270116501
 11
-20.377671922765927
 21
-2.1361749803566497
  0
LINE
  8
_0-0_
  6
CONTINUOUS
 62
    7
 10
-19.471399788278461
 20
0.4920142096570572
 11
-19.652654215175943
 21
-1.8038751977112426
  0
LINE
  8
_0-0_
  6
CONTINUOUS
 62
    7
 10
-18.957845578735558
 20
0.8847321346016343
 11
-19.13910000563304
 21
-1.4111572727666584
  0
LINE
  8
_0-0_
  6
CONTINUOUS
 62
    7
 10
-18.172409728846389
 20
1.2472409883966264
 11
-18.353664155743871
 21
-1.0486484189716663
  0
LINE
  8
_0-0_
  6
CONTINUOUS
 62
    7
 10
-17.205719452059739
 20
1.4889135575932926
 11
-17.386973878957221
 21
-0.8069758497750143
  0
LINE
  8
_0-0_
  6
CONTINUOUS
 62
    7
 10
-16.571328957918496
 20
1.9118405536874548
 11
-16.752583384815978
 21
-0.3840488536808521
  0
LINE
  8
_0-0_
  6
CONTINUOUS
 62
    7
 10
-15.997356606076423
 20
2.0930949805849508
 11
-16.178611032973905
 21
-0.2027944267833419
  0
LINE
  8
_0-0_
  6
CONTINUOUS
 62
    7
 10
-15.272338898486439
 20
2.3347675497816169
 11
-15.45359332538392
 21
0.03887814241331
  0
LINE
  8
_0-0_
  6
CONTINUOUS
 62
    7
 10
-14.48690304859727
 20
2.516021976679113
 11
-14.668157475494752
 21
0.2201325693108202
  0
LINE
  8
_0-0_
  6
CONTINUOUS
 62
    7
 10
-13.399376487212294
 20
2.7576945458757791
 11
-13.580630914109776
 21
0.4618051385074721
  0
LINE
  8
_0-0_
  6
CONTINUOUS
 62
    7
 10
-12.764985993071051
 20
3.1202033996707712
 11
-12.946240419968532
 21
0.8243139923024642
  0
LINE
  8
_0-0_
  6
CONTINUOUS
 62
    7
 10
-11.919132000882726
 20
3.2410396842690972
 11
-12.100386427780208
 21
0.9451502769008044
  0
LINE
  8
_0-0_
  6
CONTINUOUS
 62
    7
 10
-10.922232652946491
 20
3.4525031823161783
 11
-11.103487079843973
 21
1.1566137749478713
  0
LINE
  8
_0-0_
  6
CONTINUOUS
 62
    7
 10
-14.124394194802278
 20
2.818112688174935
 11
-14.30564862169976
 21
0.5222232808066422
  0
LINE
  8
_0-0_
  6
CONTINUOUS
 62
    7
 10
-10.257633087655663
 20
3.4525031823161783
 11
-10.438887514553144
 21
1.1566137749478713
  0
LINE
  8
_0-0_
  6
CONTINUOUS
 62
    7
 10
-9.3211518820185972
 20
3.7243848226624294
 11
-9.5024063089160791
 21
1.4284954152941367
  0
LINE
  8
_0-0_
  6
CONTINUOUS
 62
    7
 10
-8.6565523167277689
 20
3.8150120361111846
 11
-8.8378067436252508
 21
1.5191226287428918
  0
LINE
  8
_0-0_
  6
CONTINUOUS
 62
    7
 10
-8.0825799648856957
 20
3.9056392495599255
 11
-8.2638343917831776
 21
1.6097498421916185
  0
LINE
  8
_0-0_
  6
CONTINUOUS
 62
    7
 10
-7.3273531861461265
 20
4.0264755341582514
 11
-7.5086076130436084
 21
1.7305861267899587
  0
LINE
  8
_0-0_
  6
CONTINUOUS
 62
    7
 10
-6.7231717631544683
 20
4.0264755341582514
 11
-6.9044261900519501
 21
1.7305861267899587
  0
LINE
  8
_0-0_
  6
CONTINUOUS
 62
    7
 10
-6.1189903401628101
 20
4.0264755341582514
 11
-6.3002447670602919
 21
1.7305861267899587
  0
LINE
  8
_0-0_
  6
CONTINUOUS
 62
    7
 10
-5.5752270594703077
 20
4.1171027476070066
 11
-5.7564814863677896
 21
1.8212133402387138
  0
LINE
  8
_0-0_
  6
CONTINUOUS
 62
    7
 10
-4.7595821384315684
 20
4.1775208899061766
 11
-4.9408365653290502
 21
1.8816314825378839
  0
LINE
  8
_0-0_
  6
CONTINUOUS
 62
    7
 10
-4.0043553596919992
 20
4.1775208899061766
 11
-4.185609786589481
 21
1.8816314825378839
  0
LINE
  8
_0-0_
  6
CONTINUOUS
 62
    7
 10
-3.1585013675036748
 20
4.0264755341582514
 11
-3.3397557944011567
 21
1.7305861267899587
  0
LINE
  8
_0-0_
  6
CONTINUOUS
 62
    7
 10
-2.7053653002599276
 20
4.1473118187565916
 11
-2.8866197271574094
 21
1.8514224113882989
  0
LINE
  8
_0-0_
  6
CONTINUOUS
 62
    7
 10
-1.7688840946228623
 20
4.2983571745045026
 11
-1.9501385215203442
 21
2.0024677671361957
  0
LINE
  8
_0-0_
  6
CONTINUOUS
 62
    7
 10
-0.3188486794428797
 20
4.2379390322053467
 11
-0.5001031063403615
 21
1.942049624837054
  0
LINE
  8
_0-0_
  6
CONTINUOUS
 62
    7
 10
0.6478415973437705
 20
4.2077299610557617
 11
0.4665871704462887
 21
1.911840553687469
  0
LINE
  8
_0-0_
  6
CONTINUOUS
 62
    7
 10
-0.953239173584123
 20
4.3285662456540877
 11
-1.1344936004816049
 21
2.0326768382857807
  0
LINE
  8
_0-0_
  6
CONTINUOUS
 62
    7
 10
1.7655772298783461
 20
4.0264755341582514
 11
1.5843228029808643
 21
1.7305861267899587
  0
LINE
  8
_0-0_
  6
CONTINUOUS
 62
    7
 10
2.7624765778145814
 20
4.0868936764574215
 11
2.5812221509170996
 21
1.7910042690891288
  0
LINE
  8
_0-0_
  6
CONTINUOUS
 62
    7
 10
1.1613958068866879
 20
4.2379390322053467
 11
0.980141379989206
 21
1.942049624837054
  0
LINE
  8
_0-0_
  6
CONTINUOUS
 62
    7
 10
3.578121498853335
 20
4.0566846053078365
 11
3.3968670719558247
 21
1.7607951979395438
  0
LINE
  8
_0-0_
  6
CONTINUOUS
 62
    7
 10
4.4843936333408294
 20
4.0566846053078365
 11
4.3031392064433192
 21
1.7607951979395438
  0
LINE
  8
_0-0_
  6
CONTINUOUS
 62
    7
 10
5.1489931986316435
 20
3.8754301784103404
 11
4.9677387717341333
 21
1.5795407710420335
  0
LINE
  8
_0-0_
  6
CONTINUOUS
 62
    7
 10
6.2365197600165914
 20
3.8452211072607696
 11
6.0552653331191379
 21
1.5493316998924769
  0
LINE
  8
_0-0_
  6
CONTINUOUS
 62
    7
 10
7.1125828233545292
 20
3.7243848226624294
 11
6.9313283964570189
 21
1.4284954152941367
  0
LINE
  8
_0-0_
  6
CONTINUOUS
 62
    7
 10
5.7229655504737309
 20
3.9056392495599255
 11
5.5417111235762206
 21
1.6097498421916185
  0
LINE
  8
_0-0_
  6
CONTINUOUS
 62
    7
 10
7.7771823886453433
 20
3.6337576092136743
 11
7.5959279617478899
 21
1.3378682018453816
  0
LINE
  8
_0-0_
  6
CONTINUOUS
 62
    7
 10
8.3209456693378172
 20
3.5733394669145184
 11
8.1396912424403638
 21
1.2774500595462115
  0
LINE
  8
_0-0_
  6
CONTINUOUS
 62
    7
 10
9.0761724480774149
 20
3.3618759688674373
 11
8.9855452346286597
 21
1.0357774903495596
  0
LINE
  8
_0-0_
  6
CONTINUOUS
 62
    7
 10
8.6381409164084744
 20
3.3165623621430598
 11
8.5475137029597192
 21
0.990463883625182
  0
LINE
  8
_0-0_
  6
CONTINUOUS
 62
    7
 10
9.967340046990131
 20
2.9540535083480677
 11
9.8767128335413759
 21
0.6279550298301899
  0
LINE
  8
_0-0_
  6
CONTINUOUS
 62
    7
 10
9.3933676951480436
 20
2.9540535083480677
 11
9.3027404816992885
 21
0.6279550298301899
  0
LINE
  8
_0-0_
  6
CONTINUOUS
 62
    7
 10
10.329848900785123
 20
2.6519627968522315
 11
10.239221687336368
 21
0.3258643183343537
  0
LINE
  8
_0-0_
  6
CONTINUOUS
 62
    7
 10
10.7225668257297
 20
2.6217537257026606
 11
10.631939612280945
 21
0.2956552471847828
  0
LINE
  8
_0-0_
  6
CONTINUOUS
 62
    7
 10
11.115284750674277
 20
2.5009174411043205
 11
11.024657537225522
 21
0.1748189625864426
  0
LINE
  8
_0-0_
  6
CONTINUOUS
 62
    7
 10
11.870511529413847
 20
2.4404992988051504
 11
11.779884315965091
 21
0.1144008202872726
  0
LINE
  8
_0-0_
  6
CONTINUOUS
 62
    7
 10
12.202811312059254
 20
2.3800811565059945
 11
12.112184098610498
 21
0.0539826779881167
  0
LINE
  8
_0-0_
  6
CONTINUOUS
 62
    7
 10
12.686156450452586
 20
2.2290358007580835
 11
12.595529237003831
 21
-0.0970626777597942
  0
LINE
  8
_0-0_
  6
CONTINUOUS
 62
    7
 10
13.350756015743428
 20
2.0175723027109882
 11
13.260128802294673
 21
-0.3085261758068895
  0
LINE
  8
_0-0_
  6
CONTINUOUS
 62
    7
 10
13.985146509884657
 20
1.8061088046639213
 11
13.894519296435902
 21
-0.5199896738539564
  0
LINE
  8
_0-0_
  6
CONTINUOUS
 62
    7
 10
14.559118861726745
 20
1.6852725200655811
 11
14.46849164827799
 21
-0.6408259584522966
  0
LINE
  8
_0-0_
  6
CONTINUOUS
 62
    7
 10
15.012254928970492
 20
1.5644362354672552
 11
14.921627715521737
 21
-0.7616622430506225
  0
LINE
  8
_0-0_
  6
CONTINUOUS
 62
    7
 10
15.586227280812551
 20
1.3529727374201741
 11
15.495600067363796
 21
-0.9731257410977036
  0
LINE
  8
_0-0_
  6
CONTINUOUS
 62
    7
 10
16.190408703804223
 20
1.141509239373093
 11
16.099781490355468
 21
-1.1845892391447848
  0
LINE
  8
_0-0_
  6
CONTINUOUS
 62
    7
 10
16.885217340244623
 20
0.990463883625182
 11
16.794590126795867
 21
-1.3356345948926958
  0
LINE
  8
_0-0_
  6
CONTINUOUS
 62
    7
 10
17.368562478637955
 20
0.6279550298301757
 11
17.2779352651892
 21
-1.6981434486877021
  0
LINE
  8
_0-0_
  6
CONTINUOUS
 62
    7
 10
17.821698545881702
 20
0.5071187452318497
 11
17.731071332432947
 21
-1.818979733286028
  0
LINE
  8
_0-0_
  6
CONTINUOUS
 62
    7
 10
18.002952972779184
 20
0.3862824606335237
 11
17.912325759330429
 21
-1.939816017884354
  0
LINE
  8
_0-0_
  6
CONTINUOUS
 62
    7
 10
18.607134395770856
 20
0.0539826779881025
 11
18.516507182322101
 21
-2.2721158005297752
  0
LINE
  8
_0-0_
  6
CONTINUOUS
 62
    7
 10
19.120688605313745
 20
-0.0668536066102234
 11
19.03006139186499
 21
-2.3929520851281012
  0
LINE
  8
_0-0_
  6
CONTINUOUS
 62
    7
 10
19.332152103360841
 20
-0.2481080335077194
 11
19.241524889912085
 21
-2.5742065120255972
  0
LINE
  8
_0-0_
  6
CONTINUOUS
 62
    7
 10
19.845706312903758
 20
-0.4897806027043856
 11
19.755079099455003
 21
-2.8158790812222634
  0
LINE
  8
_0-0_
  6
CONTINUOUS
 62
    7
 10
19.996751668651655
 20
-0.6408259584523108
 11
19.9061244552029
 21
-2.9669244369701815
  0
LINE
  8
_0-0_
  6
CONTINUOUS
 62
    7
 10
20.419678664745817
 20
-0.9429166699481328
 11
20.329051451297062
 21
-3.2690151484660106
  0
LINE
  8
_0-0_
  6
CONTINUOUS
 62
    7
 10
20.751978447391224
 20
-1.2147983102943698
 11
20.661351233942469
 21
-3.5408967888122547
  0
LINE
  8
_0-0_
  6
CONTINUOUS
 62
    7
 10
21.205114514634971
 20
-1.516889021790206
 11
21.114487301186216
 21
-3.8429875003080838
  0
LINE
  8
_0-0_
  6
CONTINUOUS
 62
    7
 10
21.537414297280378
 20
-1.9398160178843682
 11
21.446787083831623
 21
-4.265914496402246
  0
LINE
  8
_0-0_
  6
CONTINUOUS
 62
    7
 10
22.050968506823295
 20
-2.4835792985768634
 11
21.96034129337454
 21
-4.8096777770947412
  0
LINE
  8
_0-0_
  6
CONTINUOUS
 62
    7
 10
22.504104574067043
 20
-2.9971335081197736
 11
22.413477360618288
 21
-5.3232319866376514
  0
LINE
  8
_0-0_
  6
CONTINUOUS
 62
    7
 10
22.624940858665383
 20
-3.5106877176626767
 11
22.534313645216628
 21
-5.8367861961805545
  0
LINE
  8
_0-0_
  6
CONTINUOUS
 62
    7
 10
22.987449712460375
 20
-3.994032856056009
 11
22.89682249901162
 21
-6.3201313345738868
  0
LINE
  8
_0-0_
  6
CONTINUOUS
 62
    7
 10
11.508002675618854
 20
2.2592448719076543
 11
11.417375462170099
 21
-0.0668536066102234
  0
LINE
  8
_0-0_
  6
CONTINUOUS
 62
    7
 10
-8.7409801629678014
 20
-8.913658869254995
 11
-8.8192086419991398
 21
-10.517342689397594
  0
LINE
  8
_0-0_
  6
CONTINUOUS
 62
    7
 10
-8.9169942407883269
 20
-9.0505587075598513
 11
-8.9561084803039961
 21
-10.02841469545168
  0
LINE
  8
_0-0_
  6
CONTINUOUS
 62
    7
 10
-8.506294725873758
 20
-9.3048012644117293
 11
-8.5845232049050963
 21
-10.908485084554329
  0
LINE
  8
_0-0_
  6
CONTINUOUS
 62
    7
 10
-8.1347094504748725
 20
-9.4612582224744202
 11
-8.2129379295062108
 21
-11.06494204261702
  0
LINE
  8
_0-0_
  6
CONTINUOUS
 62
    7
 10
-7.8804668936229945
 20
-9.5981580607792765
 11
-7.9586953726543328
 21
-11.201841880921876
  0
LINE
  8
_0-0_
  6
CONTINUOUS
 62
    7
 10
-7.5284387379819293
 20
-9.7546150188419674
 11
-7.6066672170132676
 21
-11.358298838984567
  0
LINE
  8
_0-0_
  6
CONTINUOUS
 62
    7
 10
-7.1177392230673604
 20
-9.9697433361781691
 11
-7.1959677020986987
 21
-11.573427156320768
  0
LINE
  8
_0-0_
  6
CONTINUOUS
 62
    7
 10
-6.7265968279106403
 20
-10.047971815209515
 11
-6.8048253069419786
 21
-11.651655635352114
  0
LINE
  8
_0-0_
  6
CONTINUOUS
 62
    7
 10
-6.1398832351755459
 20
-10.302214372061393
 11
-6.2181117142068842
 21
-11.905898192203992
  0
LINE
  8
_0-0_
  6
CONTINUOUS
 62
    7
 10
-6.3158973129960714
 20
-10.223985893030047
 11
-6.3941257920274097
 21
-11.827669713172646
  0
LINE
  8
_0-0_
  6
CONTINUOUS
 62
    7
 10
-5.9247549178393371
 20
-10.380442851092738
 11
-6.0029833968706754
 21
-11.984126671235337
  0
LINE
  8
_0-0_
  6
CONTINUOUS
 62
    7
 10
-5.5140554029247681
 20
-10.49778556963976
 11
-5.5922838819561065
 21
-12.101469389782359
  0
LINE
  8
_0-0_
  6
CONTINUOUS
 62
    7
 10
-5.0837987682523647
 20
-10.576014048671105
 11
-5.162027247283703
 21
-12.179697868813705
  0
LINE
  8
_0-0_
  6
CONTINUOUS
 62
    7
 10
-4.5361994150329394
 20
-10.693356767218127
 11
-4.6144278940642778
 21
-12.297040587360726
  0
LINE
  8
_0-0_
  6
CONTINUOUS
 62
    7
 10
-4.1254999001183705
 20
-10.810699485765142
 11
-4.2037283791497089
 21
-12.414383305907741
  0
LINE
  8
_0-0_
  6
CONTINUOUS
 62
    7
 10
-3.7930288642351542
 20
-10.830256605522983
 11
-3.8712573432664925
 21
-12.433940425665583
  0
LINE
  8
_0-0_
  6
CONTINUOUS
 62
    7
 10
-3.3432151098049161
 20
-10.947599324069998
 11
-3.4214435888362544
 21
-12.551283144212597
  0
LINE
  8
_0-0_
  6
CONTINUOUS
 62
    7
 10
-2.5413731997336129
 20
-11.025827803101343
 11
-2.6196016787649512
 21
-12.629511623243943
  0
LINE
  8
_0-0_
  6
CONTINUOUS
 62
    7
 10
-2.2284592836082311
 20
-11.045384922859185
 11
-2.3066877626395694
 21
-12.649068743001784
  0
LINE
  8
_0-0_
  6
CONTINUOUS
 62
    7
 10
-2.9716298344060164
 20
-11.045384922859185
 11
-3.0498583134373547
 21
-12.649068743001784
  0
LINE
  8
_0-0_
  6
CONTINUOUS
 62
    7
 10
-1.719974169904475
 20
-11.12361340189053
 11
-1.7982026489358134
 21
-12.72729722203313
  0
LINE
  8
_0-0_
  6
CONTINUOUS
 62
    7
 10
-1.270160415474237
 20
-11.084499162374854
 11
-1.3483888945055753
 21
-12.688182982517453
  0
LINE
  8
_0-0_
  6
CONTINUOUS
 62
    7
 10
-0.8985751400753372
 20
-11.143170521648365
 11
-0.9768036191066755
 21
-12.746854341790964
  0
LINE
  8
_0-0_
  6
CONTINUOUS
 62
    7
 10
-0.4292042658872645
 20
-11.12361340189053
 11
-0.5074327449186029
 21
-12.72729722203313
  0
LINE
  8
_0-0_
  6
CONTINUOUS
 62
    7
 10
-0.0185047509726956
 20
-11.045384922859185
 11
-0.0967332300040339
 21
-12.649068743001784
  0
LINE
  8
_0-0_
  6
CONTINUOUS
 62
    7
 10
0.5486517220045641
 20
-11.006270683343509
 11
0.4704232429732258
 21
-12.609954503486108
  0
LINE
  8
_0-0_
  6
CONTINUOUS
 62
    7
 10
1.0766939554661548
 20
-10.967156443827839
 11
0.9984654764348164
 21
-12.570840263970439
  0
LINE
  8
_0-0_
  6
CONTINUOUS
 62
    7
 10
1.565621949412062
 20
-10.967156443827839
 11
1.4873934703807237
 21
-12.570840263970439
  0
LINE
  8
_0-0_
  6
CONTINUOUS
 62
    7
 10
2.0154357038423143
 20
-10.869370845038652
 11
1.937207224810976
 21
-12.473054665181252
  0
LINE
  8
_0-0_
  6
CONTINUOUS
 62
    7
 10
2.3870209792411998
 20
-10.732471006733796
 11
2.3087925002098615
 21
-12.336154826876395
  0
LINE
  8
_0-0_
  6
CONTINUOUS
 62
    7
 10
2.8563918534292867
 20
-10.693356767218127
 11
2.7781633743979484
 21
-12.297040587360726
  0
LINE
  8
_0-0_
  6
CONTINUOUS
 62
    7
 10
3.1888628893125031
 20
-10.536899809155429
 11
3.1106344102811647
 21
-12.140583629298028
  0
LINE
  8
_0-0_
  6
CONTINUOUS
 62
    7
 10
3.4626625659222157
 20
-10.458671330124083
 11
3.3844340868908773
 21
-12.062355150266683
  0
LINE
  8
_0-0_
  6
CONTINUOUS
 62
    7
 10
3.9711476796259717
 20
-10.439114210366249
 11
3.8929192005946334
 21
-12.042798030508848
  0
LINE
  8
_0-0_
  6
CONTINUOUS
 62
    7
 10
4.5969755118767353
 20
-10.360885731334903
 11
4.5187470328453969
 21
-11.964569551477503
  0
LINE
  8
_0-0_
  6
CONTINUOUS
 62
    7
 10
5.2032462243696784
 20
-10.282657252303558
 11
5.1250177453383401
 21
-11.886341072446157
  0
LINE
  8
_0-0_
  6
CONTINUOUS
 62
    7
 10
5.8486311763782624
 20
-9.9306290966624999
 11
5.770402697346924
 21
-11.534312916805099
  0
LINE
  8
_0-0_
  6
CONTINUOUS
 62
    7
 10
5.5161601404950602
 20
-9.8719577373889891
 11
5.4379316614637219
 21
-11.475641557531588
  0
LINE
  8
_0-0_
  6
CONTINUOUS
 62
    7
 10
4.909889428002117
 20
-10.145757413998702
 11
4.8316609489707787
 21
-11.749441234141301
  0
LINE
  8
_0-0_
  6
CONTINUOUS
 62
    7
 10
4.5578612723610661
 20
-10.243543012787882
 11
4.4796327933297277
 21
-11.847226832930481
  0
LINE
  8
_0-0_
  6
CONTINUOUS
 62
    7
 10
4.166718877204346
 20
-10.360885731334903
 11
4.0884903981730076
 21
-11.964569551477503
  0
LINE
  8
_0-0_
  6
CONTINUOUS
 62
    7
 10
4.3036187155091739
 20
-10.282657252303558
 11
4.2253902364778355
 21
-11.886341072446157
  0
LINE
  8
_0-0_
  6
CONTINUOUS
 62
    7
 10
5.6921742183155857
 20
-9.7546150188419674
 11
5.6139457392842473
 21
-11.358298838984567
  0
LINE
  8
_0-0_
  6
CONTINUOUS
 62
    7
 10
6.2984449308085289
 20
-9.6568294200527873
 11
6.2202164517771905
 21
-11.260513240195387
  0
LINE
  8
_0-0_
  6
CONTINUOUS
 62
    7
 10
6.4353447691133852
 20
-9.4612582224744202
 11
6.3571162900820468
 21
-11.06494204261702
  0
LINE
  8
_0-0_
  6
CONTINUOUS
 62
    7
 10
6.5526874876603927
 20
-9.2265727853803838
 11
6.4744590086290543
 21
-10.830256605522983
  0
LINE
  8
_0-0_
  6
CONTINUOUS
 62
    7
 10
6.7873729247544361
 20
-8.9527731087706712
 11
6.7091444457230978
 21
-10.556456928913271
  0
LINE
  8
_0-0_
  6
CONTINUOUS
 62
    7
 10
7.0807297211219691
 20
-8.7180876716766278
 11
7.0025012420906307
 21
-10.321771491819227
  0
LINE
  8
_0-0_
  6
CONTINUOUS
 62
    7
 10
6.8851585235436232
 20
-8.8941017494971604
 11
6.8069300445122849
 21
-10.49778556963976
  0
LINE
  8
_0-0_
  6
CONTINUOUS
 62
    7
 10
6.1028737332301546
 20
-9.4417011027165856
 11
6.0246452541988162
 21
-11.045384922859185
  0
ENDBLK
  0
ENDSEC
  0
SECTION
  2
ENTITIES
  0
INSERT
  2
-000-1
  8
_0-0_
 10
149.34183673469386
 20
99.443877551020407
 41
1
 42
1
 50
0
  0
ENDSEC
  0
EOF
