  0
SECTION
  2
HEADER
  9
$ACADVER
  1
AC1009
  9
$INSBASE
 10
0
 20
0
 30
0
  9
$EXTMIN
 10
0
 20
0
  9
$EXTMAX
 10
297
 20
210
  9
$LIMMIN
 10
0
 20
0
  9
$LIMMAX
 10
297
 20
210
  9
$LTSCALE
 40
1
  0
ENDSEC
  0
SECTION
  2
TABLES
  0
TABLE
  2
LTYPE
 70
     9
  0
LTYPE
  2
CONTINUOUS
 70
    64
  3
実線
 72
    65
 73
     0
 40
0.0
  0
LTYPE
  2
DASHED1
 70
    64
  3
--  --  --  --  --  --  --  --  
 72
    65
 73
     2
 40
2.5
 49
1.25
 49
-1.25
  0
LTYPE
  2
DASHED2
 70
    64
  3
----    ----    ----    ----    
 72
    65
 73
     2
 40
5.0
 49
2.5
 49
-2.5
  0
LTYPE
  2
DASHED3
 70
    64
  3
------  ------  ------  ------  
 72
    65
 73
     2
 40
5.0
 49
3.75
 49
-1.25
  0
LTYPE
  2
CENTER1
 70
    64
  3
----- - ----- - ----- - ----- - 
 72
    65
 73
     4
 40
10.0
 49
6.25
 49
-1.25
 49
1.25
 49
-1.25
  0
LTYPE
  2
CENTER2
 70
    64
  3
----------  --  ----------  --  
 72
    65
 73
     4
 40
20.0
 49
12.5
 49
-2.5
 49
2.5
 49
-2.5
  0
LTYPE
  2
PHANTOM1
 70
    64
  3
--- - - --- - - --- - - --- - - 
 72
    65
 73
     6
 40
10.0
 49
3.25
 49
-1.25
 49
1.25
 49
-1.25
 49
1.25
 49
-1.25
  0
LTYPE
  2
PHANTOM2
 70
    64
  3
--------  -  -  --------  -  -  
 72
    65
 73
     6
 40
20.0
 49
10.0
 49
-2.5
 49
1.25
 49
-2.5
 49
1.25
 49
-2.5
  0
LTYPE
  2
DOT
 70
    64
  3
-   -   -   -   -   -   -   -   
 72
    65
 73
     2
 40
2.5
 49
0.625
 49
-1.875
  0
LTYPE
  2
DUMMY
 70
    64
  3
ダミー
 72
    65
 73
     0
 40
0.0
  0
LTYPE
  2
RAND1
 70
    64
  3
ランダム線1
 72
    65
 73
     4
 40
10.0
 49
1.0
 49
-2.0
 49
3.0
 49
-4.0
  0
LTYPE
  2
RAND2
 70
    64
  3
ランダム線2
 72
    65
 73
     4
 40
14.0
 49
2.0
 49
-3.0
 49
4.0
 49
-5.0
  0
LTYPE
  2
RAND3
 70
    64
  3
ランダム線3
 72
    65
 73
     4
 40
18.0
 49
3.0
 49
-4.0
 49
5.0
 49
-6.0
  0
LTYPE
  2
RAND4
 70
    64
  3
ランダム線4
 72
    65
 73
     4
 40
22.0
 49
4.0
 49
-5.0
 49
6.0
 49
-7.0
  0
LTYPE
  2
RAND5
 70
    64
  3
ランダム線5
 72
    65
 73
     4
 40
26.0
 49
5.0
 49
-6.0
 49
7.0
 49
-8.0
  0
LTYPE
  2
LONG1
 70
    64
  3
----------  --  ----------  --  
 72
    65
 73
     4
 40
40.0
 49
32.5
 49
-2.5
 49
2.5
 49
-2.5
  0
LTYPE
  2
LONG2
 70
    64
  3
--------  -  -  --------  -  -  
 72
    65
 73
     6
 40
40.0
 49
30.0
 49
-2.5
 49
1.25
 49
-2.5
 49
1.25
 49
-2.5
  0
LTYPE
  2
LONG3
 70
    64
  3
+++++++++++++++..+++++++++++++++
 72
    65
 73
     2
 40
40.0
 49
37.5
 49
-2.5
  0
LTYPE
  2
LONG4
 70
    64
  3
+++++++++++++++..+++++++++++++++
 72
    65
 73
     2
 40
80.0
 49
75.0
 49
-5.0
  0
LTYPE
  2
LONG5
 70
    64
  3
----------  --  ----------  --  
 72
    65
 73
     4
 40
60.0
 49
37.5
 49
-7.5
 49
7.5
 49
-7.5
  0
LTYPE
  2
dashed
 70
   64
  3
-------   -------------   ------
 72
   65
 73
    2
 40
7.5
 49
6
 49
-1.5
  0
LTYPE
  2
dashed_spaced
 70
   64
  3
----        --------        ----
 72
   65
 73
    2
 40
12
 49
6
 49
-6
  0
LTYPE
  2
long_dashed_dotted
 70
   64
  3
------------- --- --------------
 72
   65
 73
    4
 40
15.25
 49
12
 49
-1.5
 49
0.25
 49
-1.5
  0
LTYPE
  2
long_dashed_double-dotted
 70
   64
  3
----------- --- --- ------------
 72
   65
 73
    6
 40
17
 49
12
 49
-1.5
 49
0.25
 49
-1.5
 49
0.25
 49
-1.5
  0
LTYPE
  2
long_dashed_triplicate-dotted
 70
   64
  3
--------- --- --- --- ----------
 72
   65
 73
    8
 40
18.75
 49
12
 49
-1.5
 49
0.25
 49
-1.5
 49
0.25
 49
-1.5
 49
0.25
 49
-1.5
  0
LTYPE
  2
dotted
 70
   64
  3
   -       -       -       -    
 72
   65
 73
    2
 40
1.75
 49
0.25
 49
-1.5
  0
LTYPE
  2
chain
 70
   64
  3
-------------- -- --------------
 72
   65
 73
    4
 40
18.5
 49
12
 49
-1.5
 49
3.5
 49
-1.5
  0
LTYPE
  2
chain_double_dash
 70
   64
  3
------------ -- -- -------------
 72
   65
 73
    6
 40
23.5
 49
12
 49
-1.5
 49
3.5
 49
-1.5
 49
3.5
 49
-1.5
  0
LTYPE
  2
dashed_dotted
 70
   64
  3
-----------     -     ----------
 72
   65
 73
    4
 40
9.25
 49
6
 49
-1.5
 49
0.25
 49
-1.5
  0
LTYPE
  2
double-dashed_dotted
 70
   64
  3
------   -----------   -   -----
 72
   65
 73
    6
 40
16.75
 49
6
 49
-1.5
 49
6
 49
-1.5
 49
0.25
 49
-1.5
  0
LTYPE
  2
dashed_double-dotted
 70
   64
  3
---------    -    -    ---------
 72
   65
 73
    6
 40
11
 49
6
 49
-1.5
 49
0.25
 49
-1.5
 49
0.25
 49
-1.5
  0
LTYPE
  2
double-dashed_double-dotted
 70
   64
  3
-----   ---------   -   -   ----
 72
   65
 73
    8
 40
18.5
 49
6
 49
-1.5
 49
6
 49
-1.5
 49
0.25
 49
-1.5
 49
0.25
 49
-1.5
  0
LTYPE
  2
dashed_triplicate-dotted
 70
   64
  3
-------    -    -    -    ------
 72
   65
 73
    8
 40
12.75
 49
6
 49
-1.5
 49
0.25
 49
-1.5
 49
0.25
 49
-1.5
 49
0.25
 49
-1.5
  0
LTYPE
  2
double-dashed_triplicate-dotted
 70
   64
  3
-----  ---------  -  -  -  -----
 72
   65
 73
   10
 40
20.25
 49
6
 49
-1.5
 49
6
 49
-1.5
 49
0.25
 49
-1.5
 49
0.25
 49
-1.5
 49
0.25
 49
-1.5
  0
LTYPE
  2
undefined
 70
   64
  3
--------------------------------
 72
   65
 73
    0
 40
0
  0
LTYPE
  2
_
 70
   64
  3
                                
 72
   65
 73
    0
 40
0
  0
LTYPE
  2
__18
 70
   64
  3
                                
 72
   65
 73
    0
 40
0
  0
LTYPE
  2
__19
 70
   64
  3
                                
 72
   65
 73
    0
 40
0
  0
LTYPE
  2
__20
 70
   64
  3
                                
 72
   65
 73
    0
 40
0
  0
LTYPE
  2
__21
 70
   64
  3
                                
 72
   65
 73
    0
 40
0
  0
LTYPE
  2
__22
 70
   64
  3
                                
 72
   65
 73
    0
 40
0
  0
LTYPE
  2
__23
 70
   64
  3
                                
 72
   65
 73
    0
 40
0
  0
LTYPE
  2
__24
 70
   64
  3
                                
 72
   65
 73
    0
 40
0
  0
LTYPE
  2
__25
 70
   64
  3
                                
 72
   65
 73
    0
 40
0
  0
LTYPE
  2
__26
 70
   64
  3
                                
 72
   65
 73
    0
 40
0
  0
LTYPE
  2
__27
 70
   64
  3
                                
 72
   65
 73
    0
 40
0
  0
LTYPE
  2
__28
 70
   64
  3
                                
 72
   65
 73
    0
 40
0
  0
LTYPE
  2
__29
 70
   64
  3
                                
 72
   65
 73
    0
 40
0
  0
LTYPE
  2
__30
 70
   64
  3
                                
 72
   65
 73
    0
 40
0
  0
LTYPE
  2
__31
 70
   64
  3
                                
 72
   65
 73
    0
 40
0
  0
LTYPE
  2
__32
 70
   64
  3
                                
 72
   65
 73
    0
 40
0
  0
ENDTAB
  0
TABLE
  2
STYLE
  5
3
100
AcDbSymbolTable
 70
     1
  0
STYLE
  5
10
100
AcDbSymbolTableRecord
100
AcDbTextStyleTableRecord
  2
STANDARD
 70
     0
 40
0.0
 41
1.0
 50
0.0
 71
     0
 42
0.2
  3
txt
  4
bigfont.shx
  0
STYLE
  5
26
100
AcDbSymbolTableRecord
100
AcDbTextStyleTableRecord
  2
TATEGAKI
 70
    68
 40
0.0
 41
1.0
 50
0.0
 71
     0
 42
1.0
  3
txt
  4
bigfont.shx
  0
ENDTAB
  0
TABLE
  2
LAYER
 70
    2
  0
LAYER
  2
_0-0_
 70
   64
 62
    7
  6
CONTINUOUS
  0
LAYER
  2
ADD_LINE
 70
   64
 62
    7
  6
CONTINUOUS
  0
ENDTAB
  0
ENDSEC
  0
SECTION
  2
BLOCKS
  0
BLOCK
  2
-003-4
 70
   64
 10
0
 20
0
 30
0
  0
ARC
  8
_0-0_
  6
CONTINUOUS
 62
    7
 10
0.4924566480306111
 20
-40.802512314540202
 40
30.794570870287949
 50
74.622835996101784
 51
107.33341519239112
  0
ARC
  8
_0-0_
  6
CONTINUOUS
 62
    7
 10
7.678706643483082
 20
-12.062276546774044
 40
1.3659371697311651
 50
294.04990473808994
 51
44.179041152591374
  0
ARC
  8
_0-0_
  6
CONTINUOUS
 62
    7
 10
3.8103338501125279
 20
-8.337322273500277
 40
6.6561901495778901
 50
280.85032443742034
 51
311.66699467219428
  0
ARC
  8
_0-0_
  6
CONTINUOUS
 62
    7
 10
-0.159566989845814
 20
6.7909118824806995
 40
22.286078356049682
 50
255.54756355882012
 51
283.55369754376403
  0
ARC
  8
_0-0_
  6
CONTINUOUS
 62
    7
 10
-3.4823512231274094
 20
-7.6841349340743079
 40
7.4502822266123898
 50
227.08504068942258
 51
252.50848380069192
  0
ARC
  8
_0-0_
  6
CONTINUOUS
 62
    7
 10
-6.9640622718502527
 20
-12.152358569782692
 40
1.8731013261343175
 50
156.53160924772564
 51
211.83822300251148
  0
ARC
  8
_0-0_
  6
CONTINUOUS
 62
    7
 10
-7.3586525717835798
 20
-17.64490016676821
 40
6.3773509384308094
 50
101.97834376666006
 51
138.70815400181885
  0
ARC
  8
_0-0_
  6
CONTINUOUS
 62
    7
 10
-9.6302781377698921
 20
-14.673068904606282
 40
2.8070799343556847
 50
153.86352131268285
 51
251.0219854179058
  0
ARC
  8
_0-0_
  6
CONTINUOUS
 62
    7
 10
1.4715731166933779
 20
11.501770127936766
 40
31.232744064430189
 50
247.3758925753886
 51
272.71062638413036
  0
ARC
  8
_0-0_
  6
CONTINUOUS
 62
    7
 10
2.0181554945656615
 20
-0.5157100371507965
 40
19.202874202419419
 50
272.77733126493882
 51
297.83494668324084
  0
ARC
  8
_0-0_
  6
CONTINUOUS
 62
    7
 10
7.3360665121165596
 20
-12.110937534189034
 40
6.5052128551171897
 50
304.11421113787156
 51
332.36518945433244
  0
ARC
  8
_0-0_
  6
CONTINUOUS
 62
    7
 10
11.082857932539355
 20
-14.428589364813334
 40
2.1342701505042259
 50
340.86254957583492
 51
49.647687830280482
  0
ARC
  8
_0-0_
  6
CONTINUOUS
 62
    7
 10
7.5767923771102517
 20
-18.671909854593437
 40
7.6385110291104894
 50
50.214738328425803
 51
81.860283722418643
  0
ARC
  8
_0-0_
  6
CONTINUOUS
 62
    7
 10
-8.931983580473684
 20
-12.911274328578969
 40
1.9642541084807559
 50
161.70212215843239
 51
235.81517853725151
  0
ARC
  8
_0-0_
  6
CONTINUOUS
 62
    7
 10
-3.4717210066943096
 20
-5.6530829269464391
 40
11.045088788667641
 50
233.53847570679187
 51
262.69685294363359
  0
ARC
  8
_0-0_
  6
CONTINUOUS
 62
    7
 10
-0.3568504156098413
 20
2.5191198348125283
 40
19.654236440023858
 50
256.7076076425671
 51
279.55703467856449
  0
ARC
  8
_0-0_
  6
CONTINUOUS
 62
    7
 10
0.563465310400943
 20
5.0915808181068769
 40
22.078570889999643
 50
276.09140019027302
 51
291.98108674558
  0
ARC
  8
_0-0_
  6
CONTINUOUS
 62
    7
 10
5.6720421303172088
 20
-7.9407759111307854
 40
8.0826527443621305
 50
292.97920539982181
 51
324.51272911234497
  0
ARC
  8
_0-0_
  6
CONTINUOUS
 62
    7
 10
-1.1346681917786157
 20
-49.52866118553591
 40
45.481531544777447
 50
89.86437747653072
 51
109.867236409638
  0
ARC
  8
_0-0_
  6
CONTINUOUS
 62
    7
 10
-12.388395386732299
 20
-24.817894892109805
 40
18.546299655521302
 50
103.09763891563972
 51
126.58713929527059
  0
ARC
  8
_0-0_
  6
CONTINUOUS
 62
    7
 10
-18.401984494659416
 20
-15.626965843228504
 40
7.6098390770560354
 50
131.48393541322977
 51
164.26606770599543
  0
ARC
  8
_0-0_
  6
CONTINUOUS
 62
    7
 10
-21.937974496635832
 20
-14.410784585596232
 40
3.8823247165278341
 50
167.39274167197357
 51
228.70290046556855
  0
ARC
  8
_0-0_
  6
CONTINUOUS
 62
    7
 10
-11.565383399255182
 20
-4.3678496314457647
 40
18.310185181590633
 50
225.05516550653681
 51
260.8518005276303
  0
ARC
  8
_0-0_
  6
CONTINUOUS
 62
    7
 10
-1.1569552395329197
 20
22.176036526256127
 40
46.56671826245941
 50
253.37949444556216
 51
270.05580672037513
  0
ARC
  8
_0-0_
  6
CONTINUOUS
 62
    7
 10
0.0350627537803234
 20
33.502905218845825
 40
57.904919355095139
 50
268.86532681438564
 51
281.45441667953338
  0
ARC
  8
_0-0_
  6
CONTINUOUS
 62
    7
 10
8.0080912128946977
 20
0.995375717326155
 40
24.499192590834546
 50
278.27541767143026
 51
301.81508117941183
  0
ARC
  8
_0-0_
  6
CONTINUOUS
 62
    7
 10
9.5105890425777488
 20
-1.1860139112247339
 40
21.853829771931682
 50
301.48271814349357
 51
319.48930494050359
  0
ARC
  8
_0-0_
  6
CONTINUOUS
 62
    7
 10
22.424361452144524
 20
-14.353172653558957
 40
3.8416979692184317
 50
344.46562380079757
 51
30.187189519541352
  0
ARC
  8
_0-0_
  6
CONTINUOUS
 62
    7
 10
18.780668093630254
 20
-15.727443505941096
 40
7.7092462806000057
 50
25.393521636852917
 51
69.891568951276682
  0
ARC
  8
_0-0_
  6
CONTINUOUS
 62
    7
 10
12.388145111524437
 20
-21.634790932009253
 40
15.956493968833581
 50
55.47782934216724
 51
80.262297194308601
  0
ARC
  8
_0-0_
  6
CONTINUOUS
 62
    7
 10
6.4325892688148656
 20
-30.100346445172434
 40
25.693560675501434
 50
70.316040723179185
 51
87.676877573321775
  0
ARC
  8
_0-0_
  6
CONTINUOUS
 62
    7
 10
0.1783675263758652
 20
-72.246293808423076
 40
68.209688100644229
 50
83.859895413537757
 51
91.012564163532318
  0
ARC
  8
_0-0_
  6
CONTINUOUS
 62
    7
 10
0.6678978050233581
 20
-65.287284945289656
 40
64.551491148053785
 50
91.129070171414327
 51
103.99378668391958
  0
ARC
  8
_0-0_
  6
CONTINUOUS
 62
    7
 10
-10.595481625855626
 20
-23.438900832994207
 40
21.236844823799753
 50
101.80936140750332
 51
121.42019647806906
  0
ARC
  8
_0-0_
  6
CONTINUOUS
 62
    7
 10
-17.809585923884782
 20
-14.042462335546233
 40
9.5407220199708878
 50
113.84445474738587
 51
142.17856579264708
  0
ARC
  8
_0-0_
  6
CONTINUOUS
 62
    7
 10
-22.848780104742048
 20
-10.581676391846301
 40
3.4563820774569409
 50
136.26201602975846
 51
187.38194637340527
  0
ARC
  8
_0-0_
  6
CONTINUOUS
 62
    7
 10
-22.99873147519088
 20
-11.131498083489419
 40
3.2794881205641691
 50
178.1523897340029
 51
200.77225468204793
  0
ARC
  8
_0-0_
  6
CONTINUOUS
 62
    7
 10
-17.886725342161412
 20
-12.279518114062725
 40
8.1783332874341816
 50
138.29640550725475
 51
180.10553767506235
  0
ARC
  8
_0-0_
  6
CONTINUOUS
 62
    7
 10
1.8641744025289029
 20
-51.542868460175676
 40
50.854475586396838
 50
79.426333904779113
 51
92.781970069045897
  0
ARC
  8
_0-0_
  6
CONTINUOUS
 62
    7
 10
4.254875840950433
 20
-45.085971996415125
 40
44.083929357605669
 50
68.730070279455461
 51
80.941007921067651
  0
ARC
  8
_0-0_
  6
CONTINUOUS
 62
    7
 10
14.877336882739314
 20
-16.902813246757177
 40
13.970909404862565
 50
43.159959469407013
 51
67.397480138857659
  0
ARC
  8
_0-0_
  6
CONTINUOUS
 62
    7
 10
22.308370206094963
 20
-10.454794463005598
 40
4.1570484853530214
 50
358.54251898269956
 51
48.399467253621616
  0
ARC
  8
_0-0_
  6
CONTINUOUS
 62
    7
 10
13.58153000946669
 20
-10.801202268729398
 40
12.884791715220242
 50
353.34431476278229
 51
1.0702805057917042
  0
ARC
  8
_0-0_
  6
CONTINUOUS
 62
    7
 10
18.603613898810153
 20
-11.947523037601982
 40
7.7836132061989431
 50
357.44442164837056
 51
48.952759378925997
  0
LINE
  8
_0-0_
  6
CONTINUOUS
 62
    7
 10
-26.065044755506875
 20
-12.294582431195607
 11
-25.811280897825498
 21
-14.832221008009412
  0
LINE
  8
_0-0_
  6
CONTINUOUS
 62
    7
 10
26.379485831978371
 20
-12.294582431195607
 11
26.252603903137668
 21
-15.085984865690804
  0
ARC
  8
_0-0_
  6
CONTINUOUS
 62
    7
 10
-18.387875792226396
 20
-8.7729786976105686
 40
10.558419218739186
 50
200.70544165429314
 51
234.90761823511573
  0
ARC
  8
_0-0_
  6
CONTINUOUS
 62
    7
 10
-21.474870565468109
 20
-12.819551620160311
 40
6.7966949245338508
 50
138.05646230056209
 51
177.35627938004984
  0
ARC
  8
_0-0_
  6
CONTINUOUS
 62
    7
 10
-11.154765530098274
 20
-25.462423282153281
 40
23.059857788173463
 50
103.41983892900375
 51
131.817897218529
  0
ARC
  8
_0-0_
  6
CONTINUOUS
 62
    7
 10
17.413096150828125
 20
-15.655752770121708
 40
12.07266755250126
 50
30.872647521276804
 51
76.424556561616612
  0
ARC
  8
_0-0_
  6
CONTINUOUS
 62
    7
 10
23.440054480502027
 20
-11.610829814665252
 40
4.8389702114007376
 50
339.9812396062178
 51
26.378420633510963
  0
ARC
  8
_0-0_
  6
CONTINUOUS
 62
    7
 10
16.873053119035859
 20
-7.5722250129734618
 40
12.487856847947453
 50
302.99039357023571
 51
332.86732282915045
  0
ARC
  8
_0-0_
  6
CONTINUOUS
 62
    7
 10
13.713119903512819
 20
1.0830294649411485
 40
21.5641862054939
 50
296.74934837145048
 51
313.42514873510163
  0
ARC
  8
_0-0_
  6
CONTINUOUS
 62
    7
 10
23.766436297457687
 20
-10.18347461517034
 40
6.4860754902207862
 50
317.34340434460353
 51
351.78416289456214
  0
ARC
  8
_0-0_
  6
CONTINUOUS
 62
    7
 10
26.416540861829503
 20
-10.328830305802157
 40
3.8495678302617597
 50
348.28666453976234
 51
46.957929917574603
  0
ARC
  8
_0-0_
  6
CONTINUOUS
 62
    7
 10
23.579069927128273
 20
-10.440580913600016
 40
6.19858283484281
 50
28.158817709096702
 51
68.290227503942845
  0
ARC
  8
_0-0_
  6
CONTINUOUS
 62
    7
 10
10.744591814414179
 20
-27.27159348617009
 40
27.187166152643208
 50
56.191719311072177
 51
77.724361754491738
  0
ARC
  8
_0-0_
  6
CONTINUOUS
 62
    7
 10
1.5241274058479917
 20
-64.35309700686696
 40
65.390936871101289
 50
76.738087207817912
 51
94.240325858832151
  0
ARC
  8
_0-0_
  6
CONTINUOUS
 62
    7
 10
-1.0904517620312788
 20
-56.978168371258
 40
57.879619455352561
 50
92.198575429236016
 51
110.42128951880423
  0
ARC
  8
_0-0_
  6
CONTINUOUS
 62
    7
 10
-13.806840630286246
 20
-23.819690967559282
 40
22.37076608503838
 50
109.53116641608354
 51
128.5780417820711
  0
ARC
  8
_0-0_
  6
CONTINUOUS
 62
    7
 10
-23.15457558344022
 20
-11.754874516489124
 40
7.1131912625460938
 50
130.31572583482827
 51
162.97622266213833
  0
ARC
  8
_0-0_
  6
CONTINUOUS
 62
    7
 10
-25.33433264013334
 20
-11.131041673673323
 40
4.8464843519485186
 50
162.48363897218252
 51
204.4950108394107
  0
ARC
  8
_0-0_
  6
CONTINUOUS
 62
    7
 10
-21.65053436173568
 20
-8.9325177950063903
 40
9.1225559789302029
 50
207.46896668797996
 51
238.28884051869684
  0
ARC
  8
_0-0_
  6
CONTINUOUS
 62
    7
 10
-14.929645000583292
 20
-0.9356288016477805
 40
19.51714546739915
 50
233.8396113424308
 51
245.10097685770111
  0
ARC
  8
_0-0_
  6
CONTINUOUS
 62
    7
 10
-22.628739406517042
 20
-8.3529956326547392
 40
7.6717363367894738
 50
131.52317979470914
 51
165.04655317509562
  0
ARC
  8
_0-0_
  6
CONTINUOUS
 62
    7
 10
-11.423298460721952
 20
-21.480941152619252
 40
24.930781116966102
 50
107.49333442985831
 51
130.8028092615676
  0
ARC
  8
_0-0_
  6
CONTINUOUS
 62
    7
 10
-4.0938731044770122
 20
-36.937090089877117
 40
41.940875858379044
 50
90.143695503243421
 51
110.69772929034568
  0
ARC
  8
_0-0_
  6
CONTINUOUS
 62
    7
 10
1.6428507337958536
 20
-49.280360727440375
 40
54.597455527618806
 50
78.612808674990333
 51
96.142388403927455
  0
ARC
  8
_0-0_
  6
CONTINUOUS
 62
    7
 10
7.6072568862710739
 20
-30.416431885458039
 40
34.991689392957177
 50
62.591625548829569
 51
82.090412058904178
  0
ARC
  8
_0-0_
  6
CONTINUOUS
 62
    7
 10
15.180992706348974
 20
-15.814822431554504
 40
18.542723916792649
 50
45.411698927149473
 51
62.597859323405217
  0
ARC
  8
_0-0_
  6
CONTINUOUS
 62
    7
 10
18.813316075319278
 20
-10.621744369375648
 40
12.33995739370504
 50
25.247607624071303
 51
40.489750242663881
  0
LINE
  8
_0-0_
  6
CONTINUOUS
 62
    7
 10
-30.040678525848477
 20
-6.3734257519634099
 11
-30.167560454689195
 21
-11.321820976750317
  0
LINE
  8
_0-0_
  6
CONTINUOUS
 62
    7
 10
29.974473815797893
 20
-5.358370321237885
 11
30.270531649759505
 21
-10.475941451145715
  0
ARC
  8
_0-0_
  6
CONTINUOUS
 62
    7
 10
-2.5212597439033573
 20
-4.6385434308213291
 40
8.4401665872515235
 50
230.96931299262209
 51
265.78429475156855
  0
ARC
  8
_0-0_
  6
CONTINUOUS
 62
    7
 10
-0.1864460902643543
 20
6.2659980603419143
 40
19.546568050702156
 50
261.30405183775099
 51
284.29650649832502
  0
ARC
  8
_0-0_
  6
CONTINUOUS
 62
    7
 10
3.9062794356474342
 20
-6.6640457889744482
 40
6.0558418739073439
 50
276.9626455346887
 51
314.49876566837366
  0
LINE
  8
_0-0_
  6
CONTINUOUS
 62
    7
 10
-1.2807746552920776
 20
-10.137589640903883
 11
-1.4076565841327522
 21
-12.08311254979445
  0
LINE
  8
_0-0_
  6
CONTINUOUS
 62
    7
 10
2.3565073048077068
 20
-10.137589640903883
 11
2.5256832099286157
 21
-11.702466763272383
  0
LINE
  8
_0-0_
  6
CONTINUOUS
 62
    7
 10
-4.4528228763093409
 20
-10.518235427425935
 11
-4.5797048051500155
 21
-11.702466763272383
  0
LINE
  8
_0-0_
  6
CONTINUOUS
 62
    7
 10
-1.4076565841327522
 20
-12.08311254979445
 11
2.5256832099286157
 21
-11.702466763272383
  0
LINE
  8
_0-0_
  6
CONTINUOUS
 62
    7
 10
4.7249699765005744
 20
-10.433647474865481
 11
4.8095579290610431
 21
-11.448702905591006
  0
LINE
  8
_0-0_
  6
CONTINUOUS
 62
    7
 10
4.8095579290610431
 20
-11.448702905591006
 11
6.1629651700284285
 21
-11.194939047909628
  0
LINE
  8
_0-0_
  6
CONTINUOUS
 62
    7
 10
6.1629651700284285
 20
-11.194939047909628
 11
7.220314577034145
 21
-10.814293261387547
  0
LINE
  8
_0-0_
  6
CONTINUOUS
 62
    7
 10
-4.5797048051500155
 20
-11.702466763272383
 11
-5.933112046117401
 21
-11.279527000470097
  0
LINE
  8
_0-0_
  6
CONTINUOUS
 62
    7
 10
-5.933112046117401
 20
-11.279527000470097
 11
-6.6521096428812996
 21
-10.941175190228265
  0
LINE
  8
_0-0_
  6
CONTINUOUS
 62
    7
 10
-10.670037389503136
 20
-13.055874004239755
 11
-9.5281000299369225
 21
-12.463758336316531
  0
LINE
  8
_0-0_
  6
CONTINUOUS
 62
    7
 10
-9.3589241248160135
 20
-14.663045102888489
 11
-8.5976325517718521
 21
-13.944047506124576
  0
LINE
  8
_0-0_
  6
CONTINUOUS
 62
    7
 10
-8.005516883848685
 20
-15.339748723372182
 11
-7.413401215925461
 21
-14.620751126608255
  0
LINE
  8
_0-0_
  6
CONTINUOUS
 62
    7
 10
-4.7488807102709245
 20
-16.227922225257004
 11
-4.3259409474686379
 21
-15.678100533614028
  0
LINE
  8
_0-0_
  6
CONTINUOUS
 62
    7
 10
-2.5918879199792002
 20
-16.101040296416315
 11
-2.7187698488199032
 21
-16.735449940619759
  0
LINE
  8
_0-0_
  6
CONTINUOUS
 62
    7
 10
1.3414518740821677
 20
-16.143334272696535
 11
1.4683338029228707
 21
-16.735449940619759
  0
LINE
  8
_0-0_
  6
CONTINUOUS
 62
    7
 10
3.4138567118134517
 20
-15.847276438734923
 11
3.6676205694948578
 21
-16.650861988059305
  0
LINE
  8
_0-0_
  6
CONTINUOUS
 62
    7
 10
6.3744350514295434
 20
-14.832221008009412
 11
7.1357266244737048
 21
-15.678100533614028
  0
LINE
  8
_0-0_
  6
CONTINUOUS
 62
    7
 10
7.981606150078278
 20
-14.324693292646657
 11
8.7006037468422051
 21
-15.04369088941057
  0
LINE
  8
_0-0_
  6
CONTINUOUS
 62
    7
 10
9.5464832724468067
 20
-12.928992075399066
 11
10.68842063201302
 21
-13.140461956800223
  0
LINE
  8
_0-0_
  6
CONTINUOUS
 62
    7
 10
10.223186892930471
 20
-11.829348692113086
 11
10.815302560853695
 21
-11.913936644673541
  0
LINE
  8
_0-0_
  6
CONTINUOUS
 62
    7
 10
28.959418385072382
 20
-13.478813767042055
 11
27.902068978066609
 21
-13.944047506124576
  0
LINE
  8
_0-0_
  6
CONTINUOUS
 62
    7
 10
28.198126812028221
 20
-14.705339079168724
 11
27.394541262703882
 21
-14.832221008009412
  0
LINE
  8
_0-0_
  6
CONTINUOUS
 62
    7
 10
28.367302717149158
 20
-7.1770113012877914
 11
27.352247286423648
 21
-7.9805968506121445
  0
LINE
  8
_0-0_
  6
CONTINUOUS
 62
    7
 10
27.436835238984116
 20
-6.0773679180017979
 11
26.506367760819046
 21
-6.9232474436063995
  0
LINE
  8
_0-0_
  6
CONTINUOUS
 62
    7
 10
16.440401406124295
 20
-1.0020907643741879
 11
15.679109833080162
 21
-2.1440281239404158
  0
LINE
  8
_0-0_
  6
CONTINUOUS
 62
    7
 10
14.071938734431427
 20
-0.4099750964509638
 11
13.479823066508203
 21
-1.5942064322974119
  0
LINE
  8
_0-0_
  6
CONTINUOUS
 62
    7
 10
-3.3531794930233616
 20
0.6473743105547669
 11
-3.0994156353419839
 21
-0.2830931676102892
  0
LINE
  8
_0-0_
  6
CONTINUOUS
 62
    7
 10
-6.3983457851998935
 20
0.3936104528733892
 11
-6.1022879512382815
 21
-0.5368570252916811
  0
LINE
  8
_0-0_
  6
CONTINUOUS
 62
    7
 10
-21.243531459560643
 20
-3.2436715072263951
 11
-20.355357957675807
 21
-4.2164329616716856
  0
LINE
  8
_0-0_
  6
CONTINUOUS
 62
    7
 10
-23.189054368451224
 20
-4.2164329616716856
 11
-22.258586890286182
 21
-5.062312487276273
  0
LINE
  8
_0-0_
  6
CONTINUOUS
 62
    7
 10
-28.856447190002029
 20
-10.433647474865481
 11
-28.010567664397456
 21
-10.814293261387547
  0
LINE
  8
_0-0_
  6
CONTINUOUS
 62
    7
 10
-29.321680929084579
 20
-11.406408929310771
 11
-28.264331522078805
 21
-11.744760739552618
  0
LINE
  8
_0-0_
  6
CONTINUOUS
 62
    7
 10
-25.261459206182508
 20
-17.200683679702294
 11
-24.880813419660427
 21
-17.073801750861605
  0
LINE
  8
_0-0_
  6
CONTINUOUS
 62
    7
 10
-3.1401032077612001
 20
-13.242792280362579
 11
-3.1673880972209076
 21
-15.084522318891985
  0
LINE
  8
_0-0_
  6
CONTINUOUS
 62
    7
 10
-2.6899025316762391
 20
-13.256434725092433
 11
-2.7581147553254652
 21
-15.139092097811385
  0
LINE
  8
_0-0_
  6
CONTINUOUS
 62
    7
 10
-2.3351989687002117
 20
-13.37921672766106
 11
-2.2942716345106646
 21
-15.220946766190465
  0
LINE
  8
_0-0_
  6
CONTINUOUS
 62
    7
 10
-1.8713558478853827
 20
-13.311004504011819
 11
-1.9122831820749298
 21
-15.207304321460612
  0
LINE
  8
_0-0_
  6
CONTINUOUS
 62
    7
 10
-1.4347976165302612
 20
-13.461071396040126
 11
-1.4347976165302612
 21
-15.098164763621838
  0
LINE
  8
_0-0_
  6
CONTINUOUS
 62
    7
 10
-0.998239385175168
 20
-13.488356285499833
 11
-0.9709544957154605
 21
-15.261874100380012
  0
LINE
  8
_0-0_
  6
CONTINUOUS
 62
    7
 10
-0.5480387090901786
 20
-13.406501617120753
 11
-0.534396264360339
 21
-15.180019432000904
  0
LINE
  8
_0-0_
  6
CONTINUOUS
 62
    7
 10
-0.0978380330052175
 20
-13.351931838201352
 11
-0.0978380330052175
 21
-15.180019432000904
  0
LINE
  8
_0-0_
  6
CONTINUOUS
 62
    7
 10
0.3250777536200644
 20
-13.461071396040126
 11
0.366005087809583
 21
-15.234589210920305
  0
LINE
  8
_0-0_
  6
CONTINUOUS
 62
    7
 10
0.8707755428139307
 20
-13.420144061850607
 11
0.788920874434865
 21
-15.152734542541225
  0
LINE
  8
_0-0_
  6
CONTINUOUS
 62
    7
 10
1.2527639952496656
 20
-13.37921672766106
 11
1.2936913294392127
 21
-15.289158989839692
  0
LINE
  8
_0-0_
  6
CONTINUOUS
 62
    7
 10
1.6893222266047871
 20
-13.420144061850607
 11
1.7029646713346267
 21
-15.084522318891985
  0
LINE
  8
_0-0_
  6
CONTINUOUS
 62
    7
 10
2.1531653474196162
 20
-13.351931838201352
 11
2.1531653474196162
 21
-15.057237429432277
  0
LINE
  8
_0-0_
  6
CONTINUOUS
 62
    7
 10
2.6033660235045772
 20
-13.365574282931206
 11
2.494226465665804
 21
-15.070879874162131
  0
LINE
  8
_0-0_
  6
CONTINUOUS
 62
    7
 10
2.9307846970208971
 20
-13.351931838201352
 11
2.9853544759403121
 21
-14.866243203214424
  0
LINE
  8
_0-0_
  6
CONTINUOUS
 62
    7
 10
3.4082702625655656
 20
-13.270077169822272
 11
3.2991307047267924
 21
-14.866243203214424
  0
LINE
  8
_0-0_
  6
CONTINUOUS
 62
    7
 10
3.7084040466222064
 20
-13.147295167253645
 11
3.7356889360819139
 21
-14.838958313754731
  0
LINE
  8
_0-0_
  6
CONTINUOUS
 62
    7
 10
4.2131745016265825
 20
-12.997228275225325
 11
4.1995320568967145
 21
-14.497897195508543
  0
LINE
  8
_0-0_
  6
CONTINUOUS
 62
    7
 10
4.636090288251836
 20
-12.888088717386537
 11
4.5678780646026098
 21
-14.593394308617476
  0
LINE
  8
_0-0_
  6
CONTINUOUS
 62
    7
 10
5.0726485196069575
 20
-12.792591604277618
 11
5.0044362959577029
 21
-14.484254750778703
  0
LINE
  8
_0-0_
  6
CONTINUOUS
 62
    7
 10
5.4546369720426924
 20
-12.724379380628378
 11
5.4273520825829848
 21
-14.225048300911595
  0
LINE
  8
_0-0_
  6
CONTINUOUS
 62
    7
 10
5.7820556455590122
 20
-12.997228275225325
 11
5.6865585324501069
 21
-14.034054074693742
  0
LINE
  8
_0-0_
  6
CONTINUOUS
 62
    7
 10
6.1367592085350395
 20
-12.969943385765617
 11
6.1504016532649075
 21
-13.515641174959526
  0
LINE
  8
_0-0_
  6
CONTINUOUS
 62
    7
 10
6.0276196506962663
 20
-12.983585830495471
 11
5.9594074270470401
 21
-13.815774959016167
  0
LINE
  8
_0-0_
  6
CONTINUOUS
 62
    7
 10
6.2868261005633883
 20
-12.874446272656698
 11
6.2731836558335203
 21
-13.624780732798314
  0
LINE
  8
_0-0_
  6
CONTINUOUS
 62
    7
 10
-3.4811643260073879
 20
-13.29736205928198
 11
-3.4538794365476804
 21
-15.070879874162131
  0
LINE
  8
_0-0_
  6
CONTINUOUS
 62
    7
 10
-3.931365002092349
 20
-13.160937611983499
 11
-3.917722557362481
 21
-14.93445542686365
  0
LINE
  8
_0-0_
  6
CONTINUOUS
 62
    7
 10
-4.3542807887176309
 20
-13.147295167253645
 11
-4.4497779018265362
 21
-14.825315869024877
  0
LINE
  8
_0-0_
  6
CONTINUOUS
 62
    7
 10
-4.6680570175040828
 20
-13.147295167253645
 11
-4.7635541306130165
 21
-14.716176311186103
  0
LINE
  8
_0-0_
  6
CONTINUOUS
 62
    7
 10
-5.0364030252099781
 20
-12.983585830495471
 11
-5.0227605804801385
 21
-14.566109419157783
  0
LINE
  8
_0-0_
  6
CONTINUOUS
 62
    7
 10
-5.3092519198069397
 20
-13.038155609414872
 11
-5.3774641434561659
 21
-14.53882452969809
  0
LINE
  8
_0-0_
  6
CONTINUOUS
 62
    7
 10
-5.6912403722426745
 20
-13.201864946173046
 11
-5.6775979275128066
 21
-13.84305984847586
  0
LINE
  8
_0-0_
  6
CONTINUOUS
 62
    7
 10
-5.9504468221097682
 20
-12.669809601708991
 11
-6.0323014904888339
 21
-13.952199406314648
  0
LINE
  8
_0-0_
  6
CONTINUOUS
 62
    7
 10
-6.3597201640051821
 20
-12.61523982278959
 11
-6.4688597218439838
 21
-13.488356285499833
  0
LINE
  8
_0-0_
  6
CONTINUOUS
 62
    7
 10
-6.9872726215781995
 20
-12.751664270088071
 11
-7.0281999557677182
 21
-12.983585830495471
  0
LINE
  8
_0-0_
  6
CONTINUOUS
 62
    7
 10
-7.355618629284038
 20
-12.642524712249283
 11
-7.410188408203453
 21
-12.710736935898538
  0
LINE
  8
_0-0_
  6
CONTINUOUS
 62
    7
 10
-7.8467466395585461
 20
-12.30146359400311
 11
-7.9013164184779612
 21
-12.465172930761284
  0
LINE
  8
_0-0_
  6
CONTINUOUS
 62
    7
 10
6.6960994424588023
 20
-12.983585830495471
 11
6.6960994424588023
 21
-13.229149835632725
  0
LINE
  8
_0-0_
  6
CONTINUOUS
 62
    7
 10
7.1326576738139522
 20
-12.901731162116391
 11
7.3236519000317912
 21
-12.983585830495471
  0
LINE
  8
_0-0_
  6
CONTINUOUS
 62
    7
 10
7.5419310157093662
 20
-12.574312488600071
 11
7.5965007946287528
 21
-12.710736935898538
  0
LINE
  8
_0-0_
  6
CONTINUOUS
 62
    7
 10
-29.679176724040261
 20
-5.5202127231923157
 11
-29.726968727870954
 21
-8.4195942889199813
  0
LINE
  8
_0-0_
  6
CONTINUOUS
 62
    7
 10
-29.440216704886865
 20
-5.3768367117002924
 11
-29.440216704886865
 21
-7.7823675711776303
  0
LINE
  8
_0-0_
  6
CONTINUOUS
 62
    7
 10
-29.153464681902818
 20
-5.0263620169420165
 11
-29.073811342185024
 21
-6.9221115022254764
  0
LINE
  8
_0-0_
  6
CONTINUOUS
 62
    7
 10
-22.813058840366494
 20
0.2944810762065657
 11
-22.860850844197188
 21
-2.7960685048438023
  0
LINE
  8
_0-0_
  6
CONTINUOUS
 62
    7
 10
-23.099810863350541
 20
0.0714517249967485
 11
-23.211325538955492
 21
-2.9235138483922753
  0
LINE
  8
_0-0_
  6
CONTINUOUS
 62
    7
 10
-23.53790423179845
 20
-0.1356469582695325
 11
-23.585696235629115
 21
-3.2261965393198864
  0
LINE
  8
_0-0_
  6
CONTINUOUS
 62
    7
 10
-23.90430959450029
 20
-0.4223989812535791
 11
-23.952101598330955
 21
-3.5129485623039329
  0
LINE
  8
_0-0_
  6
CONTINUOUS
 62
    7
 10
-24.206992285427873
 20
-0.6454283324633962
 11
-24.254784289258566
 21
-3.7359779135137643
  0
LINE
  8
_0-0_
  6
CONTINUOUS
 62
    7
 10
-24.43002163663769
 20
-0.7888043439554195
 11
-24.477813640468383
 21
-3.8793539250057876
  0
LINE
  8
_0-0_
  6
CONTINUOUS
 62
    7
 10
-24.748634995508866
 20
-0.9481110233910072
 11
-24.796426999339559
 21
-4.0386606044413753
  0
LINE
  8
_0-0_
  6
CONTINUOUS
 62
    7
 10
-25.242485701759193
 20
-1.2189323784315036
 11
-25.290277705589858
 21
-4.3094819594818716
  0
LINE
  8
_0-0_
  6
CONTINUOUS
 62
    7
 10
-25.640752400348134
 20
-1.5694070731897938
 11
-25.688544404178828
 21
-4.6599566542401476
  0
LINE
  8
_0-0_
  6
CONTINUOUS
 62
    7
 10
-26.039019098937132
 20
-1.888020432060955
 11
-26.086811102767825
 21
-4.9785700131113231
  0
LINE
  8
_0-0_
  6
CONTINUOUS
 62
    7
 10
-26.644384480792354
 20
-2.0791884473836717
 11
-26.692176484623019
 21
-5.1697380284340397
  0
LINE
  8
_0-0_
  6
CONTINUOUS
 62
    7
 10
-26.437285797526101
 20
-2.3022177985934746
 11
-26.485077801356766
 21
-5.3927673796438427
  0
LINE
  8
_0-0_
  6
CONTINUOUS
 62
    7
 10
-27.042651179381323
 20
-2.573039153633971
 11
-27.090443183211988
 21
-5.663588734684339
  0
LINE
  8
_0-0_
  6
CONTINUOUS
 62
    7
 10
-27.472779213857365
 20
-2.9075831804487109
 11
-27.520571217688058
 21
-5.9981327614990789
  0
LINE
  8
_0-0_
  6
CONTINUOUS
 62
    7
 10
-27.823253908615669
 20
-3.2899192110941158
 11
-27.871045912446363
 21
-6.3804687921444838
  0
LINE
  8
_0-0_
  6
CONTINUOUS
 62
    7
 10
-28.285243278978896
 20
-3.640393905852406
 11
-28.333035282809561
 21
-6.730943486902774
  0
LINE
  8
_0-0_
  6
CONTINUOUS
 62
    7
 10
-28.619787305793636
 20
-3.8793539250057876
 11
-28.667579309624301
 21
-6.9699035060561414
  0
LINE
  8
_0-0_
  6
CONTINUOUS
 62
    7
 10
-28.683509977567851
 20
-4.0864526082720545
 11
-28.731301981398502
 21
-7.1770021893224083
  0
LINE
  8
_0-0_
  6
CONTINUOUS
 62
    7
 10
-22.359034803975078
 20
0.5334410953599331
 11
-22.406826807805771
 21
-2.5571084856904207
  0
LINE
  8
_0-0_
  6
CONTINUOUS
 62
    7
 10
-21.83332276183765
 20
0.7883317824568791
 11
-21.881114765668343
 21
-2.3022177985934746
  0
LINE
  8
_0-0_
  6
CONTINUOUS
 62
    7
 10
-21.387264059418015
 20
1.0591531374973755
 11
-21.43505606324868
 21
-2.0313964435529783
  0
LINE
  8
_0-0_
  6
CONTINUOUS
 62
    7
 10
-20.797829345506358
 20
1.1547371451587338
 11
-20.845621349337051
 21
-1.9358124358916342
  0
LINE
  8
_0-0_
  6
CONTINUOUS
 62
    7
 10
-20.36770131103026
 20
1.3459051604814221
 11
-20.415493314860953
 21
-1.7446444205689318
  0
LINE
  8
_0-0_
  6
CONTINUOUS
 62
    7
 10
-19.698613257400808
 20
1.5211425078605743
 11
-19.746405261231502
 21
-1.5694070731897938
  0
LINE
  8
_0-0_
  6
CONTINUOUS
 62
    7
 10
-19.172901215263408
 20
1.8238251987881853
 11
-19.220693219094045
 21
-1.2667243822621685
  0
LINE
  8
_0-0_
  6
CONTINUOUS
 62
    7
 10
-18.710911844900181
 20
1.9034785385059934
 11
-18.758703848730846
 21
-1.1870710425443747
  0
LINE
  8
_0-0_
  6
CONTINUOUS
 62
    7
 10
-18.232991806593418
 20
2.030923882054438
 11
-18.280783810424111
 21
-1.0596256989959159
  0
LINE
  8
_0-0_
  6
CONTINUOUS
 62
    7
 10
-17.755071768286683
 20
2.1902305614900399
 11
-17.80286377211732
 21
-0.9003190195603281
  0
LINE
  8
_0-0_
  6
CONTINUOUS
 62
    7
 10
-17.133775718487897
 20
2.6044279280225595
 11
-17.18156772231859
 21
-0.4861216530278085
  0
LINE
  8
_0-0_
  6
CONTINUOUS
 62
    7
 10
-16.464687664858445
 20
2.5884972600790093
 11
-16.51247966868911
 21
-0.5020523209713587
  0
LINE
  8
_0-0_
  6
CONTINUOUS
 62
    7
 10
-15.970836958608089
 20
2.8115266112888264
 11
-16.018628962438754
 21
-0.2790229697615274
  0
LINE
  8
_0-0_
  6
CONTINUOUS
 62
    7
 10
-15.238026233204408
 20
2.9389719548372994
 11
-15.285818237035073
 21
-0.1515776262130685
  0
LINE
  8
_0-0_
  6
CONTINUOUS
 62
    7
 10
-14.951274210220333
 20
3.0664172983857583
 11
-14.999066214051027
 21
-0.0241322826646097
  0
LINE
  8
_0-0_
  6
CONTINUOUS
 62
    7
 10
-14.154740813042423
 20
3.3213079854827043
 11
-14.202532816873088
 21
0.2307584044323363
  0
LINE
  8
_0-0_
  6
CONTINUOUS
 62
    7
 10
-13.421930087638742
 20
3.5284066687489712
 11
-13.469722091469407
 21
0.4378570876986032
  0
LINE
  8
_0-0_
  6
CONTINUOUS
 62
    7
 10
-12.816564705783492
 20
3.6080600084667509
 11
-12.864356709614185
 21
0.5175104274163828
  0
LINE
  8
_0-0_
  6
CONTINUOUS
 62
    7
 10
-12.004100640662017
 20
3.6239906764103154
 11
-12.051892644492682
 21
0.5334410953599473
  0
LINE
  8
_0-0_
  6
CONTINUOUS
 62
    7
 10
-11.462457930581024
 20
3.8310893596765681
 11
-11.510249934411689
 21
0.7405397786262142
  0
LINE
  8
_0-0_
  6
CONTINUOUS
 62
    7
 10
-10.777439209008008
 20
4.0222573749992705
 11
-10.825231212838702
 21
0.9317077939489024
  0
LINE
  8
_0-0_
  6
CONTINUOUS
 62
    7
 10
-10.331380506588374
 20
3.9744653711685913
 11
-10.379172510419039
 21
0.8839157901182375
  0
LINE
  8
_0-0_
  6
CONTINUOUS
 62
    7
 10
-9.6782231209024587
 20
4.1178413826606146
 11
-9.7260151247331237
 21
1.0272918016102608
  0
LINE
  8
_0-0_
  6
CONTINUOUS
 62
    7
 10
-8.9454123954987494
 20
4.1178413826606146
 11
-8.9932043993294428
 21
1.0272918016102608
  0
LINE
  8
_0-0_
  6
CONTINUOUS
 62
    7
 10
-8.260393673925762
 20
4.165633386491308
 11
-8.3081856777564269
 21
1.0750838054409542
  0
LINE
  8
_0-0_
  6
CONTINUOUS
 62
    7
 10
-7.4957216126349238
 20
4.4523854094753545
 11
-7.5435136164656171
 21
1.3618358284250007
  0
LINE
  8
_0-0_
  6
CONTINUOUS
 62
    7
 10
-6.6832575475134774
 20
4.3408707338704602
 11
-6.731049551344114
 21
1.2503211528200922
  0
LINE
  8
_0-0_
  6
CONTINUOUS
 62
    7
 10
-5.7911401426741804
 20
4.4842467453624835
 11
-5.8389321465048738
 21
1.3936971643121154
  0
LINE
  8
_0-0_
  6
CONTINUOUS
 62
    7
 10
-5.0901907531576001
 20
4.4045934056446896
 11
-5.1379827569882934
 21
1.3140438245943216
  0
LINE
  8
_0-0_
  6
CONTINUOUS
 62
    7
 10
-4.4688947033588136
 20
4.516108081249584
 11
-4.5166867071894501
 21
1.4255585001992301
  0
LINE
  8
_0-0_
  6
CONTINUOUS
 62
    7
 10
-3.9591133291649498
 20
4.6276227568545067
 11
-4.0069053329956432
 21
1.5370731758041387
  0
LINE
  8
_0-0_
  6
CONTINUOUS
 62
    7
 10
-3.2581639396483695
 20
4.5639000850802773
 11
-3.3059559434790629
 21
1.4733505040299093
  0
LINE
  8
_0-0_
  6
CONTINUOUS
 62
    7
 10
-2.3660465348090725
 20
4.5639000850802773
 11
-2.4138385386397658
 21
1.4733505040299093
  0
LINE
  8
_0-0_
  6
CONTINUOUS
 62
    7
 10
-1.9040571644458737
 20
4.6116920889109565
 11
-1.9518491682765386
 21
1.5211425078605885
  0
LINE
  8
_0-0_
  6
CONTINUOUS
 62
    7
 10
-1.0119397596066051
 20
4.6116920889109565
 11
-1.0597317634372416
 21
1.5211425078605885
  0
LINE
  8
_0-0_
  6
CONTINUOUS
 62
    7
 10
-0.3906437098078186
 20
4.643553424798057
 11
-0.4384357136384835
 21
1.5530038437477032
  0
LINE
  8
_0-0_
  6
CONTINUOUS
 62
    7
 10
0.2465830079345323
 20
4.6116920889109565
 11
0.1987910041038674
 21
1.5211425078605885
  0
LINE
  8
_0-0_
  6
CONTINUOUS
 62
    7
 10
1.0749777409995716
 20
4.7550681004029798
 11
1.0271857371688782
 21
1.6645185193526117
  0
LINE
  8
_0-0_
  6
CONTINUOUS
 62
    7
 10
1.5847591151934637
 20
4.6276227568545067
 11
1.5369671113627703
 21
1.5370731758041387
  0
LINE
  8
_0-0_
  6
CONTINUOUS
 62
    7
 10
2.2538471688229151
 20
4.5320387491931626
 11
2.2060551649922502
 21
1.4414891681427946
  0
LINE
  8
_0-0_
  6
CONTINUOUS
 62
    7
 10
3.0981725698315188
 20
4.5798307530238276
 11
3.0503805660008254
 21
1.4892811719734738
  0
LINE
  8
_0-0_
  6
CONTINUOUS
 62
    7
 10
3.8947059670094575
 20
4.5479694171367129
 11
3.8469139631787925
 21
1.4574198360863448
  0
LINE
  8
_0-0_
  6
CONTINUOUS
 62
    7
 10
4.6275166924131383
 20
4.5798307530238276
 11
4.5797246885824734
 21
1.4892811719734738
  0
LINE
  8
_0-0_
  6
CONTINUOUS
 62
    7
 10
5.3443967498732832
 20
4.5320387491931626
 11
5.2966047460426182
 21
1.4414891681427946
  0
LINE
  8
_0-0_
  6
CONTINUOUS
 62
    7
 10
6.0134848035027346
 20
4.4045934056446896
 11
5.9656927996720412
 21
1.3140438245943216
  0
LINE
  8
_0-0_
  6
CONTINUOUS
 62
    7
 10
6.7064688590475328
 20
4.4523854094753688
 11
6.7542608628782261
 21
1.3777664963685652
  0
LINE
  8
_0-0_
  6
CONTINUOUS
 62
    7
 10
7.4631755863665603
 20
4.3647667357858069
 11
7.5109675901972537
 21
1.2901478226789891
  0
LINE
  8
_0-0_
  6
CONTINUOUS
 62
    7
 10
8.1481943079395762
 20
4.3169747319551277
 11
8.1959863117702696
 21
1.2423558188483241
  0
LINE
  8
_0-0_
  6
CONTINUOUS
 62
    7
 10
8.7216983539076978
 20
4.0780147128017319
 11
8.7694903577383911
 21
1.0033957996949283
  0
LINE
  8
_0-0_
  6
CONTINUOUS
 62
    7
 10
9.4067170754807137
 20
4.0620840448581816
 11
9.454509079311407
 21
0.987465131751378
  0
LINE
  8
_0-0_
  6
CONTINUOUS
 62
    7
 10
10.235111808545753
 20
3.9505693692532873
 11
10.282903812376446
 21
0.8759504561464694
  0
LINE
  8
_0-0_
  6
CONTINUOUS
 62
    7
 10
10.744893182739617
 20
3.9027773654226081
 11
10.79268518657031
 21
0.8281584523157903
  0
LINE
  8
_0-0_
  6
CONTINUOUS
 62
    7
 10
11.413981236369096
 20
3.8390546936483645
 11
11.46177324019979
 21
0.7644357805415467
  0
LINE
  8
_0-0_
  6
CONTINUOUS
 62
    7
 10
12.130861293829241
 20
3.7753320218741351
 11
12.178653297659935
 21
0.7007131087673315
  0
LINE
  8
_0-0_
  6
CONTINUOUS
 62
    7
 10
12.752157343627999
 20
3.6160253424385473
 11
12.799949347458693
 21
0.5414064293317295
  0
LINE
  8
_0-0_
  6
CONTINUOUS
 62
    7
 10
13.357522725483221
 20
3.5363720027207393
 11
13.405314729313915
 21
0.4617530896139356
  0
LINE
  8
_0-0_
  6
CONTINUOUS
 62
    7
 10
14.090333450886931
 20
3.3292733194544866
 11
14.138125454717624
 21
0.2546544063476829
  0
LINE
  8
_0-0_
  6
CONTINUOUS
 62
    7
 10
14.711629500685717
 20
3.2814813156238216
 11
14.759421504516411
 21
0.2068624025170038
  0
LINE
  8
_0-0_
  6
CONTINUOUS
 62
    7
 10
15.237341542823145
 20
3.1858973079624633
 11
15.285133546653839
 21
0.1112783948556597
  0
LINE
  8
_0-0_
  6
CONTINUOUS
 62
    7
 10
15.938290932339754
 20
3.0265906285268755
 11
15.986082936170419
 21
-0.0480282845799422
  0
LINE
  8
_0-0_
  6
CONTINUOUS
 62
    7
 10
16.464002974477154
 20
2.8832146170348523
 11
16.511794978307847
 21
-0.1914042960719655
  0
LINE
  8
_0-0_
  6
CONTINUOUS
 62
    7
 10
17.069368356332376
 20
2.739838605542829
 11
17.117160360163069
 21
-0.3347803075639888
  0
LINE
  8
_0-0_
  6
CONTINUOUS
 62
    7
 10
17.770317745848985
 20
2.5646012581636768
 11
17.818109749679678
 21
-0.5100176549431267
  0
LINE
  8
_0-0_
  6
CONTINUOUS
 62
    7
 10
18.455336467421972
 20
2.405294578728089
 11
18.503128471252666
 21
-0.6693243343787287
  0
LINE
  8
_0-0_
  6
CONTINUOUS
 62
    7
 10
19.076632517220759
 20
2.1344732236875927
 11
19.124424521051452
 21
-0.940145689419225
  0
LINE
  8
_0-0_
  6
CONTINUOUS
 62
    7
 10
19.55455255552755
 20
2.0866812198569136
 11
19.602344559358244
 21
-0.98793769324989
  0
LINE
  8
_0-0_
  6
CONTINUOUS
 62
    7
 10
19.681997899076009
 20
1.8955132045342111
 11
19.729789902906674
 21
-1.1791057085725924
  0
LINE
  8
_0-0_
  6
CONTINUOUS
 62
    7
 10
20.128056601495643
 20
1.8158598648164173
 11
20.175848605326337
 21
-1.2587590482903863
  0
LINE
  8
_0-0_
  6
CONTINUOUS
 62
    7
 10
20.653768643633072
 20
1.5291078418323707
 11
20.701560647463765
 21
-1.5455110712744471
  0
LINE
  8
_0-0_
  6
CONTINUOUS
 62
    7
 10
21.179480685770528
 20
1.4494545021145768
 11
21.227272689601222
 21
-1.625164410992241
  0
LINE
  8
_0-0_
  6
CONTINUOUS
 62
    7
 10
21.561816716415905
 20
1.1467718111869658
 11
21.609608720246598
 21
-1.9278471019198378
  0
LINE
  8
_0-0_
  6
CONTINUOUS
 62
    7
 10
21.991944750892003
 20
1.0671184714691719
 11
22.039736754722696
 21
-2.0075004416376458
  0
LINE
  8
_0-0_
  6
CONTINUOUS
 62
    7
 10
22.501726125085867
 20
0.8759504561464694
 11
22.54951812891656
 21
-2.1986684569603341
  0
LINE
  8
_0-0_
  6
CONTINUOUS
 62
    7
 10
22.97964616339263
 20
0.6210597690495234
 11
23.027438167223295
 21
-2.4535591440572802
  0
LINE
  8
_0-0_
  6
CONTINUOUS
 62
    7
 10
23.4097741978687
 20
0.3980304178397062
 11
23.457566201699393
 21
-2.6765884952670973
  0
LINE
  8
_0-0_
  6
CONTINUOUS
 62
    7
 10
23.792110228514105
 20
0.1272090627992099
 11
23.839902232344798
 21
-2.9474098503075936
  0
LINE
  8
_0-0_
  6
CONTINUOUS
 62
    7
 10
24.349683606538662
 20
-0.1436122922412863
 11
24.397475610369355
 21
-3.2182312053480899
  0
LINE
  8
_0-0_
  6
CONTINUOUS
 62
    7
 10
24.732019637184095
 20
-0.3825723113946537
 11
24.77981164101476
 21
-3.4571912245014715
  0
LINE
  8
_0-0_
  6
CONTINUOUS
 62
    7
 10
25.050632996055242
 20
-0.5896709946609348
 11
25.098424999885935
 21
-3.6642899077677384
  0
LINE
  8
_0-0_
  6
CONTINUOUS
 62
    7
 10
25.273662347265059
 20
-0.7489776740965083
 11
25.321454351095753
 21
-3.823596587203312
  0
LINE
  8
_0-0_
  6
CONTINUOUS
 62
    7
 10
26.006473072668769
 20
-1.0197990291370047
 11
26.054265076499462
 21
-4.0944179422438083
  0
LINE
  8
_0-0_
  6
CONTINUOUS
 62
    7
 10
25.783443721458923
 20
-1.163175040629028
 11
25.831235725289616
 21
-4.2377939537358316
  0
LINE
  8
_0-0_
  6
CONTINUOUS
 62
    7
 10
26.579977118636862
 20
-1.4817883995002035
 11
26.627769122467555
 21
-4.556407312607007
  0
LINE
  8
_0-0_
  6
CONTINUOUS
 62
    7
 10
27.01010515311296
 20
-1.8959857660327231
 11
27.057897156943653
 21
-4.9706046791395266
  0
LINE
  8
_0-0_
  6
CONTINUOUS
 62
    7
 10
27.551747863193953
 20
-2.1986684569603341
 11
27.599539867024646
 21
-5.2732873700671519
  0
LINE
  8
_0-0_
  6
CONTINUOUS
 62
    7
 10
28.20490524887984
 20
-2.8677565105897997
 11
28.252697252710533
 21
-5.9423754236966175
  0
LINE
  8
_0-0_
  6
CONTINUOUS
 62
    7
 10
28.81027063073509
 20
-3.6005672359934948
 11
28.858062634565755
 21
-6.6751861491002984
  0
LINE
  8
_0-0_
  6
CONTINUOUS
 62
    7
 10
29.208537329324031
 20
-4.1581406140180377
 11
29.256329333154724
 21
-7.2327595271248555
  0
LINE
  8
_0-0_
  6
CONTINUOUS
 62
    7
 10
29.590873359969464
 20
-4.6041993164376862
 11
29.638665363800158
 21
-7.6788182295444898
  0
LINE
  8
_0-0_
  6
CONTINUOUS
 62
    7
 10
29.829833379122817
 20
-5.4007327136156107
 11
29.877625382953511
 21
-8.4753516267224143
  0
LINE
  8
_0-0_
  6
CONTINUOUS
 62
    7
 10
28.507587939807479
 20
-3.2660232091787691
 11
28.555379943638172
 21
-6.3406421222855869
  0
LINE
  8
_0-0_
  6
CONTINUOUS
 62
    7
 10
27.870361222065128
 20
-2.6925191632106618
 11
27.918153225895821
 21
-5.7671380763174653
  0
ARC
  8
_0-0_
  6
CONTINUOUS
 62
    7
 10
-4.2636745461456087
 20
0.8767734766215511
 40
11.647118429367655
 50
97.645519312812183
 51
127.74207057737267
  0
ARC
  8
_0-0_
  6
CONTINUOUS
 62
    7
 10
8.752252213087047
 20
-12.741769252161987
 40
30.446399915291174
 50
131.4267335123499
 51
149.12105840235361
  0
ARC
  8
_0-0_
  6
CONTINUOUS
 62
    7
 10
-7.6641989135667927
 20
-5.6729090868971355
 40
15.61917198796845
 50
107.48369861205177
 51
127.98468239791903
  0
ARC
  8
_0-0_
  6
CONTINUOUS
 62
    7
 10
9.6239605941301249
 20
-26.654564681601954
 40
42.802344103986414
 50
128.93905624852908
 51
141.06094375147106
  0
ARC
  8
_0-0_
  6
CONTINUOUS
 62
    7
 10
-0.3096235082998077
 20
6.8152731579915269
 40
7.1000970420562499
 50
122.15724595605612
 51
150.2297328919075
  0
ARC
  8
_0-0_
  6
CONTINUOUS
 62
    7
 10
1.9171901534702442
 20
3.9245297332334559
 40
10.562019398063963
 50
142.59321473854399
 51
174.90577424718964
  0
ARC
  8
_0-0_
  6
CONTINUOUS
 62
    7
 10
-1.8447911740904601
 20
9.0426835807609365
 40
5.7893083547923325
 50
17.64117055529697
 51
43.517283189680398
  0
ARC
  8
_0-0_
  6
CONTINUOUS
 62
    7
 10
-14.667765004477872
 20
2.4101704124206123
 40
20.166761827229067
 50
8.1472909647171594
 51
24.574863945975579
  0
ARC
  8
_0-0_
  6
CONTINUOUS
 62
    7
 10
3.4916843689918267
 20
4.3125172110289895
 40
8.648994470264066
 50
55.098273461820888
 51
72.751015370281081
  0
ARC
  8
_0-0_
  6
CONTINUOUS
 62
    7
 10
1.9753329568901563
 20
1.5135173767062184
 40
11.817583456770855
 50
27.069520484441096
 51
56.833729634962189
  0
ARC
  8
_0-0_
  6
CONTINUOUS
 62
    7
 10
-0.8617421926166457
 20
-3.3140562023645685
 40
16.811984955998128
 50
25.405315789071619
 51
37.375220419303986
  0
ARC
  8
_0-0_
  6
CONTINUOUS
 62
    7
 10
4.9720842942475372
 20
-6.7662611914169446
 40
18.194680207555578
 50
62.184732764383199
 51
77.542660379120321
  0
ARC
  8
_0-0_
  6
CONTINUOUS
 62
    7
 10
5.0291495646265503
 20
-6.9691599305258194
 40
18.348081554914902
 50
44.215942480661269
 51
62.637995562300027
  0
ARC
  8
_0-0_
  6
CONTINUOUS
 62
    7
 10
-1.5270159429810235
 20
-18.749967970306713
 40
31.50131571672642
 50
38.724646905604615
 51
51.27535309439557
  0
LINE
  8
_0-0_
  6
CONTINUOUS
 62
    7
 10
-5.7625271219748697
 20
12.471075510780111
 11
6.2592231704988137
 21
12.521800195558484
  0
LINE
  8
_0-0_
  6
CONTINUOUS
 62
    7
 10
-2.5161472961591755
 20
12.420350826001737
 11
-2.4146979266024573
 21
5.6232430657001657
  0
LINE
  8
_0-0_
  6
CONTINUOUS
 62
    7
 10
0.8316818992132368
 20
12.471075510780111
 11
1.1867546926617933
 21
5.5217936961434191
  0
LINE
  8
_0-0_
  6
CONTINUOUS
 62
    7
 10
-3.0741188287212537
 20
11.8116546086613
 11
-3.0233941439428804
 21
6.587012076489188
  0
LINE
  8
_0-0_
  6
CONTINUOUS
 62
    7
 10
1.4911028013320617
 20
12.014553347774765
 11
1.59255217088878
 21
6.8406355003810262
  0
ARC
  8
_0-0_
  6
CONTINUOUS
 62
    7
 10
0.1139134577870777
 20
-2.776228494659108
 40
16.516053704868728
 50
67.395617523258849
 51
113.5031213741572
  0
ARC
  8
_0-0_
  6
CONTINUOUS
 62
    7
 10
-1.072378163651365
 20
32.707370387836249
 40
4.4123030802611245
 50
96.766109895067743
 51
149.629021689365
  0
ARC
  8
_0-0_
  6
CONTINUOUS
 62
    7
 10
-0.1300547550827957
 20
31.139981157206421
 40
6.1260167590264567
 50
60.660941649008173
 51
103.80872631414091
  0
ARC
  8
_0-0_
  6
CONTINUOUS
 62
    7
 10
2.1006888322737893
 20
34.472465006144603
 40
2.1506786209799031
 50
359.43506737144156
 51
68.996336893433693
  0
ARC
  8
_0-0_
  6
CONTINUOUS
 62
    7
 10
-4.2497671021809253
 20
34.728269972870464
 40
1.1674414898264691
 50
135.4743656020936
 51
232.50746059476472
  0
ARC
  8
_0-0_
  6
CONTINUOUS
 62
    7
 10
-0.5574372055558285
 20
31.036385803452561
 40
6.3888371140709559
 50
86.540624831927758
 51
135.08950710080654
  0
ARC
  8
_0-0_
  6
CONTINUOUS
 62
    7
 10
-0.3087413224707233
 20
29.924299074613145
 40
7.4905318273206891
 50
55.190704338217678
 51
88.953456137767645
  0
ARC
  8
_0-0_
  6
CONTINUOUS
 62
    7
 10
3.2908755462965473
 20
34.836767403891173
 40
1.410417877651996
 50
355.8752333938574
 51
61.345685938073778
  0
ARC
  8
_0-0_
  6
CONTINUOUS
 62
    7
 10
3.1197485477263456
 20
34.660764544148549
 40
1.5796518894758498
 50
315.75034542586161
 51
2.7051452100462519
  0
LINE
  8
_0-0_
  6
CONTINUOUS
 62
    7
 10
-5.2849778268999046
 20
35.871550973369921
 11
-5.4067170703679892
 21
35.0193762690933
  0
LINE
  8
_0-0_
  6
CONTINUOUS
 62
    7
 10
4.6570603896606144
 20
35.79039147772454
 11
4.6976401374832903
 21
35.0193762690933
  0
ARC
  8
_0-0_
  6
CONTINUOUS
 62
    7
 10
-1.6924648055471039
 20
33.870889049774746
 40
4.1120308779376904
 50
88.603091978101986
 51
150.88667061578252
  0
ARC
  8
_0-0_
  6
CONTINUOUS
 62
    7
 10
-0.3360931265229112
 20
31.280505867429838
 40
6.8179051616059851
 50
68.328121068059232
 51
100.61679862862806
  0
ARC
  8
_0-0_
  6
CONTINUOUS
 62
    7
 10
1.6410095157724527
 20
34.29275841522292
 40
3.3674126067025458
 50
26.406894828320819
 51
80.760348131907222
  0
LINE
  8
_0-0_
  6
CONTINUOUS
 62
    7
 10
-5.7719348007722431
 20
36.358507947242288
 11
-5.3255575747226089
 21
35.587492738611047
  0
LINE
  8
_0-0_
  6
CONTINUOUS
 62
    7
 10
5.103437615710277
 20
35.709231982079132
 11
4.778799633128699
 21
35.181695260384089
  0
LINE
  8
_0-0_
  6
CONTINUOUS
 62
    7
 10
-5.7719348007722431
 20
38.103437103618205
 11
-5.7719348007722431
 21
36.358507947242288
  0
LINE
  8
_0-0_
  6
CONTINUOUS
 62
    7
 10
5.103437615710277
 20
37.900538364504712
 11
5.103437615710277
 21
35.709231982079132
  0
ARC
  8
_0-0_
  6
CONTINUOUS
 62
    7
 10
-1.926864722832704
 20
34.555210660436444
 40
4.2469336007132581
 50
93.699835623110758
 51
154.87391833130715
  0
ARC
  8
_0-0_
  6
CONTINUOUS
 62
    7
 10
-0.5363147018294967
 20
29.729941990533007
 40
9.2149459565496947
 50
67.205058493083754
 51
100.40713157261418
  0
ARC
  8
_0-0_
  6
CONTINUOUS
 62
    7
 10
1.3911563455531279
 20
34.696652425560274
 40
3.8921704461166806
 50
30.68927394207395
 51
65.0355365101492
  0
ARC
  8
_0-0_
  6
CONTINUOUS
 62
    7
 10
11.575907393435727
 20
38.691843447049393
 40
7.1266286682092534
 50
196.37112909446898
 51
204.74096134469889
  0
ARC
  8
_0-0_
  6
CONTINUOUS
 62
    7
 10
-1.2640915173909377
 20
34.369037741954742
 40
5.8537500510286788
 50
93.213372775353633
 51
140.36088068418945
  0
ARC
  8
_0-0_
  6
CONTINUOUS
 62
    7
 10
-0.3016904227662564
 20
31.966693960501146
 40
8.3472548634472652
 50
65.532054875811511
 51
98.89390921492371
  0
ARC
  8
_0-0_
  6
CONTINUOUS
 62
    7
 10
1.2373633231443932
 20
35.346479376542788
 40
4.6335459153468657
 50
33.450095459330292
 51
65.544207770005002
  0
LINE
  8
_0-0_
  6
CONTINUOUS
 62
    7
 10
-4.7574411052048617
 20
40.213583990398376
 11
-5.2849778268999046
 21
40.213583990398376
  0
LINE
  8
_0-0_
  6
CONTINUOUS
 62
    7
 10
-5.2849778268999046
 20
40.213583990398376
 11
-5.4067170703679892
 21
38.549814329667868
  0
LINE
  8
_0-0_
  6
CONTINUOUS
 62
    7
 10
-3.9864258965736212
 20
41.065758694674997
 11
-4.4328031226232838
 21
41.268657433788462
  0
LINE
  8
_0-0_
  6
CONTINUOUS
 62
    7
 10
-4.4328031226232838
 20
41.268657433788462
 11
-4.4328031226232838
 21
39.239670042653671
  0
LINE
  8
_0-0_
  6
CONTINUOUS
 62
    7
 10
-2.484975227133873
 20
41.390396677256575
 11
-2.8907727053608596
 21
41.755614407660829
  0
LINE
  8
_0-0_
  6
CONTINUOUS
 62
    7
 10
-2.8907727053608596
 20
41.755614407660829
 11
-2.9313524531835355
 21
40.010685251284912
  0
LINE
  8
_0-0_
  6
CONTINUOUS
 62
    7
 10
-2.484975227133873
 20
41.390396677256575
 11
-2.484975227133873
 21
40.091844746930292
  0
LINE
  8
_0-0_
  6
CONTINUOUS
 62
    7
 10
-3.9864258965736212
 20
41.065758694674997
 11
-3.9458461487509453
 21
39.888946007816799
  0
LINE
  8
_0-0_
  6
CONTINUOUS
 62
    7
 10
-1.1458435489849137
 20
41.99909289459697
 11
-1.227003044630294
 21
40.294743486043785
  0
LINE
  8
_0-0_
  6
CONTINUOUS
 62
    7
 10
0.5990856073910038
 20
41.796194155483505
 11
0.6802451030364125
 21
40.294743486043785
  0
LINE
  8
_0-0_
  6
CONTINUOUS
 62
    7
 10
1.9787970333626959
 20
41.268657433788462
 11
2.3845945115896257
 21
41.512135920724631
  0
LINE
  8
_0-0_
  6
CONTINUOUS
 62
    7
 10
2.3845945115896257
 20
41.512135920724631
 11
2.587493250703119
 21
39.807786512171418
  0
LINE
  8
_0-0_
  6
CONTINUOUS
 62
    7
 10
2.0599565290080761
 20
40.781700459916124
 11
2.1005362768307805
 21
40.173004242575672
  0
LINE
  8
_0-0_
  6
CONTINUOUS
 62
    7
 10
3.6019869462705287
 20
40.862859955561532
 11
3.7237261897386134
 21
39.523728277412545
  0
LINE
  8
_0-0_
  6
CONTINUOUS
 62
    7
 10
4.6570603896606144
 20
39.848366259994123
 11
4.9005388765967837
 21
38.22517634708629
  0
ARC
  8
_0-0_
  6
CONTINUOUS
 62
    7
 10
-1.5331776390146672
 20
37.503674783792576
 40
4.2118265405232043
 50
89.147079066275694
 51
139.95382571213906
  0
ARC
  8
_0-0_
  6
CONTINUOUS
 62
    7
 10
-0.6165270137888398
 20
32.873989074993546
 40
8.8821914723638482
 50
66.592165284289564
 51
95.517071048632658
  0
ARC
  8
_0-0_
  6
CONTINUOUS
 62
    7
 10
1.1527584378531515
 20
37.428712822023812
 40
4.0037434009116275
 50
23.680664490146054
 51
63.932356661889848
  0
LINE
  8
_0-0_
  6
CONTINUOUS
 62
    7
 10
-4.3110638791551992
 20
43.541123311859451
 11
-4.3516436269779035
 21
41.268657433788462
  0
LINE
  8
_0-0_
  6
CONTINUOUS
 62
    7
 10
3.683146441915909
 20
43.581703059682155
 11
4.0483641723201913
 21
40.294743486043785
  0
ARC
  8
_0-0_
  6
CONTINUOUS
 62
    7
 10
0.2855107569421022
 20
35.804261450398371
 40
7.2144920331871178
 50
87.831420111769901
 51
128.74689658823573
  0
ARC
  8
_0-0_
  6
CONTINUOUS
 62
    7
 10
0.4503716591637498
 20
39.412769500593413
 40
3.6024403836626671
 50
37.249808370170236
 51
88.279898231224578
  0
ARC
  8
_0-0_
  6
CONTINUOUS
 62
    7
 10
0.3300263758449659
 20
37.650157136959507
 40
6.2710385286748949
 50
86.055567904252968
 51
134.52796743173502
  0
ARC
  8
_0-0_
  6
CONTINUOUS
 62
    7
 10
0.3353172465435818
 20
40.365758044733582
 40
3.5661293294062633
 50
23.648043890449337
 51
83.137806484335755
  0
ARC
  8
_0-0_
  6
CONTINUOUS
 62
    7
 10
-0.201571521242954
 20
39.665594750512184
 40
4.9329253375430078
 50
88.241436242501422
 51
141.60210480266934
  0
ARC
  8
_0-0_
  6
CONTINUOUS
 62
    7
 10
0.0098988841958771
 20
40.128857044394465
 40
4.4677438164226713
 50
38.201632200800141
 51
90.770626944131536
  0
ARC
  8
_0-0_
  6
CONTINUOUS
 62
    7
 10
-1.3588872250541328
 20
41.930614570146304
 40
3.3628983636371945
 50
105.93352481862793
 51
151.38609168955242
  0
ARC
  8
_0-0_
  6
CONTINUOUS
 62
    7
 10
0.2541577508980879
 20
38.204886473175009
 40
7.4071657754798927
 50
88.901311516829097
 51
110.02333289922215
  0
ARC
  8
_0-0_
  6
CONTINUOUS
 62
    7
 10
0.4459892860598984
 20
42.454692790606316
 40
3.1563905829399239
 50
39.78413608409457
 51
90.90406642774154
  0
ARC
  8
_0-0_
  6
CONTINUOUS
 62
    7
 10
1.4918400594899879
 20
42.404890372823644
 40
2.4873101458426419
 50
28.237445538170277
 51
56.30993247401814
  0
LINE
  8
_0-0_
  6
CONTINUOUS
 62
    7
 10
-5.3275987018922706
 20
12.854266993036447
 11
-4.8791803486729464
 21
34.93821677344792
  0
LINE
  8
_0-0_
  6
CONTINUOUS
 62
    7
 10
4.2512629114336846
 20
34.451259799575553
 11
5.4920644710973079
 21
12.731316275161561
  0
LINE
  8
_0-0_
  6
CONTINUOUS
 62
    7
 10
0.6560029013519681
 20
35.764084090389389
 11
1.0248550549766264
 21
17.444427127032029
  0
LINE
  8
_0-0_
  6
CONTINUOUS
 62
    7
 10
-2.99153506226952
 20
17.116558546032351
 11
-2.9095679170195865
 21
35.764084090389389
  0
ENDBLK
  0
ENDSEC
  0
SECTION
  2
ENTITIES
  0
INSERT
  2
-003-4
  8
_0-0_
 10
145.80612244897958
 20
99.275510204081627
 41
1
 42
1
 50
0
  0
ENDSEC
  0
EOF
